ISO-10303-21;
HEADER;
FILE_DESCRIPTION (( 'STEP AP203' ),
    '1' );
FILE_NAME ('OT200-25-33_7x2_6_OSTP.step',
    '2020-12-16T01:40:55',
    ( '' ),
    ( '' ),
    'SwSTEP 2.0',
    'SolidWorks 2014',
    '' );
FILE_SCHEMA (( 'CONFIG_CONTROL_DESIGN' ));
ENDSEC;

DATA;
#1 = DIRECTION ( 'NONE',  ( 1.000000000000000000, 0.0000000000000000000, 0.0000000000000000000 ) ) ;
#2 = CARTESIAN_POINT ( 'NONE',  ( 38.00000000000000000, 0.0000000000000000000, -2.063529856563290200E-015 ) ) ;
#3 = CIRCLE ( 'NONE', #14, 16.85000000000000100 ) ;
#4 = EDGE_LOOP ( 'NONE', ( #55, #103, #151, #162 ) ) ;
#5 = CARTESIAN_POINT ( 'NONE',  ( 38.00000000000000000, 52.25000000000000000, 0.0000000000000000000 ) ) ;
#6 = AXIS2_PLACEMENT_3D ( 'NONE', #44, #215, #236 ) ;
#7 = DIRECTION ( 'NONE',  ( 1.000000000000000000, 0.0000000000000000000, 0.0000000000000000000 ) ) ;
#8 = APPROVAL_STATUS ( 'not_yet_approved' ) ;
#9 = CIRCLE ( 'NONE', #133, 14.25000000000000000 ) ;
#10 = DIRECTION ( 'NONE',  ( 1.000000000000000000, 0.0000000000000000000, 0.0000000000000000000 ) ) ;
#11 = CC_DESIGN_PERSON_AND_ORGANIZATION_ASSIGNMENT ( #111, #128, ( #167 ) ) ;
#12 = PERSON_AND_ORGANIZATION_ROLE ( 'design_supplier' ) ;
#13 = PERSON_AND_ORGANIZATION_ROLE ( 'classification_officer' ) ;
#14 = AXIS2_PLACEMENT_3D ( 'NONE', #68, #84, #108 ) ;
#15 = SHAPE_DEFINITION_REPRESENTATION ( #67, #199 ) ;
#16 = ORIENTED_EDGE ( 'NONE', *, *, #132, .T. ) ;
#17 = FACE_OUTER_BOUND ( 'NONE', #28, .T. ) ;
#18 = AXIS2_PLACEMENT_3D ( 'NONE', #2, #47, #48 ) ;
#19 = ORIENTED_EDGE ( 'NONE', *, *, #222, .T. ) ;
#20 = ADVANCED_FACE ( 'NONE', ( #60, #206 ), #250, .T. ) ;
#21 = AXIS2_PLACEMENT_3D ( 'NONE', #242, #241, #159 ) ;
#22 = CARTESIAN_POINT ( 'NONE',  ( 0.0000000000000000000, 0.0000000000000000000, 0.0000000000000000000 ) ) ;
#23 = APPROVAL_DATE_TIME ( #153, #71 ) ;
#24 = CARTESIAN_POINT ( 'NONE',  ( 38.00000000000000000, 23.74999999999999600, -1.745121688784978600E-015 ) ) ;
#25 = CC_DESIGN_APPROVAL ( #71, ( #75 ) ) ;
#26 = COORDINATED_UNIVERSAL_TIME_OFFSET ( 1, 0, .AHEAD. ) ;
#27 = CARTESIAN_POINT ( 'NONE',  ( 38.00000000000000000, 0.0000000000000000000, -1.745121688784978200E-015 ) ) ;
#28 = EDGE_LOOP ( 'NONE', ( #79, #246, #193, #252 ) ) ;
#29 = EDGE_CURVE ( 'NONE', #174, #249, #73, .T. ) ;
#30 = CARTESIAN_POINT ( 'NONE',  ( 38.00000000000000000, 38.00000000000000000, 0.0000000000000000000 ) ) ;
#31 = APPROVAL_DATE_TIME ( #120, #34 ) ;
#32 = DATE_AND_TIME ( #118, #168 ) ;
#33 = PERSON_AND_ORGANIZATION_ROLE ( 'creator' ) ;
#34 = APPROVAL ( #36, 'UNSPECIFIED' ) ;
#35 = PERSON_AND_ORGANIZATION_ROLE ( 'creator' ) ;
#36 = APPROVAL_STATUS ( 'not_yet_approved' ) ;
#37 = PERSON_AND_ORGANIZATION ( #92, #155 ) ;
#38 = AXIS2_PLACEMENT_3D ( 'NONE', #165, #53, #10 ) ;
#39 = ORIENTED_EDGE ( 'NONE', *, *, #99, .T. ) ;
#40 = APPROVAL_PERSON_ORGANIZATION ( #230, #34, #150 ) ;
#41 = PERSON_AND_ORGANIZATION ( #92, #155 ) ;
#42 = AXIS2_PLACEMENT_3D ( 'NONE', #195, #82, #186 ) ;
#43 = CC_DESIGN_APPROVAL ( #34, ( #189 ) ) ;
#44 = CARTESIAN_POINT ( 'NONE',  ( 37.99999999999999300, 38.00000000000000000, 0.0000000000000000000 ) ) ;
#45 = LOCAL_TIME ( 2, 40, 55.00000000000000000, #161 ) ;
#46 = ORIENTED_EDGE ( 'NONE', *, *, #235, .T. ) ;
#47 = DIRECTION ( 'NONE',  ( 0.0000000000000000000, 0.0000000000000000000, 1.000000000000000000 ) ) ;
#48 = DIRECTION ( 'NONE',  ( 1.000000000000000000, 0.0000000000000000000, 0.0000000000000000000 ) ) ;
#49 = CARTESIAN_POINT ( 'NONE',  ( 16.85000000000000100, 0.0000000000000000000, -2.063529856563290200E-015 ) ) ;
#50 = ORIENTED_EDGE ( 'NONE', *, *, #56, .T. ) ;
#51 = CIRCLE ( 'NONE', #156, 16.85000000000000100 ) ;
#52 = VERTEX_POINT ( 'NONE', #24 ) ;
#53 = DIRECTION ( 'NONE',  ( 0.0000000000000000000, 0.0000000000000000000, 1.000000000000000000 ) ) ;
#54 = LOCAL_TIME ( 2, 40, 55.00000000000000000, #107 ) ;
#55 = ORIENTED_EDGE ( 'NONE', *, *, #112, .T. ) ;
#56 = EDGE_CURVE ( 'NONE', #249, #174, #9, .T. ) ;
#57 = CC_DESIGN_SECURITY_CLASSIFICATION ( #189, ( #170 ) ) ;
#58 = LOCAL_TIME ( 2, 40, 55.00000000000000000, #26 ) ;
#59 = CALENDAR_DATE ( 2020, 16, 12 ) ;
#60 = FACE_BOUND ( 'NONE', #74, .T. ) ;
#61 = APPROVAL ( #148, 'UNSPECIFIED' ) ;
#62 = DIRECTION ( 'NONE',  ( 0.0000000000000000000, 0.0000000000000000000, 1.000000000000000000 ) ) ;
#63 = ADVANCED_FACE ( 'NONE', ( #233 ), #157, .F. ) ;
#64 = DIRECTION ( 'NONE',  ( 0.0000000000000000000, 0.0000000000000000000, 1.000000000000000000 ) ) ;
#65 = DIRECTION ( 'NONE',  ( 0.0000000000000000000, 0.0000000000000000000, 1.000000000000000000 ) ) ;
#66 = DIRECTION ( 'NONE',  ( 0.0000000000000000000, 0.0000000000000000000, 1.000000000000000000 ) ) ;
#67 = PRODUCT_DEFINITION_SHAPE ( 'NONE', 'NONE',  #75 ) ;
#68 = CARTESIAN_POINT ( 'NONE',  ( 37.99999999999999300, 38.00000000000000000, 0.0000000000000000000 ) ) ;
#69 = EDGE_CURVE ( 'NONE', #188, #95, #224, .T. ) ;
#70 = CIRCLE ( 'NONE', #207, 16.85000000000000100 ) ;
#71 = APPROVAL ( #8, 'UNSPECIFIED' ) ;
#72 =( LENGTH_UNIT ( ) NAMED_UNIT ( * ) SI_UNIT ( .MILLI., .METRE. ) );
#73 = CIRCLE ( 'NONE', #226, 14.25000000000000000 ) ;
#74 = EDGE_LOOP ( 'NONE', ( #135, #87 ) ) ;
#75 = PRODUCT_DEFINITION ( 'UNKNOWN', '', #170, #221 ) ;
#76 = APPROVAL_PERSON_ORGANIZATION ( #41, #71, #90 ) ;
#77 = ORIENTED_EDGE ( 'NONE', *, *, #213, .F. ) ;
#78 = AXIS2_PLACEMENT_3D ( 'NONE', #122, #100, #62 ) ;
#79 = ORIENTED_EDGE ( 'NONE', *, *, #99, .F. ) ;
#80 = DIRECTION ( 'NONE',  ( 0.0000000000000000000, 0.0000000000000000000, 1.000000000000000000 ) ) ;
#81 = PERSON_AND_ORGANIZATION ( #92, #155 ) ;
#82 = DIRECTION ( 'NONE',  ( 1.000000000000000000, 6.123233995736766000E-017, 0.0000000000000000000 ) ) ;
#83 = EDGE_LOOP ( 'NONE', ( #115, #39 ) ) ;
#84 = DIRECTION ( 'NONE',  ( 1.000000000000000000, 6.123233995736766000E-017, 0.0000000000000000000 ) ) ;
#85 = CARTESIAN_POINT ( 'NONE',  ( 0.0000000000000000000, 0.0000000000000000000, 0.0000000000000000000 ) ) ;
#86 = CARTESIAN_POINT ( 'NONE',  ( 38.00000000000000000, 0.0000000000000000000, 0.0000000000000000000 ) ) ;
#87 = ORIENTED_EDGE ( 'NONE', *, *, #235, .F. ) ;
#88 = CC_DESIGN_PERSON_AND_ORGANIZATION_ASSIGNMENT ( #81, #33, ( #170 ) ) ;
#89 = DIRECTION ( 'NONE',  ( 0.0000000000000000000, 0.0000000000000000000, 1.000000000000000000 ) ) ;
#90 = APPROVAL_ROLE ( '' ) ;
#91 = COORDINATED_UNIVERSAL_TIME_OFFSET ( 1, 0, .AHEAD. ) ;
#92 = PERSON ( 'UNSPECIFIED', 'UNSPECIFIED', 'UNSPECIFIED', ('UNSPECIFIED'), ('UNSPECIFIED'), ('UNSPECIFIED') ) ;
#93 = DIRECTION ( 'NONE',  ( 0.0000000000000000000, 1.000000000000000000, 0.0000000000000000000 ) ) ;
#94 = AXIS2_PLACEMENT_3D ( 'NONE', #217, #198, #239 ) ;
#95 = VERTEX_POINT ( 'NONE', #119 ) ;
#96 = VERTEX_POINT ( 'NONE', #212 ) ;
#97 = LOCAL_TIME ( 2, 40, 55.00000000000000000, #91 ) ;
#98 = EDGE_LOOP ( 'NONE', ( #144, #169, #19, #245 ) ) ;
#99 = EDGE_CURVE ( 'NONE', #95, #188, #3, .T. ) ;
#100 = DIRECTION ( 'NONE',  ( 1.000000000000000000, 6.123233995736766000E-017, -0.0000000000000000000 ) ) ;
#101 = CARTESIAN_POINT ( 'NONE',  ( 38.00000000000000000, 0.0000000000000000000, 0.0000000000000000000 ) ) ;
#102 = PERSON_AND_ORGANIZATION ( #92, #155 ) ;
#103 = ORIENTED_EDGE ( 'NONE', *, *, #175, .T. ) ;
#104 = DIRECTION ( 'NONE',  ( 0.0000000000000000000, 0.0000000000000000000, 1.000000000000000000 ) ) ;
#105 = DIRECTION ( 'NONE',  ( 0.0000000000000000000, 0.0000000000000000000, 1.000000000000000000 ) ) ;
#106 = CC_DESIGN_PERSON_AND_ORGANIZATION_ASSIGNMENT ( #102, #35, ( #75 ) ) ;
#107 = COORDINATED_UNIVERSAL_TIME_OFFSET ( 1, 0, .AHEAD. ) ;
#108 = DIRECTION ( 'NONE',  ( 0.0000000000000000000, 0.0000000000000000000, 1.000000000000000000 ) ) ;
#109 = PLANE ( 'NONE',  #237 ) ;
#110 =( NAMED_UNIT ( * ) PLANE_ANGLE_UNIT ( ) SI_UNIT ( $, .RADIAN. ) );
#111 = PERSON_AND_ORGANIZATION ( #92, #155 ) ;
#112 = EDGE_CURVE ( 'NONE', #52, #130, #121, .T. ) ;
#113 = APPLICATION_PROTOCOL_DEFINITION ( 'international standard', 'config_control_design', 1994, #225 ) ;
#114 = DIRECTION ( 'NONE',  ( 0.0000000000000000000, -0.0000000000000000000, 1.000000000000000000 ) ) ;
#115 = ORIENTED_EDGE ( 'NONE', *, *, #69, .T. ) ;
#116 = AXIS2_PLACEMENT_3D ( 'NONE', #101, #80, #191 ) ;
#117 = CIRCLE ( 'NONE', #42, 14.24999999999999800 ) ;
#118 = CALENDAR_DATE ( 2020, 16, 12 ) ;
#119 = CARTESIAN_POINT ( 'NONE',  ( 37.99999999999999300, 54.84999999999999400, 0.0000000000000000000 ) ) ;
#120 = DATE_AND_TIME ( #138, #97 ) ;
#121 = CIRCLE ( 'NONE', #192, 14.24999999999999800 ) ;
#122 = CARTESIAN_POINT ( 'NONE',  ( 37.99999999999999300, 38.00000000000000000, 0.0000000000000000000 ) ) ;
#123 = CARTESIAN_POINT ( 'NONE',  ( 37.99999999999999300, 21.14999999999999900, -2.063529856563290200E-015 ) ) ;
#124 = DATE_AND_TIME ( #218, #54 ) ;
#125 = DIRECTION ( 'NONE',  ( 0.0000000000000000000, 1.000000000000000000, 0.0000000000000000000 ) ) ;
#126 = DIRECTION ( 'NONE',  ( 1.000000000000000000, 0.0000000000000000000, 0.0000000000000000000 ) ) ;
#127 = FACE_BOUND ( 'NONE', #229, .T. ) ;
#128 = PERSON_AND_ORGANIZATION_ROLE ( 'design_owner' ) ;
#129 = TOROIDAL_SURFACE ( 'NONE', #243, 38.00000000000000000, 14.25000000000000000 ) ;
#130 = VERTEX_POINT ( 'NONE', #5 ) ;
#131 = DATE_TIME_ROLE ( 'classification_date' ) ;
#132 = EDGE_CURVE ( 'NONE', #52, #249, #178, .T. ) ;
#133 = AXIS2_PLACEMENT_3D ( 'NONE', #22, #177, #65 ) ;
#134 = APPROVAL_DATE_TIME ( #124, #61 ) ;
#135 = ORIENTED_EDGE ( 'NONE', *, *, #112, .F. ) ;
#136 = CC_DESIGN_PERSON_AND_ORGANIZATION_ASSIGNMENT ( #228, #12, ( #170 ) ) ;
#137 = DIRECTION ( 'NONE',  ( 0.0000000000000000000, 1.000000000000000000, 0.0000000000000000000 ) ) ;
#138 = CALENDAR_DATE ( 2020, 16, 12 ) ;
#139 = ORIENTED_EDGE ( 'NONE', *, *, #29, .T. ) ;
#140 = MANIFOLD_SOLID_BREP ( 'cut-body', #234 ) ;
#141 = CARTESIAN_POINT ( 'NONE',  ( 38.00000000000000000, 0.0000000000000000000, 0.0000000000000000000 ) ) ;
#142 = EDGE_CURVE ( 'NONE', #96, #210, #51, .T. ) ;
#143 = CARTESIAN_POINT ( 'NONE',  ( -14.24999999999999800, 0.0000000000000000000, 0.0000000000000000000 ) ) ;
#144 = ORIENTED_EDGE ( 'NONE', *, *, #147, .F. ) ;
#145 = CARTESIAN_POINT ( 'NONE',  ( 0.0000000000000000000, 0.0000000000000000000, 0.0000000000000000000 ) ) ;
#146 = APPROVAL_ROLE ( '' ) ;
#147 = EDGE_CURVE ( 'NONE', #95, #96, #171, .T. ) ;
#148 = APPROVAL_STATUS ( 'not_yet_approved' ) ;
#149 = DATE_AND_TIME ( #59, #45 ) ;
#150 = APPROVAL_ROLE ( '' ) ;
#151 = ORIENTED_EDGE ( 'NONE', *, *, #56, .F. ) ;
#152 = CC_DESIGN_DATE_AND_TIME_ASSIGNMENT ( #149, #184, ( #75 ) ) ;
#153 = DATE_AND_TIME ( #202, #58 ) ;
#154 = ORIENTED_EDGE ( 'NONE', *, *, #142, .F. ) ;
#155 = ORGANIZATION ( 'UNSPECIFIED', 'UNSPECIFIED', '' ) ;
#156 = AXIS2_PLACEMENT_3D ( 'NONE', #85, #220, #66 ) ;
#157 = TOROIDAL_SURFACE ( 'NONE', #116, 38.00000000000000000, 14.25000000000000000 ) ;
#158 = AXIS2_PLACEMENT_3D ( 'NONE', #27, #160, #126 ) ;
#159 = DIRECTION ( 'NONE',  ( 1.000000000000000000, 0.0000000000000000000, 0.0000000000000000000 ) ) ;
#160 = DIRECTION ( 'NONE',  ( 0.0000000000000000000, 0.0000000000000000000, 1.000000000000000000 ) ) ;
#161 = COORDINATED_UNIVERSAL_TIME_OFFSET ( 1, 0, .AHEAD. ) ;
#162 = ORIENTED_EDGE ( 'NONE', *, *, #132, .F. ) ;
#163 =( GEOMETRIC_REPRESENTATION_CONTEXT ( 3 ) GLOBAL_UNCERTAINTY_ASSIGNED_CONTEXT ( ( #232 ) ) GLOBAL_UNIT_ASSIGNED_CONTEXT ( ( #72, #110, #166 ) ) REPRESENTATION_CONTEXT ( 'NONE', 'WORKASPACE' ) );
#164 = CIRCLE ( 'NONE', #18, 21.14999999999999500 ) ;
#165 = CARTESIAN_POINT ( 'NONE',  ( 0.0000000000000000000, 0.0000000000000000000, 0.0000000000000000000 ) ) ;
#166 =( NAMED_UNIT ( * ) SI_UNIT ( $, .STERADIAN. ) SOLID_ANGLE_UNIT ( ) );
#167 = PRODUCT ( 'OT200-25-33_7x2_6_OSTP', 'OT200-25-33_7x2_6_OSTP', '', ( #227 ) ) ;
#168 = LOCAL_TIME ( 2, 40, 55.00000000000000000, #173 ) ;
#169 = ORIENTED_EDGE ( 'NONE', *, *, #69, .F. ) ;
#170 = PRODUCT_DEFINITION_FORMATION_WITH_SPECIFIED_SOURCE ( 'ANY', '', #167, .NOT_KNOWN. ) ;
#171 = CIRCLE ( 'NONE', #21, 54.84999999999998700 ) ;
#172 = PRODUCT_RELATED_PRODUCT_CATEGORY ( 'detail', '', ( #167 ) ) ;
#173 = COORDINATED_UNIVERSAL_TIME_OFFSET ( 1, 0, .AHEAD. ) ;
#174 = VERTEX_POINT ( 'NONE', #143 ) ;
#175 = EDGE_CURVE ( 'NONE', #130, #174, #248, .T. ) ;
#176 = CARTESIAN_POINT ( 'NONE',  ( 0.0000000000000000000, 0.0000000000000000000, 0.0000000000000000000 ) ) ;
#177 = DIRECTION ( 'NONE',  ( 0.0000000000000000000, 1.000000000000000000, 0.0000000000000000000 ) ) ;
#178 = CIRCLE ( 'NONE', #158, 23.75000000000000000 ) ;
#179 = EDGE_LOOP ( 'NONE', ( #203, #46, #16, #183 ) ) ;
#180 = CARTESIAN_POINT ( 'NONE',  ( 14.25000000000000200, 0.0000000000000000000, -1.745121688784978600E-015 ) ) ;
#181 = CC_DESIGN_APPROVAL ( #61, ( #170 ) ) ;
#182 = DIRECTION ( 'NONE',  ( 0.0000000000000000000, 0.0000000000000000000, 1.000000000000000000 ) ) ;
#183 = ORIENTED_EDGE ( 'NONE', *, *, #29, .F. ) ;
#184 = DATE_TIME_ROLE ( 'creation_date' ) ;
#185 = AXIS2_PLACEMENT_3D ( 'NONE', #86, #104, #1 ) ;
#186 = DIRECTION ( 'NONE',  ( 0.0000000000000000000, 1.000000000000000000, 0.0000000000000000000 ) ) ;
#187 = APPROVAL_PERSON_ORGANIZATION ( #238, #61, #146 ) ;
#188 = VERTEX_POINT ( 'NONE', #123 ) ;
#189 = SECURITY_CLASSIFICATION ( '', '', #204 ) ;
#190 = TOROIDAL_SURFACE ( 'NONE', #185, 38.00000000000000000, 16.85000000000000100 ) ;
#191 = DIRECTION ( 'NONE',  ( 1.000000000000000000, 0.0000000000000000000, 0.0000000000000000000 ) ) ;
#192 = AXIS2_PLACEMENT_3D ( 'NONE', #30, #240, #197 ) ;
#193 = ORIENTED_EDGE ( 'NONE', *, *, #142, .T. ) ;
#194 = FACE_OUTER_BOUND ( 'NONE', #219, .T. ) ;
#195 = CARTESIAN_POINT ( 'NONE',  ( 38.00000000000000000, 38.00000000000000000, 0.0000000000000000000 ) ) ;
#196 = CARTESIAN_POINT ( 'NONE',  ( 38.00000000000000000, 0.0000000000000000000, 0.0000000000000000000 ) ) ;
#197 = DIRECTION ( 'NONE',  ( 0.0000000000000000000, 1.000000000000000000, 0.0000000000000000000 ) ) ;
#198 = DIRECTION ( 'NONE',  ( 0.0000000000000000000, 0.0000000000000000000, 1.000000000000000000 ) ) ;
#199 = ADVANCED_BREP_SHAPE_REPRESENTATION ( 'OT200-25-33_7x2_6_OSTP', ( #140, #38 ), #163 ) ;
#200 = CC_DESIGN_PERSON_AND_ORGANIZATION_ASSIGNMENT ( #37, #13, ( #189 ) ) ;
#201 = APPLICATION_PROTOCOL_DEFINITION ( 'international standard', 'config_control_design', 1994, #205 ) ;
#202 = CALENDAR_DATE ( 2020, 16, 12 ) ;
#203 = ORIENTED_EDGE ( 'NONE', *, *, #175, .F. ) ;
#204 = SECURITY_CLASSIFICATION_LEVEL ( 'unclassified' ) ;
#205 = APPLICATION_CONTEXT ( 'configuration controlled 3d designs of mechanical parts and assemblies' ) ;
#206 = FACE_OUTER_BOUND ( 'NONE', #83, .T. ) ;
#207 = AXIS2_PLACEMENT_3D ( 'NONE', #145, #125, #89 ) ;
#208 = ADVANCED_FACE ( 'NONE', ( #244 ), #209, .T. ) ;
#209 = TOROIDAL_SURFACE ( 'NONE', #94, 38.00000000000000000, 16.85000000000000100 ) ;
#210 = VERTEX_POINT ( 'NONE', #49 ) ;
#211 = ADVANCED_FACE ( 'NONE', ( #17 ), #190, .T. ) ;
#212 = CARTESIAN_POINT ( 'NONE',  ( -16.84999999999999800, 0.0000000000000000000, 0.0000000000000000000 ) ) ;
#213 = EDGE_CURVE ( 'NONE', #210, #96, #70, .T. ) ;
#214 = FACE_OUTER_BOUND ( 'NONE', #179, .T. ) ;
#215 = DIRECTION ( 'NONE',  ( 1.000000000000000000, 6.123233995736766000E-017, 0.0000000000000000000 ) ) ;
#216 = ADVANCED_FACE ( 'NONE', ( #214 ), #129, .F. ) ;
#217 = CARTESIAN_POINT ( 'NONE',  ( 38.00000000000000000, 0.0000000000000000000, 0.0000000000000000000 ) ) ;
#218 = CALENDAR_DATE ( 2020, 16, 12 ) ;
#219 = EDGE_LOOP ( 'NONE', ( #77, #154 ) ) ;
#220 = DIRECTION ( 'NONE',  ( 0.0000000000000000000, 1.000000000000000000, 0.0000000000000000000 ) ) ;
#221 = DESIGN_CONTEXT ( 'detailed design', #205, 'design' ) ;
#222 = EDGE_CURVE ( 'NONE', #188, #210, #164, .T. ) ;
#223 = DIRECTION ( 'NONE',  ( 1.000000000000000000, 0.0000000000000000000, 0.0000000000000000000 ) ) ;
#224 = CIRCLE ( 'NONE', #6, 16.85000000000000100 ) ;
#225 = APPLICATION_CONTEXT ( 'configuration controlled 3d designs of mechanical parts and assemblies' ) ;
#226 = AXIS2_PLACEMENT_3D ( 'NONE', #176, #137, #64 ) ;
#227 = MECHANICAL_CONTEXT ( 'NONE', #225, 'mechanical' ) ;
#228 = PERSON_AND_ORGANIZATION ( #92, #155 ) ;
#229 = EDGE_LOOP ( 'NONE', ( #50, #139 ) ) ;
#230 = PERSON_AND_ORGANIZATION ( #92, #155 ) ;
#231 = CC_DESIGN_DATE_AND_TIME_ASSIGNMENT ( #32, #131, ( #189 ) ) ;
#232 = UNCERTAINTY_MEASURE_WITH_UNIT (LENGTH_MEASURE( 1.000000000000000100E-005 ), #72, 'distance_accuracy_value', 'NONE');
#233 = FACE_OUTER_BOUND ( 'NONE', #4, .T. ) ;
#234 = CLOSED_SHELL ( 'NONE', ( #63, #211, #208, #20, #251, #216 ) ) ;
#235 = EDGE_CURVE ( 'NONE', #130, #52, #117, .T. ) ;
#236 = DIRECTION ( 'NONE',  ( 0.0000000000000000000, 0.0000000000000000000, 1.000000000000000000 ) ) ;
#237 = AXIS2_PLACEMENT_3D ( 'NONE', #253, #93, #114 ) ;
#238 = PERSON_AND_ORGANIZATION ( #92, #155 ) ;
#239 = DIRECTION ( 'NONE',  ( 1.000000000000000000, 0.0000000000000000000, 0.0000000000000000000 ) ) ;
#240 = DIRECTION ( 'NONE',  ( 1.000000000000000000, 6.123233995736766000E-017, 0.0000000000000000000 ) ) ;
#241 = DIRECTION ( 'NONE',  ( 0.0000000000000000000, 0.0000000000000000000, 1.000000000000000000 ) ) ;
#242 = CARTESIAN_POINT ( 'NONE',  ( 38.00000000000000000, 0.0000000000000000000, 0.0000000000000000000 ) ) ;
#243 = AXIS2_PLACEMENT_3D ( 'NONE', #196, #105, #223 ) ;
#244 = FACE_OUTER_BOUND ( 'NONE', #98, .T. ) ;
#245 = ORIENTED_EDGE ( 'NONE', *, *, #213, .T. ) ;
#246 = ORIENTED_EDGE ( 'NONE', *, *, #147, .T. ) ;
#247 = AXIS2_PLACEMENT_3D ( 'NONE', #141, #182, #7 ) ;
#248 = CIRCLE ( 'NONE', #247, 52.25000000000000000 ) ;
#249 = VERTEX_POINT ( 'NONE', #180 ) ;
#250 = PLANE ( 'NONE',  #78 ) ;
#251 = ADVANCED_FACE ( 'NONE', ( #127, #194 ), #109, .F. ) ;
#252 = ORIENTED_EDGE ( 'NONE', *, *, #222, .F. ) ;
#253 = CARTESIAN_POINT ( 'NONE',  ( 0.0000000000000000000, 0.0000000000000000000, 0.0000000000000000000 ) ) ;
ENDSEC;
END-ISO-10303-21;
