ISO-10303-21;
HEADER;
/****************************************************************
 * Generated by software with PDE/Lib inside                    *
 * PDElib Version v51a, created Thu 12/14/2006                  *
 * International Technegroup Inc. (www.iti-oh.com)              *
 ****************************************************************/
FILE_DESCRIPTION((''),'2;1');
FILE_NAME('T:\\Arbeitspl\S\dtze\\Aushilfe\\KPeters\\3D\\Steps 08_10\\10126\\10126050X000.stp','2010-09-03T09:02:20',('thilbrands'),(''),'Autodesk Inventor 2008','Autodesk Inventor 2008','');
FILE_SCHEMA(('AUTOMOTIVE_DESIGN { 1 0 10303 214 1 1 1 1 }'));
ENDSEC;
DATA;
#5=APPLICATION_CONTEXT('automotive design');
#6=APPLICATION_PROTOCOL_DEFINITION('International Standard','automotive_design',2001,#5);
#7=PRODUCT_CONTEXT('',#5,'mechanical');
#8=PRODUCT('10126032X300','10126032X300',$,(#7));
#9=PRODUCT_RELATED_PRODUCT_CATEGORY('part',$,(#8));
#10=PRODUCT_DEFINITION_FORMATION('',$,#8);
#11=PRODUCT_DEFINITION_CONTEXT('part definition',#5,'design');
#12=PRODUCT_DEFINITION('',$,#10,#11);
#18=(NAMED_UNIT(*)PLANE_ANGLE_UNIT()SI_UNIT($,.RADIAN.));
#19=DIMENSIONAL_EXPONENTS(0.0,0.0,0.0,0.0,0.0,0.0,0.0);
#20=PLANE_ANGLE_MEASURE_WITH_UNIT(PLANE_ANGLE_MEASURE(0.017453292500000),#18);
#24=(CONVERSION_BASED_UNIT('DEGREE',#20)NAMED_UNIT(#19)PLANE_ANGLE_UNIT());
#28=(NAMED_UNIT(*)SI_UNIT($,.STERADIAN.)SOLID_ANGLE_UNIT());
#32=(LENGTH_UNIT()NAMED_UNIT(*)SI_UNIT(.MILLI.,.METRE.));
#34=UNCERTAINTY_MEASURE_WITH_UNIT(LENGTH_MEASURE(0.010000000000000),#32,'DISTANCE_ACCURACY_VALUE','');
#36=(GEOMETRIC_REPRESENTATION_CONTEXT(3)GLOBAL_UNCERTAINTY_ASSIGNED_CONTEXT((#34))GLOBAL_UNIT_ASSIGNED_CONTEXT((#24,#28,#32))REPRESENTATION_CONTEXT('None','None'));
#37=AXIS2_PLACEMENT_3D('',#38,#39,#40);
#38=CARTESIAN_POINT('',(0.0,0.0,0.0));
#39=DIRECTION('',(0.0,0.0,1.0));
#40=DIRECTION('',(1.0,0.0,0.0));
#41=SHAPE_REPRESENTATION('',(#37),#36);
#42=PRODUCT_DEFINITION_SHAPE('','',#12);
#43=SHAPE_DEFINITION_REPRESENTATION(#42,#41);
#49=(NAMED_UNIT(*)PLANE_ANGLE_UNIT()SI_UNIT($,.RADIAN.));
#50=DIMENSIONAL_EXPONENTS(0.0,0.0,0.0,0.0,0.0,0.0,0.0);
#51=PLANE_ANGLE_MEASURE_WITH_UNIT(PLANE_ANGLE_MEASURE(0.017453292500000),#49);
#55=(CONVERSION_BASED_UNIT('DEGREE',#51)NAMED_UNIT(#50)PLANE_ANGLE_UNIT());
#59=(NAMED_UNIT(*)SI_UNIT($,.STERADIAN.)SOLID_ANGLE_UNIT());
#63=(LENGTH_UNIT()NAMED_UNIT(*)SI_UNIT(.MILLI.,.METRE.));
#65=UNCERTAINTY_MEASURE_WITH_UNIT(LENGTH_MEASURE(0.000001000000000),#63,'DISTANCE_ACCURACY_VALUE','');
#67=(GEOMETRIC_REPRESENTATION_CONTEXT(3)GLOBAL_UNCERTAINTY_ASSIGNED_CONTEXT((#65))GLOBAL_UNIT_ASSIGNED_CONTEXT((#55,#59,#63))REPRESENTATION_CONTEXT('','3D'));
#68=CARTESIAN_POINT('',(3.392999999999987,12.908000498206555,0.0));
#69=DIRECTION('',(-1.0,0.0,0.0));
#70=DIRECTION('',(0.0,0.0,1.0));
#71=AXIS2_PLACEMENT_3D('',#68,#69,#70);
#72=PLANE('',#71);
#73=CARTESIAN_POINT('',(3.392999999999995,25.816000996413109,0.0));
#74=VERTEX_POINT('',#73);
#75=CARTESIAN_POINT('',(3.392999999999993,-1.858762E-016,0.0));
#76=DIRECTION('',(1.0,0.0,0.0));
#77=DIRECTION('',(0.0,1.0,0.0));
#78=AXIS2_PLACEMENT_3D('',#75,#76,#77);
#79=CIRCLE('',#78,25.816000996413109);
#80=EDGE_CURVE('',#74,#74,#79,.T.);
#81=ORIENTED_EDGE('',*,*,#80,.F.);
#82=EDGE_LOOP('',(#81));
#83=FACE_OUTER_BOUND('',#82,.T.);
#84=ADVANCED_FACE('',(#83),#72,.T.);
#85=CARTESIAN_POINT('',(4.392999999999995,0.0,0.0));
#86=DIRECTION('',(1.0,-5.478226E-017,0.0));
#87=DIRECTION('',(0.0,0.0,-1.0));
#88=AXIS2_PLACEMENT_3D('',#85,#86,#87);
#89=TOROIDAL_SURFACE('',#88,25.816000996413109,1.000000000000000);
#90=CARTESIAN_POINT('',(3.706623188405792,26.543247084409312,0.0));
#91=VERTEX_POINT('',#90);
#92=CARTESIAN_POINT('',(3.706623188405791,-2.030572E-016,0.0));
#93=DIRECTION('',(1.0,0.0,0.0));
#94=DIRECTION('',(0.0,1.0,0.0));
#95=AXIS2_PLACEMENT_3D('',#92,#93,#94);
#96=CIRCLE('',#95,26.543247084409312);
#97=EDGE_CURVE('',#91,#91,#96,.T.);
#98=ORIENTED_EDGE('',*,*,#97,.F.);
#99=EDGE_LOOP('',(#98));
#100=FACE_OUTER_BOUND('',#99,.T.);
#101=ORIENTED_EDGE('',*,*,#80,.T.);
#102=EDGE_LOOP('',(#101));
#103=FACE_BOUND('',#102,.T.);
#104=ADVANCED_FACE('',(#100,#103),#89,.T.);
#105=CARTESIAN_POINT('',(0.758474576271178,-3.656144E-015,30.422239459634625));
#106=CARTESIAN_POINT('',(2.541847397816226,-3.885729E-015,31.499220444375059));
#107=CARTESIAN_POINT('',(3.891435410783834,-3.765304E-015,29.912110222187529));
#108=CARTESIAN_POINT('',(5.241023423751445,-3.644879E-015,28.324999999999996));
#109=CARTESIAN_POINT('',(3.891435410783835,-3.376587E-015,26.737889777812470));
#110=CARTESIAN_POINT('',(2.541847397816227,-3.108295E-015,25.150779555624940));
#111=CARTESIAN_POINT('',(0.758474576271179,-3.142485E-015,26.227760540365374));
#112=CARTESIAN_POINT('',(0.758474576271177,-30.422239459634618,30.422239459634614));
#113=CARTESIAN_POINT('',(2.541847397816224,-31.499220444375055,31.499220444375048));
#114=CARTESIAN_POINT('',(3.891435410783832,-29.912110222187525,29.912110222187518));
#115=CARTESIAN_POINT('',(5.241023423751443,-28.324999999999996,28.324999999999989));
#116=CARTESIAN_POINT('',(3.891435410783833,-26.737889777812462,26.737889777812459));
#117=CARTESIAN_POINT('',(2.541847397816226,-25.150779555624940,25.150779555624933));
#118=CARTESIAN_POINT('',(0.758474576271177,-26.227760540365367,26.227760540365363));
#119=CARTESIAN_POINT('',(0.758474576271177,-30.422239459634625,-3.725527E-015));
#120=CARTESIAN_POINT('',(2.541847397816224,-31.499220444375059,-3.857415E-015));
#121=CARTESIAN_POINT('',(3.891435410783832,-29.912110222187529,-3.663056E-015));
#122=CARTESIAN_POINT('',(5.241023423751443,-28.324999999999996,-3.468697E-015));
#123=CARTESIAN_POINT('',(3.891435410783834,-26.737889777812470,-3.274339E-015));
#124=CARTESIAN_POINT('',(2.541847397816226,-25.150779555624940,-3.079980E-015));
#125=CARTESIAN_POINT('',(0.758474576271177,-26.227760540365374,-3.211868E-015));
#126=CARTESIAN_POINT('',(0.758474576271177,-30.422239459634614,-30.422239459634618));
#127=CARTESIAN_POINT('',(2.541847397816224,-31.499220444375048,-31.499220444375055));
#128=CARTESIAN_POINT('',(3.891435410783832,-29.912110222187518,-29.912110222187525));
#129=CARTESIAN_POINT('',(5.241023423751443,-28.324999999999989,-28.324999999999996));
#130=CARTESIAN_POINT('',(3.891435410783833,-26.737889777812459,-26.737889777812462));
#131=CARTESIAN_POINT('',(2.541847397816226,-25.150779555624933,-25.150779555624940));
#132=CARTESIAN_POINT('',(0.758474576271177,-26.227760540365363,-26.227760540365367));
#133=CARTESIAN_POINT('',(0.758474576271178,3.794910E-015,-30.422239459634625));
#134=CARTESIAN_POINT('',(2.541847397816226,3.829100E-015,-31.499220444375059));
#135=CARTESIAN_POINT('',(3.891435410783834,3.560808E-015,-29.912110222187529));
#136=CARTESIAN_POINT('',(5.241023423751445,3.292516E-015,-28.324999999999996));
#137=CARTESIAN_POINT('',(3.891435410783835,3.172091E-015,-26.737889777812470));
#138=CARTESIAN_POINT('',(2.541847397816227,3.051666E-015,-25.150779555624940));
#139=CARTESIAN_POINT('',(0.758474576271179,3.281251E-015,-26.227760540365374));
#140=CARTESIAN_POINT('',(0.758474576271180,30.422239459634618,-30.422239459634614));
#141=CARTESIAN_POINT('',(2.541847397816227,31.499220444375055,-31.499220444375048));
#142=CARTESIAN_POINT('',(3.891435410783836,29.912110222187525,-29.912110222187518));
#143=CARTESIAN_POINT('',(5.241023423751447,28.324999999999996,-28.324999999999989));
#144=CARTESIAN_POINT('',(3.891435410783836,26.737889777812462,-26.737889777812459));
#145=CARTESIAN_POINT('',(2.541847397816228,25.150779555624940,-25.150779555624933));
#146=CARTESIAN_POINT('',(0.758474576271180,26.227760540365367,-26.227760540365363));
#147=CARTESIAN_POINT('',(0.758474576271180,30.422239459634625,3.725527E-015));
#148=CARTESIAN_POINT('',(2.541847397816227,31.499220444375059,3.857415E-015));
#149=CARTESIAN_POINT('',(3.891435410783836,29.912110222187529,3.663056E-015));
#150=CARTESIAN_POINT('',(5.241023423751447,28.324999999999996,3.468697E-015));
#151=CARTESIAN_POINT('',(3.891435410783836,26.737889777812470,3.274339E-015));
#152=CARTESIAN_POINT('',(2.541847397816228,25.150779555624940,3.079980E-015));
#153=CARTESIAN_POINT('',(0.758474576271180,26.227760540365374,3.211868E-015));
#154=CARTESIAN_POINT('',(0.758474576271180,30.422239459634614,30.422239459634618));
#155=CARTESIAN_POINT('',(2.541847397816227,31.499220444375048,31.499220444375055));
#156=CARTESIAN_POINT('',(3.891435410783836,29.912110222187518,29.912110222187525));
#157=CARTESIAN_POINT('',(5.241023423751447,28.324999999999989,28.324999999999996));
#158=CARTESIAN_POINT('',(3.891435410783836,26.737889777812459,26.737889777812462));
#159=CARTESIAN_POINT('',(2.541847397816228,25.150779555624933,25.150779555624940));
#160=CARTESIAN_POINT('',(0.758474576271180,26.227760540365363,26.227760540365367));
#161=CARTESIAN_POINT('',(0.758474576271178,-3.656144E-015,30.422239459634625));
#162=CARTESIAN_POINT('',(2.541847397816226,-3.885729E-015,31.499220444375059));
#163=CARTESIAN_POINT('',(3.891435410783834,-3.765304E-015,29.912110222187529));
#164=CARTESIAN_POINT('',(5.241023423751445,-3.644879E-015,28.324999999999996));
#165=CARTESIAN_POINT('',(3.891435410783835,-3.376587E-015,26.737889777812470));
#166=CARTESIAN_POINT('',(2.541847397816227,-3.108295E-015,25.150779555624940));
#167=CARTESIAN_POINT('',(0.758474576271179,-3.142485E-015,26.227760540365374));
#175=(BOUNDED_SURFACE()B_SPLINE_SURFACE(2,2,((#105,#112,#119,#126,#133,#140,#147,#154,#161),(#106,#113,#120,#127,#134,#141,#148,#155,#162),(#107,#114,#121,#128,#135,#142,#149,#156,#163),(#108,#115,#122,#129,#136,#143,#150,#157,#164),(#109,#116,#123,#130,#137,#144,#151,#158,#165),(#110,#117,#124,#131,#138,#145,#152,#159,#166),(#111,#118,#125,#132,#139,#146,#153,#160,#167)),.UNSPECIFIED.,.F.,.T.,.U.)B_SPLINE_SURFACE_WITH_KNOTS((3,2,2,3),(3,2,2,2,3),(-0.543283092341543,0.866103187082750,2.275489466507043,3.684875745931336),(0.0,1.570796326794897,3.141592653589793,4.712388980384690,6.283185307179586),.UNSPECIFIED.)GEOMETRIC_REPRESENTATION_ITEM()RATIONAL_B_SPLINE_SURFACE(((1.0,0.707106781186548,1.0,0.707106781186548,1.0,0.707106781186548,1.0,0.707106781186548,1.0),(0.761810371748505,0.538681279841613,0.761810371748505,0.538681279841613,0.761810371748505,0.538681279841613,0.761810371748505,0.538681279841613,0.761810371748505),(1.0,0.707106781186548,1.0,0.707106781186548,1.0,0.707106781186548,1.0,0.707106781186548,1.0),(0.761810371748507,0.538681279841614,0.761810371748507,0.538681279841614,0.761810371748507,0.538681279841614,0.761810371748507,0.538681279841614,0.761810371748507),(1.0,0.707106781186548,1.0,0.707106781186548,1.0,0.707106781186548,1.0,0.707106781186548,1.0),(0.761810371748508,0.538681279841615,0.761810371748508,0.538681279841615,0.761810371748508,0.538681279841615,0.761810371748508,0.538681279841615,0.761810371748508),(1.0,0.707106781186548,1.0,0.707106781186548,1.0,0.707106781186548,1.0,0.707106781186548,1.0)))REPRESENTATION_ITEM('')SURFACE());
#176=CARTESIAN_POINT('',(0.758474576271181,30.422239459634632,0.0));
#177=VERTEX_POINT('',#176);
#178=CARTESIAN_POINT('',(0.758474576271179,-4.155095E-017,0.0));
#179=DIRECTION('',(1.0,0.0,0.0));
#180=DIRECTION('',(0.0,1.0,0.0));
#181=AXIS2_PLACEMENT_3D('',#178,#179,#180);
#182=CIRCLE('',#181,30.422239459634632);
#183=EDGE_CURVE('',#177,#177,#182,.T.);
#184=ORIENTED_EDGE('',*,*,#183,.F.);
#185=EDGE_LOOP('',(#184));
#186=FACE_OUTER_BOUND('',#185,.T.);
#187=ORIENTED_EDGE('',*,*,#97,.T.);
#188=EDGE_LOOP('',(#187));
#189=FACE_BOUND('',#188,.T.);
#190=ADVANCED_FACE('',(#186,#189),#175,.T.);
#191=CARTESIAN_POINT('',(0.499999999999993,0.0,0.0));
#192=DIRECTION('',(1.0,-5.478226E-017,0.0));
#193=DIRECTION('',(0.0,0.0,-1.0));
#194=AXIS2_PLACEMENT_3D('',#191,#192,#193);
#195=TOROIDAL_SURFACE('',#194,30.850247512621287,0.500000000000000);
#196=CARTESIAN_POINT('',(-5.689893E-015,30.850247512621287,0.0));
#197=VERTEX_POINT('',#196);
#198=CARTESIAN_POINT('',(-7.216450E-015,4.005934E-031,0.0));
#199=DIRECTION('',(1.0,0.0,0.0));
#200=DIRECTION('',(0.0,1.0,0.0));
#201=AXIS2_PLACEMENT_3D('',#198,#199,#200);
#202=CIRCLE('',#201,30.850247512621287);
#203=EDGE_CURVE('',#197,#197,#202,.T.);
#204=ORIENTED_EDGE('',*,*,#203,.F.);
#205=EDGE_LOOP('',(#204));
#206=FACE_OUTER_BOUND('',#205,.T.);
#207=ORIENTED_EDGE('',*,*,#183,.T.);
#208=EDGE_LOOP('',(#207));
#209=FACE_BOUND('',#208,.T.);
#210=ADVANCED_FACE('',(#206,#209),#195,.T.);
#211=CARTESIAN_POINT('',(-5.863365E-015,31.690342816884783,0.0));
#212=DIRECTION('',(-1.0,0.0,0.0));
#213=DIRECTION('',(0.0,0.0,1.0));
#214=AXIS2_PLACEMENT_3D('',#211,#212,#213);
#215=PLANE('',#214);
#216=CARTESIAN_POINT('',(-6.036838E-015,32.530438121148279,0.0));
#217=VERTEX_POINT('',#216);
#218=CARTESIAN_POINT('',(-7.771561E-015,4.314083E-031,0.0));
#219=DIRECTION('',(1.0,0.0,0.0));
#220=DIRECTION('',(0.0,1.0,0.0));
#221=AXIS2_PLACEMENT_3D('',#218,#219,#220);
#222=CIRCLE('',#221,32.530438121148279);
#223=EDGE_CURVE('',#217,#217,#222,.T.);
#224=ORIENTED_EDGE('',*,*,#223,.F.);
#225=EDGE_LOOP('',(#224));
#226=FACE_OUTER_BOUND('',#225,.T.);
#227=ORIENTED_EDGE('',*,*,#203,.T.);
#228=EDGE_LOOP('',(#227));
#229=FACE_BOUND('',#228,.T.);
#230=ADVANCED_FACE('',(#226,#229),#215,.T.);
#231=CARTESIAN_POINT('',(0.499999999999992,0.0,0.0));
#232=DIRECTION('',(1.0,-5.478226E-017,0.0));
#233=DIRECTION('',(0.0,0.0,-1.0));
#234=AXIS2_PLACEMENT_3D('',#231,#232,#233);
#235=TOROIDAL_SURFACE('',#234,32.530438121148279,0.500000000000008);
#236=CARTESIAN_POINT('',(0.370590477448733,33.013401034292812,0.0));
#237=VERTEX_POINT('',#236);
#238=CARTESIAN_POINT('',(0.370590477448732,-2.030179E-017,0.0));
#239=DIRECTION('',(1.0,0.0,0.0));
#240=DIRECTION('',(0.0,1.0,0.0));
#241=AXIS2_PLACEMENT_3D('',#238,#239,#240);
#242=CIRCLE('',#241,33.013401034292812);
#243=EDGE_CURVE('',#237,#237,#242,.T.);
#244=ORIENTED_EDGE('',*,*,#243,.F.);
#245=EDGE_LOOP('',(#244));
#246=FACE_OUTER_BOUND('',#245,.T.);
#247=ORIENTED_EDGE('',*,*,#223,.T.);
#248=EDGE_LOOP('',(#247));
#249=FACE_BOUND('',#248,.T.);
#250=ADVANCED_FACE('',(#246,#249),#235,.T.);
#251=CARTESIAN_POINT('',(1.185295238724362,-6.493316E-017,0.0));
#252=DIRECTION('',(1.0,-5.478226E-017,0.0));
#253=DIRECTION('',(0.0,1.0,0.0));
#254=AXIS2_PLACEMENT_3D('',#251,#252,#253);
#255=CONICAL_SURFACE('',#254,33.231700517146407,15.000000000000066);
#256=CARTESIAN_POINT('',(1.999999999999994,33.450000000000003,0.0));
#257=VERTEX_POINT('',#256);
#258=CARTESIAN_POINT('',(1.999999999999992,-1.095645E-016,0.0));
#259=DIRECTION('',(1.0,0.0,0.0));
#260=DIRECTION('',(0.0,1.0,0.0));
#261=AXIS2_PLACEMENT_3D('',#258,#259,#260);
#262=CIRCLE('',#261,33.450000000000003);
#263=EDGE_CURVE('',#257,#257,#262,.T.);
#264=ORIENTED_EDGE('',*,*,#263,.F.);
#265=EDGE_LOOP('',(#264));
#266=FACE_OUTER_BOUND('',#265,.T.);
#267=ORIENTED_EDGE('',*,*,#243,.T.);
#268=EDGE_LOOP('',(#267));
#269=FACE_BOUND('',#268,.T.);
#270=ADVANCED_FACE('',(#266,#269),#255,.T.);
#271=CARTESIAN_POINT('',(6.499999999999990,-3.560847E-016,0.0));
#272=DIRECTION('',(1.0,-5.478226E-017,0.0));
#273=DIRECTION('',(0.0,1.0,0.0));
#274=AXIS2_PLACEMENT_3D('',#271,#272,#273);
#275=CYLINDRICAL_SURFACE('',#274,33.450000000000003);
#276=CARTESIAN_POINT('',(10.999999999999993,33.450000000000003,0.0));
#277=VERTEX_POINT('',#276);
#278=CARTESIAN_POINT('',(10.999999999999989,-6.026049E-016,0.0));
#279=DIRECTION('',(1.0,0.0,0.0));
#280=DIRECTION('',(0.0,1.0,0.0));
#281=AXIS2_PLACEMENT_3D('',#278,#279,#280);
#282=CIRCLE('',#281,33.450000000000003);
#283=EDGE_CURVE('',#277,#277,#282,.T.);
#284=ORIENTED_EDGE('',*,*,#283,.F.);
#285=EDGE_LOOP('',(#284));
#286=FACE_OUTER_BOUND('',#285,.T.);
#287=ORIENTED_EDGE('',*,*,#263,.T.);
#288=EDGE_LOOP('',(#287));
#289=FACE_BOUND('',#288,.T.);
#290=ADVANCED_FACE('',(#286,#289),#275,.T.);
#291=CARTESIAN_POINT('',(10.999999999999993,31.975000000000009,0.0));
#292=DIRECTION('',(1.0,0.0,0.0));
#293=DIRECTION('',(0.0,0.0,-1.0));
#294=AXIS2_PLACEMENT_3D('',#291,#292,#293);
#295=PLANE('',#294);
#296=ORIENTED_EDGE('',*,*,#283,.T.);
#297=EDGE_LOOP('',(#296));
#298=FACE_OUTER_BOUND('',#297,.T.);
#299=CARTESIAN_POINT('',(10.999999999999995,30.500000000000007,0.0));
#300=VERTEX_POINT('',#299);
#301=CARTESIAN_POINT('',(10.999999999999993,-6.026049E-016,0.0));
#302=DIRECTION('',(1.0,0.0,0.0));
#303=DIRECTION('',(0.0,1.0,0.0));
#304=AXIS2_PLACEMENT_3D('',#301,#302,#303);
#305=CIRCLE('',#304,30.500000000000007);
#306=EDGE_CURVE('',#300,#300,#305,.T.);
#307=ORIENTED_EDGE('',*,*,#306,.F.);
#308=EDGE_LOOP('',(#307));
#309=FACE_BOUND('',#308,.T.);
#310=ADVANCED_FACE('',(#298,#309),#295,.T.);
#311=CARTESIAN_POINT('',(12.499999999999993,-6.847783E-016,0.0));
#312=DIRECTION('',(1.0,-5.478226E-017,0.0));
#313=DIRECTION('',(0.0,1.0,0.0));
#314=AXIS2_PLACEMENT_3D('',#311,#312,#313);
#315=CYLINDRICAL_SURFACE('',#314,30.500000000000007);
#316=CARTESIAN_POINT('',(13.999999999999995,30.500000000000007,0.0));
#317=VERTEX_POINT('',#316);
#318=CARTESIAN_POINT('',(13.999999999999993,-7.669517E-016,0.0));
#319=DIRECTION('',(1.0,0.0,0.0));
#320=DIRECTION('',(0.0,1.0,0.0));
#321=AXIS2_PLACEMENT_3D('',#318,#319,#320);
#322=CIRCLE('',#321,30.500000000000007);
#323=EDGE_CURVE('',#317,#317,#322,.T.);
#324=ORIENTED_EDGE('',*,*,#323,.F.);
#325=EDGE_LOOP('',(#324));
#326=FACE_OUTER_BOUND('',#325,.T.);
#327=ORIENTED_EDGE('',*,*,#306,.T.);
#328=EDGE_LOOP('',(#327));
#329=FACE_BOUND('',#328,.T.);
#330=ADVANCED_FACE('',(#326,#329),#315,.T.);
#331=CARTESIAN_POINT('',(13.999999999999995,15.250000000000004,0.0));
#332=DIRECTION('',(1.0,0.0,0.0));
#333=DIRECTION('',(0.0,0.0,-1.0));
#334=AXIS2_PLACEMENT_3D('',#331,#332,#333);
#335=PLANE('',#334);
#336=ORIENTED_EDGE('',*,*,#323,.T.);
#337=EDGE_LOOP('',(#336));
#338=FACE_OUTER_BOUND('',#337,.T.);
#339=ADVANCED_FACE('',(#338),#335,.T.);
#340=CLOSED_SHELL('',(#84,#104,#190,#210,#230,#250,#270,#290,#310,#330,#339));
#341=MANIFOLD_SOLID_BREP('',#340);
#342=COLOUR_RGB('Standard',0.752941012382507,0.752941012382507,0.752941012382507);
#343=FILL_AREA_STYLE_COLOUR('Standard',#342);
#344=FILL_AREA_STYLE('Standard',(#343));
#345=SURFACE_STYLE_FILL_AREA(#344);
#346=SURFACE_SIDE_STYLE('Standard',(#345));
#347=SURFACE_STYLE_USAGE(.BOTH.,#346);
#348=PRESENTATION_STYLE_ASSIGNMENT((#347));
#349=STYLED_ITEM('',(#348),#341);
#350=MECHANICAL_DESIGN_GEOMETRIC_PRESENTATION_REPRESENTATION('',(#349),#36);
#351=ADVANCED_BREP_SHAPE_REPRESENTATION('ABSR',(#341),#36);
#352=SHAPE_REPRESENTATION_RELATIONSHIP('SRR','None',#351,#41);
ENDSEC;
END-ISO-10303-21;
