ISO-10303-21;
HEADER;
FILE_DESCRIPTION (( 'STEP AP203' ),
    '1' );
FILE_NAME ('3D_M8012_DN15_17481110.STEP',
    '2024-09-03T13:54:48',
    ( '' ),
    ( '' ),
    'SwSTEP 2.0',
    'SolidWorks 2024',
    '' );
FILE_SCHEMA (( 'CONFIG_CONTROL_DESIGN' ));
ENDSEC;

DATA;
#1 = EDGE_LOOP ( 'NONE', ( #196, #164, #243 ) ) ;
#2 = DIRECTION ( 'NONE',  ( -1.000000000000000000, 4.596983092540343816E-18, 0.000000000000000000 ) ) ;
#3 = EDGE_LOOP ( 'NONE', ( #240, #15, #80, #137 ) ) ;
#4 = VERTEX_POINT ( 'NONE', #102 ) ;
#5 = VERTEX_POINT ( 'NONE', #222 ) ;
#6 = APPROVAL ( #216, 'UNSPECIFIED' ) ;
#7 =( NAMED_UNIT ( * ) PLANE_ANGLE_UNIT ( ) SI_UNIT ( $, .RADIAN. ) );
#8 = FACE_OUTER_BOUND ( 'NONE', #1, .T. ) ;
#9 = CC_DESIGN_DATE_AND_TIME_ASSIGNMENT ( #197, #12, ( #87 ) ) ;
#10 = CYLINDRICAL_SURFACE ( 'NONE', #150, 10.65000000000000036 ) ;
#11 = CARTESIAN_POINT ( 'NONE',  ( 0.000000000000000000, 0.000000000000000000, 0.000000000000000000 ) ) ;
#12 = DATE_TIME_ROLE ( 'creation_date' ) ;
#13 = DATE_AND_TIME ( #79, #151 ) ;
#14 = PERSON_AND_ORGANIZATION ( #90, #25 ) ;
#15 = ORIENTED_EDGE ( 'NONE', *, *, #191, .T. ) ;
#16 = CALENDAR_DATE ( 2024, 3, 9 ) ;
#17 = ORIENTED_EDGE ( 'NONE', *, *, #21, .T. ) ;
#18 = LOCAL_TIME ( 15, 54, 48.00000000000000000, #111 ) ;
#19 = LOCAL_TIME ( 15, 54, 48.00000000000000000, #195 ) ;
#20 = CARTESIAN_POINT ( 'NONE',  ( 1.734723475976807094E-15, 9.704509261163078548, 0.000000000000000000 ) ) ;
#21 = EDGE_CURVE ( 'NONE', #4, #62, #181, .T. ) ;
#22 = CARTESIAN_POINT ( 'NONE',  ( 10.65000000000001279, 2817.965330118411202, 1.304248841091931261E-15 ) ) ;
#23 = DIRECTION ( 'NONE',  ( 4.596983092540343816E-18, 1.000000000000000000, -0.000000000000000000 ) ) ;
#24 = ORIENTED_EDGE ( 'NONE', *, *, #83, .F. ) ;
#25 = ORGANIZATION ( 'UNSPECIFIED', 'UNSPECIFIED', '' ) ;
#26 = DESIGN_CONTEXT ( 'detailed design', #36, 'design' ) ;
#27 = CARTESIAN_POINT ( 'NONE',  ( 1.387778780781445676E-14, 2817.965330118411202, 0.000000000000000000 ) ) ;
#28 = ADVANCED_BREP_SHAPE_REPRESENTATION ( '3D_M8012_DN15_17481110', ( #173, #167 ), #162 ) ;
#29 = CIRCLE ( 'NONE', #188, 10.65000000000000036 ) ;
#30 = CARTESIAN_POINT ( 'NONE',  ( 9.682602948902201698E-16, 9.704509261163174472, 0.000000000000000000 ) ) ;
#31 = DIRECTION ( 'NONE',  ( -0.000000000000000000, 0.000000000000000000, -1.000000000000000000 ) ) ;
#32 = EDGE_CURVE ( 'NONE', #43, #62, #223, .T. ) ;
#33 = AXIS2_PLACEMENT_3D ( 'NONE', #77, #51, #212 ) ;
#34 = PERSON_AND_ORGANIZATION_ROLE ( 'design_supplier' ) ;
#35 = APPROVAL_DATE_TIME ( #42, #6 ) ;
#36 = APPLICATION_CONTEXT ( 'configuration controlled 3d designs of mechanical parts and assemblies' ) ;
#37 = CC_DESIGN_PERSON_AND_ORGANIZATION_ASSIGNMENT ( #100, #34, ( #93 ) ) ;
#38 = CALENDAR_DATE ( 2024, 3, 9 ) ;
#39 = AXIS2_PLACEMENT_3D ( 'NONE', #70, #248, #148 ) ;
#40 = APPROVAL_DATE_TIME ( #174, #108 ) ;
#41 = EDGE_LOOP ( 'NONE', ( #132, #122 ) ) ;
#42 = DATE_AND_TIME ( #16, #19 ) ;
#43 = VERTEX_POINT ( 'NONE', #183 ) ;
#44 = EDGE_CURVE ( 'NONE', #114, #178, #119, .T. ) ;
#45 = CARTESIAN_POINT ( 'NONE',  ( 10.65000000000000391, 9.704509261163174472, 1.304248841091931655E-15 ) ) ;
#46 = DIRECTION ( 'NONE',  ( -1.224646799147353207E-16, 5.629680630014033300E-34, 1.000000000000000000 ) ) ;
#47 = CC_DESIGN_PERSON_AND_ORGANIZATION_ASSIGNMENT ( #55, #134, ( #93 ) ) ;
#48 = DIRECTION ( 'NONE',  ( 1.000000000000000000, 0.000000000000000000, 1.224646799147353454E-16 ) ) ;
#49 = DIRECTION ( 'NONE',  ( -1.000000000000000000, 0.000000000000000000, 0.000000000000000000 ) ) ;
#50 = CIRCLE ( 'NONE', #234, 1.999999999999998224 ) ;
#51 = DIRECTION ( 'NONE',  ( 4.596983092540343816E-18, 1.000000000000000000, -0.000000000000000000 ) ) ;
#52 = DIRECTION ( 'NONE',  ( -1.000000000000000000, 0.000000000000000000, 0.000000000000000000 ) ) ;
#53 = APPROVAL_STATUS ( 'not_yet_approved' ) ;
#54 = DIRECTION ( 'NONE',  ( -1.000000000000000000, 4.596983092540343816E-18, 0.000000000000000000 ) ) ;
#55 = PERSON_AND_ORGANIZATION ( #90, #25 ) ;
#56 = VECTOR ( 'NONE', #67, 1000.000000000000000 ) ;
#57 = CC_DESIGN_SECURITY_CLASSIFICATION ( #75, ( #93 ) ) ;
#58 = EDGE_LOOP ( 'NONE', ( #236, #253, #89, #219 ) ) ;
#59 = ADVANCED_FACE ( 'NONE', ( #161 ), #230, .T. ) ;
#60 = PERSON_AND_ORGANIZATION ( #90, #25 ) ;
#61 = EDGE_LOOP ( 'NONE', ( #107, #177, #218, #201 ) ) ;
#62 = VERTEX_POINT ( 'NONE', #45 ) ;
#63 = CARTESIAN_POINT ( 'NONE',  ( -1.125292501702669742E-34, -2.447893496777732450E-17, 0.000000000000000000 ) ) ;
#64 = DIRECTION ( 'NONE',  ( 1.000000000000000000, -4.596983092540343816E-18, 0.000000000000000000 ) ) ;
#65 = VERTEX_POINT ( 'NONE', #225 ) ;
#66 = EDGE_CURVE ( 'NONE', #62, #114, #50, .T. ) ;
#67 = DIRECTION ( 'NONE',  ( 4.596983092540343816E-18, 1.000000000000000000, -0.000000000000000000 ) ) ;
#68 = SPHERICAL_SURFACE ( 'NONE', #39, 15.00000000000000000 ) ;
#69 = EDGE_CURVE ( 'NONE', #65, #4, #88, .T. ) ;
#70 = CARTESIAN_POINT ( 'NONE',  ( 1.836970198721029589E-15, 0.000000000000000000, 0.000000000000000000 ) ) ;
#71 =( NAMED_UNIT ( * ) SI_UNIT ( $, .STERADIAN. ) SOLID_ANGLE_UNIT ( ) );
#72 = UNCERTAINTY_MEASURE_WITH_UNIT (LENGTH_MEASURE( 1.000000000000000082E-05 ), #187, 'distance_accuracy_value', 'NONE');
#73 = PERSON_AND_ORGANIZATION_ROLE ( 'design_owner' ) ;
#74 = CIRCLE ( 'NONE', #169, 15.00000000000000000 ) ;
#75 = SECURITY_CLASSIFICATION ( '', '', #130 ) ;
#76 = CC_DESIGN_PERSON_AND_ORGANIZATION_ASSIGNMENT ( #60, #214, ( #75 ) ) ;
#77 = CARTESIAN_POINT ( 'NONE',  ( 1.734723475976807094E-15, 9.704509261163078548, 0.000000000000000000 ) ) ;
#78 = APPROVAL_ROLE ( '' ) ;
#79 = CALENDAR_DATE ( 2024, 3, 9 ) ;
#80 = ORIENTED_EDGE ( 'NONE', *, *, #159, .T. ) ;
#81 = PRODUCT ( '3D_M8012_DN15_17481110', '3D_M8012_DN15_17481110', '', ( #228 ) ) ;
#82 = AXIS2_PLACEMENT_3D ( 'NONE', #91, #118, #221 ) ;
#83 = EDGE_CURVE ( 'NONE', #65, #43, #165, .T. ) ;
#84 = PLANE ( 'NONE',  #146 ) ;
#85 = DIRECTION ( 'NONE',  ( -1.224646799147353207E-16, 5.629680630014033300E-34, 1.000000000000000000 ) ) ;
#86 = ORIENTED_EDGE ( 'NONE', *, *, #32, .F. ) ;
#87 = PRODUCT_DEFINITION ( 'UNKNOWN', '', #93, #26 ) ;
#88 = CIRCLE ( 'NONE', #82, 10.65000000000000036 ) ;
#89 = ORIENTED_EDGE ( 'NONE', *, *, #103, .F. ) ;
#90 = PERSON ( 'UNSPECIFIED', 'UNSPECIFIED', 'UNSPECIFIED', ('UNSPECIFIED'), ('UNSPECIFIED'), ('UNSPECIFIED') ) ;
#91 = CARTESIAN_POINT ( 'NONE',  ( 9.236488298952508525E-16, 0.000000000000000000, 0.000000000000000000 ) ) ;
#92 = APPROVAL ( #53, 'UNSPECIFIED' ) ;
#93 = PRODUCT_DEFINITION_FORMATION_WITH_SPECIFIED_SOURCE ( 'ANY', '', #81, .NOT_KNOWN. ) ;
#94 = CARTESIAN_POINT ( 'NONE',  ( 1.836970198721029589E-15, 0.000000000000000000, 0.000000000000000000 ) ) ;
#95 = CALENDAR_DATE ( 2024, 3, 9 ) ;
#96 = COORDINATED_UNIVERSAL_TIME_OFFSET ( 1, 0, .AHEAD. ) ;
#97 = SHAPE_DEFINITION_REPRESENTATION ( #220, #28 ) ;
#98 = ORIENTED_EDGE ( 'NONE', *, *, #103, .T. ) ;
#99 = CIRCLE ( 'NONE', #251, 1.999999999999998224 ) ;
#100 = PERSON_AND_ORGANIZATION ( #90, #25 ) ;
#101 = APPROVAL_PERSON_ORGANIZATION ( #246, #92, #128 ) ;
#102 = CARTESIAN_POINT ( 'NONE',  ( 10.65000000000000213, -4.895786993555466133E-17, 1.304248841091931261E-15 ) ) ;
#103 = EDGE_CURVE ( 'NONE', #178, #114, #155, .T. ) ;
#104 = FACE_OUTER_BOUND ( 'NONE', #61, .T. ) ;
#105 = DIRECTION ( 'NONE',  ( -1.000000000000000000, 0.000000000000000000, 0.000000000000000000 ) ) ;
#106 = EDGE_LOOP ( 'NONE', ( #123, #17, #86, #24 ) ) ;
#107 = ORIENTED_EDGE ( 'NONE', *, *, #21, .F. ) ;
#108 = APPROVAL ( #193, 'UNSPECIFIED' ) ;
#109 = DIRECTION ( 'NONE',  ( 4.596983092540343816E-18, 1.000000000000000000, -0.000000000000000000 ) ) ;
#110 = DIRECTION ( 'NONE',  ( 4.596983092540343816E-18, 1.000000000000000000, -0.000000000000000000 ) ) ;
#111 = COORDINATED_UNIVERSAL_TIME_OFFSET ( 1, 0, .AHEAD. ) ;
#112 = DIRECTION ( 'NONE',  ( 1.000000000000000000, 0.000000000000000000, 0.000000000000000000 ) ) ;
#113 = DATE_TIME_ROLE ( 'classification_date' ) ;
#114 = VERTEX_POINT ( 'NONE', #204 ) ;
#115 = AXIS2_PLACEMENT_3D ( 'NONE', #224, #226, #49 ) ;
#116 = APPROVAL_DATE_TIME ( #209, #92 ) ;
#117 = EDGE_CURVE ( 'NONE', #114, #5, #74, .T. ) ;
#118 = DIRECTION ( 'NONE',  ( 4.596983092540343816E-18, 1.000000000000000000, -0.000000000000000000 ) ) ;
#119 = CIRCLE ( 'NONE', #131, 9.980769230769229949 ) ;
#120 = CARTESIAN_POINT ( 'NONE',  ( 8.650000000000003908, 9.704509261163078548, 1.059319481262460767E-15 ) ) ;
#121 = CC_DESIGN_DATE_AND_TIME_ASSIGNMENT ( #13, #113, ( #75 ) ) ;
#122 = ORIENTED_EDGE ( 'NONE', *, *, #139, .F. ) ;
#123 = ORIENTED_EDGE ( 'NONE', *, *, #69, .T. ) ;
#124 = AXIS2_PLACEMENT_3D ( 'NONE', #20, #185, #2 ) ;
#125 = CARTESIAN_POINT ( 'NONE',  ( 9.236488298952508525E-16, 0.000000000000000000, 0.000000000000000000 ) ) ;
#126 = DIRECTION ( 'NONE',  ( -1.000000000000000000, 0.000000000000000000, 0.000000000000000000 ) ) ;
#127 = DIRECTION ( 'NONE',  ( 0.000000000000000000, 0.000000000000000000, 1.000000000000000000 ) ) ;
#128 = APPROVAL_ROLE ( '' ) ;
#129 = SPHERICAL_SURFACE ( 'NONE', #217, 15.00000000000000000 ) ;
#130 = SECURITY_CLASSIFICATION_LEVEL ( 'unclassified' ) ;
#131 = AXIS2_PLACEMENT_3D ( 'NONE', #138, #140, #144 ) ;
#132 = ORIENTED_EDGE ( 'NONE', *, *, #69, .F. ) ;
#133 = APPROVAL_ROLE ( '' ) ;
#134 = PERSON_AND_ORGANIZATION_ROLE ( 'creator' ) ;
#135 = EDGE_LOOP ( 'NONE', ( #98, #176, #215 ) ) ;
#136 = CIRCLE ( 'NONE', #179, 15.00000000000000000 ) ;
#137 = ORIENTED_EDGE ( 'NONE', *, *, #44, .F. ) ;
#138 = CARTESIAN_POINT ( 'NONE',  ( 9.751235971971364783E-16, 11.19751068595720156, 0.000000000000000000 ) ) ;
#139 = EDGE_CURVE ( 'NONE', #4, #65, #29, .T. ) ;
#140 = DIRECTION ( 'NONE',  ( 4.596983092540343816E-18, 1.000000000000000000, -0.000000000000000000 ) ) ;
#141 = ADVANCED_FACE ( 'NONE', ( #104 ), #182, .T. ) ;
#142 = VECTOR ( 'NONE', #206, 1000.000000000000000 ) ;
#143 = CC_DESIGN_APPROVAL ( #6, ( #93 ) ) ;
#144 = DIRECTION ( 'NONE',  ( -1.000000000000000000, 0.000000000000000000, 0.000000000000000000 ) ) ;
#145 = CARTESIAN_POINT ( 'NONE',  ( 9.682602948902201698E-16, 9.704509261163174472, 0.000000000000000000 ) ) ;
#146 = AXIS2_PLACEMENT_3D ( 'NONE', #63, #203, #64 ) ;
#147 = APPLICATION_PROTOCOL_DEFINITION ( 'international standard', 'config_control_design', 1994, #213 ) ;
#148 = DIRECTION ( 'NONE',  ( -1.000000000000000000, 4.596983092540343816E-18, 0.000000000000000000 ) ) ;
#149 = ADVANCED_FACE ( 'NONE', ( #186 ), #84, .T. ) ;
#150 = AXIS2_PLACEMENT_3D ( 'NONE', #245, #109, #52 ) ;
#151 = LOCAL_TIME ( 15, 54, 48.00000000000000000, #156 ) ;
#152 = CARTESIAN_POINT ( 'NONE',  ( -9.980769230769228173, 11.19751068595720156, 0.000000000000000000 ) ) ;
#153 = CALENDAR_DATE ( 2024, 3, 9 ) ;
#154 = ADVANCED_FACE ( 'NONE', ( #190 ), #210, .T. ) ;
#155 = CIRCLE ( 'NONE', #115, 9.980769230769229949 ) ;
#156 = COORDINATED_UNIVERSAL_TIME_OFFSET ( 1, 0, .AHEAD. ) ;
#157 = AXIS2_PLACEMENT_3D ( 'NONE', #145, #242, #105 ) ;
#158 = DIRECTION ( 'NONE',  ( -1.000000000000000000, 0.000000000000000000, 0.000000000000000000 ) ) ;
#159 = EDGE_CURVE ( 'NONE', #43, #178, #99, .T. ) ;
#160 = CARTESIAN_POINT ( 'NONE',  ( -10.64999999999998614, 2817.965330118411202, 0.000000000000000000 ) ) ;
#161 = FACE_OUTER_BOUND ( 'NONE', #58, .T. ) ;
#162 =( GEOMETRIC_REPRESENTATION_CONTEXT ( 3 ) GLOBAL_UNCERTAINTY_ASSIGNED_CONTEXT ( ( #72 ) ) GLOBAL_UNIT_ASSIGNED_CONTEXT ( ( #187, #7, #71 ) ) REPRESENTATION_CONTEXT ( 'NONE', 'WORKASPACE' ) );
#163 = CC_DESIGN_APPROVAL ( #108, ( #75 ) ) ;
#164 = ORIENTED_EDGE ( 'NONE', *, *, #44, .T. ) ;
#165 = LINE ( 'NONE', #160, #142 ) ;
#166 = DIRECTION ( 'NONE',  ( -0.000000000000000000, 0.000000000000000000, -1.000000000000000000 ) ) ;
#167 = AXIS2_PLACEMENT_3D ( 'NONE', #11, #127, #112 ) ;
#168 = PERSON_AND_ORGANIZATION ( #90, #25 ) ;
#169 = AXIS2_PLACEMENT_3D ( 'NONE', #239, #46, #238 ) ;
#170 = FACE_OUTER_BOUND ( 'NONE', #135, .T. ) ;
#171 = PRODUCT_RELATED_PRODUCT_CATEGORY ( 'detail', '', ( #81 ) ) ;
#172 = PERSON_AND_ORGANIZATION ( #90, #25 ) ;
#173 = MANIFOLD_SOLID_BREP ( 'Rotation2', #198 ) ;
#174 = DATE_AND_TIME ( #38, #227 ) ;
#175 = AXIS2_PLACEMENT_3D ( 'NONE', #27, #23, #158 ) ;
#176 = ORIENTED_EDGE ( 'NONE', *, *, #117, .T. ) ;
#177 = ORIENTED_EDGE ( 'NONE', *, *, #139, .T. ) ;
#178 = VERTEX_POINT ( 'NONE', #152 ) ;
#179 = AXIS2_PLACEMENT_3D ( 'NONE', #94, #166, #232 ) ;
#180 = CC_DESIGN_PERSON_AND_ORGANIZATION_ASSIGNMENT ( #168, #73, ( #81 ) ) ;
#181 = LINE ( 'NONE', #22, #56 ) ;
#182 = CYLINDRICAL_SURFACE ( 'NONE', #175, 10.65000000000000036 ) ;
#183 = CARTESIAN_POINT ( 'NONE',  ( -10.65000000000000036, 9.704509261163174472, 0.000000000000000000 ) ) ;
#184 = EDGE_CURVE ( 'NONE', #178, #5, #136, .T. ) ;
#185 = DIRECTION ( 'NONE',  ( 4.596983092540343816E-18, 1.000000000000000000, -0.000000000000000000 ) ) ;
#186 = FACE_OUTER_BOUND ( 'NONE', #41, .T. ) ;
#187 =( LENGTH_UNIT ( ) NAMED_UNIT ( * ) SI_UNIT ( .MILLI., .METRE. ) );
#188 = AXIS2_PLACEMENT_3D ( 'NONE', #125, #205, #207 ) ;
#189 = CARTESIAN_POINT ( 'NONE',  ( 1.836970198721029589E-15, 0.000000000000000000, 0.000000000000000000 ) ) ;
#190 = FACE_OUTER_BOUND ( 'NONE', #3, .T. ) ;
#191 = EDGE_CURVE ( 'NONE', #62, #43, #241, .T. ) ;
#192 = LOCAL_TIME ( 15, 54, 48.00000000000000000, #235 ) ;
#193 = APPROVAL_STATUS ( 'not_yet_approved' ) ;
#194 = ADVANCED_FACE ( 'NONE', ( #170 ), #129, .T. ) ;
#195 = COORDINATED_UNIVERSAL_TIME_OFFSET ( 1, 0, .AHEAD. ) ;
#196 = ORIENTED_EDGE ( 'NONE', *, *, #117, .F. ) ;
#197 = DATE_AND_TIME ( #153, #192 ) ;
#198 = CLOSED_SHELL ( 'NONE', ( #194, #59, #229, #149, #141, #154, #244 ) ) ;
#199 = APPROVAL_PERSON_ORGANIZATION ( #172, #108, #133 ) ;
#200 = PERSON_AND_ORGANIZATION_ROLE ( 'creator' ) ;
#201 = ORIENTED_EDGE ( 'NONE', *, *, #191, .F. ) ;
#202 = CC_DESIGN_PERSON_AND_ORGANIZATION_ASSIGNMENT ( #14, #200, ( #87 ) ) ;
#203 = DIRECTION ( 'NONE',  ( -4.596983092540343816E-18, -1.000000000000000000, 0.000000000000000000 ) ) ;
#204 = CARTESIAN_POINT ( 'NONE',  ( 9.980769230769231726, 11.19751068595720156, 1.263270275120461885E-15 ) ) ;
#205 = DIRECTION ( 'NONE',  ( 4.596983092540343816E-18, 1.000000000000000000, -0.000000000000000000 ) ) ;
#206 = DIRECTION ( 'NONE',  ( 4.596983092540343816E-18, 1.000000000000000000, -0.000000000000000000 ) ) ;
#207 = DIRECTION ( 'NONE',  ( -1.000000000000000000, 4.596983092540343816E-18, 0.000000000000000000 ) ) ;
#208 = FACE_OUTER_BOUND ( 'NONE', #106, .T. ) ;
#209 = DATE_AND_TIME ( #95, #18 ) ;
#210 = TOROIDAL_SURFACE ( 'NONE', #33, 8.650000000000002132, 1.999999999999998668 ) ;
#211 = CARTESIAN_POINT ( 'NONE',  ( -8.650000000000000355, 9.704509261163078548, 0.000000000000000000 ) ) ;
#212 = DIRECTION ( 'NONE',  ( -1.000000000000000000, 4.596983092540343816E-18, 0.000000000000000000 ) ) ;
#213 = APPLICATION_CONTEXT ( 'configuration controlled 3d designs of mechanical parts and assemblies' ) ;
#214 = PERSON_AND_ORGANIZATION_ROLE ( 'classification_officer' ) ;
#215 = ORIENTED_EDGE ( 'NONE', *, *, #184, .F. ) ;
#216 = APPROVAL_STATUS ( 'not_yet_approved' ) ;
#217 = AXIS2_PLACEMENT_3D ( 'NONE', #189, #247, #54 ) ;
#218 = ORIENTED_EDGE ( 'NONE', *, *, #83, .T. ) ;
#219 = ORIENTED_EDGE ( 'NONE', *, *, #159, .F. ) ;
#220 = PRODUCT_DEFINITION_SHAPE ( 'NONE', 'NONE',  #87 ) ;
#221 = DIRECTION ( 'NONE',  ( -1.000000000000000000, 4.596983092540343816E-18, 0.000000000000000000 ) ) ;
#222 = CARTESIAN_POINT ( 'NONE',  ( 9.874398457486198839E-16, 15.00000000000000000, 0.000000000000000000 ) ) ;
#223 = CIRCLE ( 'NONE', #157, 10.65000000000000213 ) ;
#224 = CARTESIAN_POINT ( 'NONE',  ( 9.751235971971364783E-16, 11.19751068595720156, 0.000000000000000000 ) ) ;
#225 = CARTESIAN_POINT ( 'NONE',  ( -10.64999999999999858, 4.895786993555466133E-17, 0.000000000000000000 ) ) ;
#226 = DIRECTION ( 'NONE',  ( 4.596983092540343816E-18, 1.000000000000000000, -0.000000000000000000 ) ) ;
#227 = LOCAL_TIME ( 15, 54, 48.00000000000000000, #96 ) ;
#228 = MECHANICAL_CONTEXT ( 'NONE', #213, 'mechanical' ) ;
#229 = ADVANCED_FACE ( 'NONE', ( #208 ), #10, .T. ) ;
#230 = TOROIDAL_SURFACE ( 'NONE', #124, 8.650000000000002132, 1.999999999999998668 ) ;
#231 = APPLICATION_PROTOCOL_DEFINITION ( 'international standard', 'config_control_design', 1994, #36 ) ;
#232 = DIRECTION ( 'NONE',  ( -1.000000000000000000, 0.000000000000000000, 0.000000000000000000 ) ) ;
#233 = PERSON_AND_ORGANIZATION ( #90, #25 ) ;
#234 = AXIS2_PLACEMENT_3D ( 'NONE', #120, #85, #48 ) ;
#235 = COORDINATED_UNIVERSAL_TIME_OFFSET ( 1, 0, .AHEAD. ) ;
#236 = ORIENTED_EDGE ( 'NONE', *, *, #32, .T. ) ;
#237 = CC_DESIGN_APPROVAL ( #92, ( #87 ) ) ;
#238 = DIRECTION ( 'NONE',  ( 1.000000000000000000, 0.000000000000000000, 1.224646799147352961E-16 ) ) ;
#239 = CARTESIAN_POINT ( 'NONE',  ( 1.836970198721029589E-15, 0.000000000000000000, 0.000000000000000000 ) ) ;
#240 = ORIENTED_EDGE ( 'NONE', *, *, #66, .F. ) ;
#241 = CIRCLE ( 'NONE', #249, 10.65000000000000213 ) ;
#242 = DIRECTION ( 'NONE',  ( 4.596983092540343816E-18, 1.000000000000000000, -0.000000000000000000 ) ) ;
#243 = ORIENTED_EDGE ( 'NONE', *, *, #184, .T. ) ;
#244 = ADVANCED_FACE ( 'NONE', ( #8 ), #68, .T. ) ;
#245 = CARTESIAN_POINT ( 'NONE',  ( 1.387778780781445676E-14, 2817.965330118411202, 0.000000000000000000 ) ) ;
#246 = PERSON_AND_ORGANIZATION ( #90, #25 ) ;
#247 = DIRECTION ( 'NONE',  ( 0.000000000000000000, 0.000000000000000000, 1.000000000000000000 ) ) ;
#248 = DIRECTION ( 'NONE',  ( 0.000000000000000000, 0.000000000000000000, 1.000000000000000000 ) ) ;
#249 = AXIS2_PLACEMENT_3D ( 'NONE', #30, #110, #126 ) ;
#250 = DIRECTION ( 'NONE',  ( -1.000000000000000000, 0.000000000000000000, 0.000000000000000000 ) ) ;
#251 = AXIS2_PLACEMENT_3D ( 'NONE', #211, #31, #250 ) ;
#252 = APPROVAL_PERSON_ORGANIZATION ( #233, #6, #78 ) ;
#253 = ORIENTED_EDGE ( 'NONE', *, *, #66, .T. ) ;
ENDSEC;
END-ISO-10303-21;
