ISO-10303-21;
HEADER;
FILE_DESCRIPTION (( 'STEP AP203' ),
    '1' );
FILE_NAME ('3D_GR1234_33.7x2_188702250.STEP',
    '2024-10-14T11:51:17',
    ( '' ),
    ( '' ),
    'SwSTEP 2.0',
    'SolidWorks 2024',
    '' );
FILE_SCHEMA (( 'CONFIG_CONTROL_DESIGN' ));
ENDSEC;

DATA;
#1 = CARTESIAN_POINT ( 'NONE',  ( -16.85000000000000142, 13.65081544123013657, 0.000000000000000000 ) ) ;
#2 = ORIENTED_EDGE ( 'NONE', *, *, #294, .F. ) ;
#3 = DIRECTION ( 'NONE',  ( 0.000000000000000000, 0.000000000000000000, 1.000000000000000000 ) ) ;
#4 = ORIENTED_EDGE ( 'NONE', *, *, #276, .F. ) ;
#5 = MECHANICAL_CONTEXT ( 'NONE', #314, 'mechanical' ) ;
#6 = ORIENTED_EDGE ( 'NONE', *, *, #112, .F. ) ;
#7 = CC_DESIGN_PERSON_AND_ORGANIZATION_ASSIGNMENT ( #277, #148, ( #173 ) ) ;
#8 = CC_DESIGN_APPROVAL ( #90, ( #173 ) ) ;
#9 = AXIS2_PLACEMENT_3D ( 'NONE', #153, #93, #255 ) ;
#10 = CIRCLE ( 'NONE', #281, 14.84999999999999964 ) ;
#11 = ORIENTED_EDGE ( 'NONE', *, *, #271, .F. ) ;
#12 = PERSON_AND_ORGANIZATION ( #99, #254 ) ;
#13 = DIRECTION ( 'NONE',  ( -0.000000000000000000, -1.000000000000000000, -0.000000000000000000 ) ) ;
#14 = ORIENTED_EDGE ( 'NONE', *, *, #65, .T. ) ;
#15 = VERTEX_POINT ( 'NONE', #166 ) ;
#16 = PERSON_AND_ORGANIZATION ( #99, #254 ) ;
#17 = FACE_OUTER_BOUND ( 'NONE', #321, .T. ) ;
#18 = DIRECTION ( 'NONE',  ( 0.000000000000000000, 0.000000000000000000, -1.000000000000000000 ) ) ;
#19 = CALENDAR_DATE ( 2024, 14, 10 ) ;
#20 = DIRECTION ( 'NONE',  ( -1.224646799147353207E-16, 0.000000000000000000, -1.000000000000000000 ) ) ;
#21 = CIRCLE ( 'NONE', #301, 11.84999999999999609 ) ;
#22 = AXIS2_PLACEMENT_3D ( 'NONE', #70, #34, #384 ) ;
#23 = FACE_OUTER_BOUND ( 'NONE', #193, .T. ) ;
#24 = CARTESIAN_POINT ( 'NONE',  ( 0.000000000000000000, 30.50081544123013799, 0.000000000000000000 ) ) ;
#25 = COORDINATED_UNIVERSAL_TIME_OFFSET ( 1, 0, .AHEAD. ) ;
#26 = EDGE_CURVE ( 'NONE', #15, #40, #306, .T. ) ;
#27 = CARTESIAN_POINT ( 'NONE',  ( 0.000000000000000000, 13.65081544123013479, 0.000000000000000000 ) ) ;
#28 = ORIENTED_EDGE ( 'NONE', *, *, #404, .F. ) ;
#29 = ORIENTED_EDGE ( 'NONE', *, *, #250, .F. ) ;
#30 = AXIS2_PLACEMENT_3D ( 'NONE', #407, #103, #131 ) ;
#31 = ADVANCED_FACE ( 'NONE', ( #77 ), #48, .T. ) ;
#32 = CARTESIAN_POINT ( 'NONE',  ( 0.000000000000000000, 13.65081544123013657, 0.000000000000000000 ) ) ;
#33 = ORIENTED_EDGE ( 'NONE', *, *, #300, .T. ) ;
#34 = DIRECTION ( 'NONE',  ( -0.000000000000000000, -1.000000000000000000, -0.000000000000000000 ) ) ;
#35 = APPLICATION_PROTOCOL_DEFINITION ( 'international standard', 'config_control_design', 1994, #314 ) ;
#36 = CIRCLE ( 'NONE', #275, 14.34999999999999609 ) ;
#37 = ADVANCED_FACE ( 'NONE', ( #274 ), #397, .F. ) ;
#38 = PLANE ( 'NONE',  #80 ) ;
#39 = ORIENTED_EDGE ( 'NONE', *, *, #138, .T. ) ;
#40 = VERTEX_POINT ( 'NONE', #178 ) ;
#41 = AXIS2_PLACEMENT_3D ( 'NONE', #95, #222, #179 ) ;
#42 = CIRCLE ( 'NONE', #350, 16.85000000000000142 ) ;
#43 = CC_DESIGN_PERSON_AND_ORGANIZATION_ASSIGNMENT ( #16, #219, ( #192 ) ) ;
#44 = CARTESIAN_POINT ( 'NONE',  ( 0.000000000000000000, 13.65081544123013657, 0.000000000000000000 ) ) ;
#45 = ORIENTED_EDGE ( 'NONE', *, *, #147, .F. ) ;
#46 = ORIENTED_EDGE ( 'NONE', *, *, #294, .T. ) ;
#47 = VERTEX_POINT ( 'NONE', #143 ) ;
#48 = SPHERICAL_SURFACE ( 'NONE', #206, 16.85000000000000497 ) ;
#49 = DATE_AND_TIME ( #388, #125 ) ;
#50 = ADVANCED_FACE ( 'NONE', ( #123 ), #64, .T. ) ;
#51 = CC_DESIGN_SECURITY_CLASSIFICATION ( #279, ( #173 ) ) ;
#52 = AXIS2_PLACEMENT_3D ( 'NONE', #313, #88, #256 ) ;
#53 = AXIS2_PLACEMENT_3D ( 'NONE', #403, #195, #231 ) ;
#54 = ORIENTED_EDGE ( 'NONE', *, *, #98, .T. ) ;
#55 = DIRECTION ( 'NONE',  ( 0.000000000000000000, 0.000000000000000000, -1.000000000000000000 ) ) ;
#56 = PERSON_AND_ORGANIZATION ( #99, #254 ) ;
#57 = SPHERICAL_SURFACE ( 'NONE', #232, 14.85000000000000142 ) ;
#58 = DIRECTION ( 'NONE',  ( 0.000000000000000000, 0.000000000000000000, -1.000000000000000000 ) ) ;
#59 = PERSON_AND_ORGANIZATION ( #99, #254 ) ;
#60 = DIRECTION ( 'NONE',  ( 0.000000000000000000, -0.000000000000000000, 1.000000000000000000 ) ) ;
#61 = CONICAL_SURFACE ( 'NONE', #333, 14.84999999999999787, 0.4636476090008074813 ) ;
#62 = DIRECTION ( 'NONE',  ( 1.000000000000000000, 0.000000000000000000, 0.000000000000000000 ) ) ;
#63 = DIRECTION ( 'NONE',  ( 0.000000000000000000, 0.000000000000000000, -1.000000000000000000 ) ) ;
#64 = CYLINDRICAL_SURFACE ( 'NONE', #280, 14.84999999999999787 ) ;
#65 = EDGE_CURVE ( 'NONE', #380, #332, #21, .T. ) ;
#66 = AXIS2_PLACEMENT_3D ( 'NONE', #71, #269, #323 ) ;
#67 = VECTOR ( 'NONE', #272, 1000.000000000000000 ) ;
#68 = CARTESIAN_POINT ( 'NONE',  ( 0.000000000000000000, -4.349184558769862541, 0.000000000000000000 ) ) ;
#69 = EDGE_LOOP ( 'NONE', ( #29, #45 ) ) ;
#70 = CARTESIAN_POINT ( 'NONE',  ( 0.000000000000000000, -5.349184558769863429, 0.000000000000000000 ) ) ;
#71 = CARTESIAN_POINT ( 'NONE',  ( 0.000000000000000000, 0.000000000000000000, 0.000000000000000000 ) ) ;
#72 = ORIENTED_EDGE ( 'NONE', *, *, #271, .T. ) ;
#73 = CARTESIAN_POINT ( 'NONE',  ( 16.85000000000000497, 13.65081544123013657, -2.063529856563290638E-15 ) ) ;
#74 = ADVANCED_FACE ( 'NONE', ( #389 ), #57, .F. ) ;
#75 = AXIS2_PLACEMENT_3D ( 'NONE', #68, #132, #265 ) ;
#76 = ORIENTED_EDGE ( 'NONE', *, *, #258, .F. ) ;
#77 = FACE_OUTER_BOUND ( 'NONE', #83, .T. ) ;
#78 = LOCAL_TIME ( 13, 51, 17.00000000000000000, #84 ) ;
#79 = ORIENTED_EDGE ( 'NONE', *, *, #276, .T. ) ;
#80 = AXIS2_PLACEMENT_3D ( 'NONE', #1, #160, #102 ) ;
#81 = VERTEX_POINT ( 'NONE', #243 ) ;
#82 = ORIENTED_EDGE ( 'NONE', *, *, #386, .F. ) ;
#83 = EDGE_LOOP ( 'NONE', ( #115, #54, #4 ) ) ;
#84 = COORDINATED_UNIVERSAL_TIME_OFFSET ( 1, 0, .AHEAD. ) ;
#85 = VERTEX_POINT ( 'NONE', #282 ) ;
#86 = CIRCLE ( 'NONE', #196, 11.84999999999999609 ) ;
#87 = DIRECTION ( 'NONE',  ( 0.000000000000000000, 0.000000000000000000, -1.000000000000000000 ) ) ;
#88 = DIRECTION ( 'NONE',  ( -0.000000000000000000, -1.000000000000000000, -0.000000000000000000 ) ) ;
#89 = APPROVAL_DATE_TIME ( #315, #90 ) ;
#90 = APPROVAL ( #122, 'UNSPECIFIED' ) ;
#91 = DIRECTION ( 'NONE',  ( 0.000000000000000000, 0.000000000000000000, -1.000000000000000000 ) ) ;
#92 = DIRECTION ( 'NONE',  ( -0.000000000000000000, -1.000000000000000000, -0.000000000000000000 ) ) ;
#93 = DIRECTION ( 'NONE',  ( -0.000000000000000000, -0.000000000000000000, -1.000000000000000000 ) ) ;
#94 = CLOSED_SHELL ( 'NONE', ( #382, #74, #133, #347, #241, #177, #50, #220, #31, #37, #357, #158 ) ) ;
#95 = CARTESIAN_POINT ( 'NONE',  ( -14.34999999999999609, -5.349184558769863429, 0.000000000000000000 ) ) ;
#96 = ORIENTED_EDGE ( 'NONE', *, *, #322, .T. ) ;
#97 = DIRECTION ( 'NONE',  ( -0.000000000000000000, -1.000000000000000000, -0.000000000000000000 ) ) ;
#98 = EDGE_CURVE ( 'NONE', #245, #81, #139, .T. ) ;
#99 = PERSON ( 'UNSPECIFIED', 'UNSPECIFIED', 'UNSPECIFIED', ('UNSPECIFIED'), ('UNSPECIFIED'), ('UNSPECIFIED') ) ;
#100 = CARTESIAN_POINT ( 'NONE',  ( 0.000000000000000000, -4.349184558769862541, 0.000000000000000000 ) ) ;
#101 = DIRECTION ( 'NONE',  ( 5.476786982642041035E-17, 0.8944271909999153003, -0.4472135954999591489 ) ) ;
#102 = DIRECTION ( 'NONE',  ( 0.000000000000000000, -0.000000000000000000, 1.000000000000000000 ) ) ;
#103 = DIRECTION ( 'NONE',  ( -1.224646799147353207E-16, 0.000000000000000000, -1.000000000000000000 ) ) ;
#104 = ORIENTED_EDGE ( 'NONE', *, *, #404, .T. ) ;
#105 = CARTESIAN_POINT ( 'NONE',  ( -1.031764928281645319E-15, 30.50081544123013799, 0.000000000000000000 ) ) ;
#106 = LINE ( 'NONE', #229, #361 ) ;
#107 = ORIENTED_EDGE ( 'NONE', *, *, #65, .F. ) ;
#108 = CC_DESIGN_DATE_AND_TIME_ASSIGNMENT ( #49, #214, ( #279 ) ) ;
#109 = ORIENTED_EDGE ( 'NONE', *, *, #372, .T. ) ;
#110 = CARTESIAN_POINT ( 'NONE',  ( 0.000000000000000000, -5.349184558769863429, -11.84999999999999609 ) ) ;
#111 = VECTOR ( 'NONE', #101, 1000.000000000000000 ) ;
#112 = EDGE_CURVE ( 'NONE', #230, #405, #261, .T. ) ;
#113 = VERTEX_POINT ( 'NONE', #217 ) ;
#114 = CC_DESIGN_APPROVAL ( #378, ( #279 ) ) ;
#115 = ORIENTED_EDGE ( 'NONE', *, *, #376, .F. ) ;
#116 = EDGE_CURVE ( 'NONE', #387, #332, #197, .T. ) ;
#117 = DATE_AND_TIME ( #19, #319 ) ;
#118 = ORIENTED_EDGE ( 'NONE', *, *, #368, .T. ) ;
#119 = DATE_AND_TIME ( #287, #266 ) ;
#120 = APPROVAL ( #176, 'UNSPECIFIED' ) ;
#121 = DIRECTION ( 'NONE',  ( -0.000000000000000000, -1.000000000000000000, -0.000000000000000000 ) ) ;
#122 = APPROVAL_STATUS ( 'not_yet_approved' ) ;
#123 = FACE_OUTER_BOUND ( 'NONE', #270, .T. ) ;
#124 = CARTESIAN_POINT ( 'NONE',  ( 0.000000000000000000, 13.65081544123013302, 0.000000000000000000 ) ) ;
#125 = LOCAL_TIME ( 13, 51, 17.00000000000000000, #25 ) ;
#126 = ORIENTED_EDGE ( 'NONE', *, *, #26, .T. ) ;
#127 = AXIS2_PLACEMENT_3D ( 'NONE', #299, #130, #3 ) ;
#128 = DIRECTION ( 'NONE',  ( -0.000000000000000000, -1.000000000000000000, -0.000000000000000000 ) ) ;
#129 = ORIENTED_EDGE ( 'NONE', *, *, #258, .T. ) ;
#130 = DIRECTION ( 'NONE',  ( 0.000000000000000000, 1.000000000000000000, 0.000000000000000000 ) ) ;
#131 = DIRECTION ( 'NONE',  ( -1.000000000000000000, 0.000000000000000000, 1.224646799147353454E-16 ) ) ;
#132 = DIRECTION ( 'NONE',  ( -0.000000000000000000, -1.000000000000000000, -0.000000000000000000 ) ) ;
#133 = ADVANCED_FACE ( 'NONE', ( #23 ), #316, .T. ) ;
#134 = APPROVAL_PERSON_ORGANIZATION ( #142, #90, #360 ) ;
#135 = CONICAL_SURFACE ( 'NONE', #127, 14.84999999999999787, 0.4636476090008074813 ) ;
#136 = ORIENTED_EDGE ( 'NONE', *, *, #368, .F. ) ;
#137 = EDGE_LOOP ( 'NONE', ( #239, #273, #129, #399 ) ) ;
#138 = EDGE_CURVE ( 'NONE', #405, #230, #400, .T. ) ;
#139 = CIRCLE ( 'NONE', #326, 16.85000000000000497 ) ;
#140 = AXIS2_PLACEMENT_3D ( 'NONE', #124, #87, #345 ) ;
#141 = MANIFOLD_SOLID_BREP ( 'Rotation1', #94 ) ;
#142 = PERSON_AND_ORGANIZATION ( #99, #254 ) ;
#143 = CARTESIAN_POINT ( 'NONE',  ( 1.818600496733819948E-15, 13.65081544123013657, 14.85000000000000142 ) ) ;
#144 = DATE_AND_TIME ( #385, #337 ) ;
#145 = DIRECTION ( 'NONE',  ( 0.000000000000000000, 0.000000000000000000, -1.000000000000000000 ) ) ;
#146 = CARTESIAN_POINT ( 'NONE',  ( 0.000000000000000000, -4.349184558769862541, 0.000000000000000000 ) ) ;
#147 = EDGE_CURVE ( 'NONE', #47, #154, #292, .T. ) ;
#148 = PERSON_AND_ORGANIZATION_ROLE ( 'creator' ) ;
#149 = UNCERTAINTY_MEASURE_WITH_UNIT (LENGTH_MEASURE( 1.000000000000000082E-05 ), #234, 'distance_accuracy_value', 'NONE');
#150 = DIRECTION ( 'NONE',  ( -1.000000000000000000, 0.000000000000000000, 0.000000000000000000 ) ) ;
#151 = FACE_OUTER_BOUND ( 'NONE', #257, .T. ) ;
#152 = APPROVAL_STATUS ( 'not_yet_approved' ) ;
#153 = CARTESIAN_POINT ( 'NONE',  ( 0.000000000000000000, 13.65081544123013479, 0.000000000000000000 ) ) ;
#154 = VERTEX_POINT ( 'NONE', #317 ) ;
#155 = ORIENTED_EDGE ( 'NONE', *, *, #98, .F. ) ;
#156 = EDGE_LOOP ( 'NONE', ( #242, #169, #96, #14 ) ) ;
#157 = DIRECTION ( 'NONE',  ( -0.000000000000000000, -1.000000000000000000, -0.000000000000000000 ) ) ;
#158 = ADVANCED_FACE ( 'NONE', ( #288, #398 ), #367, .F. ) ;
#159 = FACE_OUTER_BOUND ( 'NONE', #224, .T. ) ;
#160 = DIRECTION ( 'NONE',  ( 0.000000000000000000, 1.000000000000000000, 0.000000000000000000 ) ) ;
#161 = DIRECTION ( 'NONE',  ( -0.000000000000000000, -1.000000000000000000, -0.000000000000000000 ) ) ;
#162 = DIRECTION ( 'NONE',  ( -0.000000000000000000, -1.000000000000000000, -0.000000000000000000 ) ) ;
#163 = DIRECTION ( 'NONE',  ( 0.000000000000000000, 0.000000000000000000, -1.000000000000000000 ) ) ;
#164 = ORIENTED_EDGE ( 'NONE', *, *, #372, .F. ) ;
#165 = AXIS2_PLACEMENT_3D ( 'NONE', #189, #198, #374 ) ;
#166 = CARTESIAN_POINT ( 'NONE',  ( 0.000000000000000000, -5.349184558769863429, 14.34999999999999609 ) ) ;
#167 = CIRCLE ( 'NONE', #75, 14.84999999999999787 ) ;
#168 =( NAMED_UNIT ( * ) SI_UNIT ( $, .STERADIAN. ) SOLID_ANGLE_UNIT ( ) );
#169 = ORIENTED_EDGE ( 'NONE', *, *, #331, .T. ) ;
#170 = DIRECTION ( 'NONE',  ( -1.000000000000000000, 0.000000000000000000, 0.000000000000000000 ) ) ;
#171 = ORIENTED_EDGE ( 'NONE', *, *, #386, .T. ) ;
#172 = CC_DESIGN_PERSON_AND_ORGANIZATION_ASSIGNMENT ( #344, #309, ( #279 ) ) ;
#173 = PRODUCT_DEFINITION_FORMATION_WITH_SPECIFIED_SOURCE ( 'ANY', '', #295, .NOT_KNOWN. ) ;
#174 = CIRCLE ( 'NONE', #22, 14.34999999999999609 ) ;
#175 = ORIENTED_EDGE ( 'NONE', *, *, #199, .T. ) ;
#176 = APPROVAL_STATUS ( 'not_yet_approved' ) ;
#177 = ADVANCED_FACE ( 'NONE', ( #17 ), #61, .T. ) ;
#178 = CARTESIAN_POINT ( 'NONE',  ( 0.000000000000000000, -4.349184558769862541, 14.84999999999999787 ) ) ;
#179 = DIRECTION ( 'NONE',  ( 0.000000000000000000, -0.000000000000000000, 1.000000000000000000 ) ) ;
#180 = COORDINATED_UNIVERSAL_TIME_OFFSET ( 1, 0, .AHEAD. ) ;
#181 = CARTESIAN_POINT ( 'NONE',  ( 0.000000000000000000, 13.65081544123013302, 0.000000000000000000 ) ) ;
#182 = CARTESIAN_POINT ( 'NONE',  ( 0.000000000000000000, 13.65081544123013479, 0.000000000000000000 ) ) ;
#183 = SECURITY_CLASSIFICATION_LEVEL ( 'unclassified' ) ;
#184 = EDGE_LOOP ( 'NONE', ( #289, #6 ) ) ;
#185 = CARTESIAN_POINT ( 'NONE',  ( 0.000000000000000000, 30.50081544123013799, 0.000000000000000000 ) ) ;
#186 = CALENDAR_DATE ( 2024, 14, 10 ) ;
#187 = CARTESIAN_POINT ( 'NONE',  ( 0.000000000000000000, -5.349184558769863429, 0.000000000000000000 ) ) ;
#188 = VERTEX_POINT ( 'NONE', #362 ) ;
#189 = CARTESIAN_POINT ( 'NONE',  ( 0.000000000000000000, 30.50081544123013799, 0.000000000000000000 ) ) ;
#190 = APPLICATION_CONTEXT ( 'configuration controlled 3d designs of mechanical parts and assemblies' ) ;
#191 = CARTESIAN_POINT ( 'NONE',  ( 0.000000000000000000, 22.60067577533592242, 0.000000000000000000 ) ) ;
#192 = PRODUCT_DEFINITION ( 'UNKNOWN', '', #173, #290 ) ;
#193 = EDGE_LOOP ( 'NONE', ( #155, #200, #28 ) ) ;
#194 = DIRECTION ( 'NONE',  ( 0.000000000000000000, 0.000000000000000000, -1.000000000000000000 ) ) ;
#195 = DIRECTION ( 'NONE',  ( -0.000000000000000000, -1.000000000000000000, -0.000000000000000000 ) ) ;
#196 = AXIS2_PLACEMENT_3D ( 'NONE', #252, #364, #58 ) ;
#197 = CIRCLE ( 'NONE', #338, 14.85000000000000142 ) ;
#198 = DIRECTION ( 'NONE',  ( -0.000000000000000000, -1.000000000000000000, -0.000000000000000000 ) ) ;
#199 = EDGE_CURVE ( 'NONE', #380, #230, #215, .T. ) ;
#200 = ORIENTED_EDGE ( 'NONE', *, *, #376, .T. ) ;
#201 = LINE ( 'NONE', #329, #111 ) ;
#202 =( NAMED_UNIT ( * ) PLANE_ANGLE_UNIT ( ) SI_UNIT ( $, .RADIAN. ) );
#203 = EDGE_LOOP ( 'NONE', ( #283, #118, #76, #2 ) ) ;
#204 = APPROVAL_PERSON_ORGANIZATION ( #211, #378, #249 ) ;
#205 = CARTESIAN_POINT ( 'NONE',  ( 0.000000000000000000, 13.65081544123013479, 0.000000000000000000 ) ) ;
#206 = AXIS2_PLACEMENT_3D ( 'NONE', #205, #334, #170 ) ;
#207 = AXIS2_PLACEMENT_3D ( 'NONE', #185, #97, #18 ) ;
#208 = ORIENTED_EDGE ( 'NONE', *, *, #336, .T. ) ;
#209 = SHAPE_DEFINITION_REPRESENTATION ( #394, #210 ) ;
#210 = ADVANCED_BREP_SHAPE_REPRESENTATION ( '3D_GR1234_33.7x2_188702250', ( #141, #66 ), #377 ) ;
#211 = PERSON_AND_ORGANIZATION ( #99, #254 ) ;
#212 = CARTESIAN_POINT ( 'NONE',  ( 0.000000000000000000, 30.50081544123013799, 0.000000000000000000 ) ) ;
#213 = DIRECTION ( 'NONE',  ( -0.000000000000000000, -1.000000000000000000, -0.000000000000000000 ) ) ;
#214 = DATE_TIME_ROLE ( 'classification_date' ) ;
#215 = LINE ( 'NONE', #328, #240 ) ;
#216 = DATE_TIME_ROLE ( 'creation_date' ) ;
#217 = CARTESIAN_POINT ( 'NONE',  ( 1.818600496733819553E-15, -4.349184558769862541, -14.84999999999999787 ) ) ;
#218 = ORIENTED_EDGE ( 'NONE', *, *, #322, .F. ) ;
#219 = PERSON_AND_ORGANIZATION_ROLE ( 'creator' ) ;
#220 = ADVANCED_FACE ( 'NONE', ( #406, #159 ), #38, .F. ) ;
#221 = CARTESIAN_POINT ( 'NONE',  ( 1.451206456989612926E-15, 22.60067577533592242, 11.84999999999999609 ) ) ;
#222 = DIRECTION ( 'NONE',  ( 0.000000000000000000, 1.000000000000000000, 0.000000000000000000 ) ) ;
#223 = FACE_OUTER_BOUND ( 'NONE', #356, .T. ) ;
#224 = EDGE_LOOP ( 'NONE', ( #104, #79 ) ) ;
#225 = DIRECTION ( 'NONE',  ( -0.000000000000000000, -1.000000000000000000, -0.000000000000000000 ) ) ;
#226 = CARTESIAN_POINT ( 'NONE',  ( 1.451206456989612926E-15, -5.349184558769863429, 11.84999999999999609 ) ) ;
#227 = CIRCLE ( 'NONE', #30, 14.85000000000000142 ) ;
#228 = DIRECTION ( 'NONE',  ( -0.000000000000000000, -1.000000000000000000, -0.000000000000000000 ) ) ;
#229 = CARTESIAN_POINT ( 'NONE',  ( 0.000000000000000000, 30.50081544123013799, -11.84999999999999609 ) ) ;
#230 = VERTEX_POINT ( 'NONE', #226 ) ;
#231 = DIRECTION ( 'NONE',  ( 0.000000000000000000, 0.000000000000000000, -1.000000000000000000 ) ) ;
#232 = AXIS2_PLACEMENT_3D ( 'NONE', #181, #310, #150 ) ;
#233 = CIRCLE ( 'NONE', #53, 11.84999999999999609 ) ;
#234 =( LENGTH_UNIT ( ) NAMED_UNIT ( * ) SI_UNIT ( .MILLI., .METRE. ) );
#235 = EDGE_LOOP ( 'NONE', ( #363, #402, #109, #33 ) ) ;
#236 = VERTEX_POINT ( 'NONE', #263 ) ;
#237 = CC_DESIGN_DATE_AND_TIME_ASSIGNMENT ( #119, #216, ( #192 ) ) ;
#238 = CIRCLE ( 'NONE', #325, 16.85000000000000142 ) ;
#239 = ORIENTED_EDGE ( 'NONE', *, *, #285, .F. ) ;
#240 = VECTOR ( 'NONE', #370, 1000.000000000000000 ) ;
#241 = ADVANCED_FACE ( 'NONE', ( #375 ), #135, .T. ) ;
#242 = ORIENTED_EDGE ( 'NONE', *, *, #116, .F. ) ;
#243 = CARTESIAN_POINT ( 'NONE',  ( -16.85000000000000497, 13.65081544123013657, 0.000000000000000000 ) ) ;
#244 = DIRECTION ( 'NONE',  ( 0.000000000000000000, 0.000000000000000000, 1.000000000000000000 ) ) ;
#245 = VERTEX_POINT ( 'NONE', #105 ) ;
#246 = DIRECTION ( 'NONE',  ( -0.000000000000000000, -1.000000000000000000, -0.000000000000000000 ) ) ;
#247 = DIRECTION ( 'NONE',  ( 0.000000000000000000, 0.000000000000000000, -1.000000000000000000 ) ) ;
#248 = CYLINDRICAL_SURFACE ( 'NONE', #359, 11.84999999999999609 ) ;
#249 = APPROVAL_ROLE ( '' ) ;
#250 = EDGE_CURVE ( 'NONE', #154, #47, #10, .T. ) ;
#251 = ORIENTED_EDGE ( 'NONE', *, *, #318, .F. ) ;
#252 = CARTESIAN_POINT ( 'NONE',  ( 0.000000000000000000, 22.60067577533592242, 0.000000000000000000 ) ) ;
#253 = APPROVAL_DATE_TIME ( #117, #378 ) ;
#254 = ORGANIZATION ( 'UNSPECIFIED', 'UNSPECIFIED', '' ) ;
#255 = DIRECTION ( 'NONE',  ( -1.000000000000000000, 0.000000000000000000, 0.000000000000000000 ) ) ;
#256 = DIRECTION ( 'NONE',  ( 0.000000000000000000, 0.000000000000000000, -1.000000000000000000 ) ) ;
#257 = EDGE_LOOP ( 'NONE', ( #107, #175, #381, #335, #164 ) ) ;
#258 = EDGE_CURVE ( 'NONE', #113, #40, #167, .T. ) ;
#259 = DIRECTION ( 'NONE',  ( -0.000000000000000000, -1.000000000000000000, -0.000000000000000000 ) ) ;
#260 = CC_DESIGN_APPROVAL ( #120, ( #192 ) ) ;
#261 = CIRCLE ( 'NONE', #311, 11.84999999999999609 ) ;
#262 = VECTOR ( 'NONE', #246, 1000.000000000000000 ) ;
#263 = CARTESIAN_POINT ( 'NONE',  ( 1.787984326755135766E-15, -5.349184558769863429, -14.34999999999999609 ) ) ;
#264 = CARTESIAN_POINT ( 'NONE',  ( 0.000000000000000000, 30.50081544123013799, -14.84999999999999787 ) ) ;
#265 = DIRECTION ( 'NONE',  ( 0.000000000000000000, 0.000000000000000000, -1.000000000000000000 ) ) ;
#266 = LOCAL_TIME ( 13, 51, 17.00000000000000000, #278 ) ;
#267 = DIRECTION ( 'NONE',  ( -0.000000000000000000, -1.000000000000000000, -0.000000000000000000 ) ) ;
#268 = ORIENTED_EDGE ( 'NONE', *, *, #147, .T. ) ;
#269 = DIRECTION ( 'NONE',  ( 0.000000000000000000, 0.000000000000000000, 1.000000000000000000 ) ) ;
#270 = EDGE_LOOP ( 'NONE', ( #136, #268, #46, #11 ) ) ;
#271 = EDGE_CURVE ( 'NONE', #40, #113, #355, .T. ) ;
#272 = DIRECTION ( 'NONE',  ( 0.000000000000000000, 0.8944271909999153003, 0.4472135954999591489 ) ) ;
#273 = ORIENTED_EDGE ( 'NONE', *, *, #318, .T. ) ;
#274 = FACE_OUTER_BOUND ( 'NONE', #235, .T. ) ;
#275 = AXIS2_PLACEMENT_3D ( 'NONE', #327, #267, #163 ) ;
#276 = EDGE_CURVE ( 'NONE', #298, #81, #42, .T. ) ;
#277 = PERSON_AND_ORGANIZATION ( #99, #254 ) ;
#278 = COORDINATED_UNIVERSAL_TIME_OFFSET ( 1, 0, .AHEAD. ) ;
#279 = SECURITY_CLASSIFICATION ( '', '', #183 ) ;
#280 = AXIS2_PLACEMENT_3D ( 'NONE', #212, #92, #145 ) ;
#281 = AXIS2_PLACEMENT_3D ( 'NONE', #351, #157, #194 ) ;
#282 = CARTESIAN_POINT ( 'NONE',  ( 11.84999999999999609, 22.60067577533592242, -1.451206456989612926E-15 ) ) ;
#283 = ORIENTED_EDGE ( 'NONE', *, *, #250, .T. ) ;
#284 = CARTESIAN_POINT ( 'NONE',  ( 1.818600496733819553E-15, 30.50081544123013799, 14.84999999999999787 ) ) ;
#285 = EDGE_CURVE ( 'NONE', #236, #15, #174, .T. ) ;
#286 = DIRECTION ( 'NONE',  ( -1.000000000000000000, 0.000000000000000000, 1.224646799147353207E-16 ) ) ;
#287 = CALENDAR_DATE ( 2024, 14, 10 ) ;
#288 = FACE_BOUND ( 'NONE', #184, .T. ) ;
#289 = ORIENTED_EDGE ( 'NONE', *, *, #138, .F. ) ;
#290 = DESIGN_CONTEXT ( 'detailed design', #190, 'design' ) ;
#291 = CIRCLE ( 'NONE', #307, 16.85000000000000497 ) ;
#292 = CIRCLE ( 'NONE', #349, 14.84999999999999964 ) ;
#293 = CIRCLE ( 'NONE', #303, 11.84999999999999609 ) ;
#294 = EDGE_CURVE ( 'NONE', #154, #113, #296, .T. ) ;
#295 = PRODUCT ( '3D_GR1234_33.7x2_188702250', '3D_GR1234_33.7x2_188702250', '', ( #5 ) ) ;
#296 = LINE ( 'NONE', #264, #401 ) ;
#297 = DIRECTION ( 'NONE',  ( 0.000000000000000000, 0.000000000000000000, -1.000000000000000000 ) ) ;
#298 = VERTEX_POINT ( 'NONE', #73 ) ;
#299 = CARTESIAN_POINT ( 'NONE',  ( 0.000000000000000000, -4.349184558769862541, 0.000000000000000000 ) ) ;
#300 = EDGE_CURVE ( 'NONE', #188, #85, #233, .T. ) ;
#301 = AXIS2_PLACEMENT_3D ( 'NONE', #348, #341, #247 ) ;
#302 = ORIENTED_EDGE ( 'NONE', *, *, #300, .F. ) ;
#303 = AXIS2_PLACEMENT_3D ( 'NONE', #191, #259, #371 ) ;
#304 = CARTESIAN_POINT ( 'NONE',  ( 0.000000000000000000, -4.349184558769862541, 14.84999999999999787 ) ) ;
#305 = PRODUCT_RELATED_PRODUCT_CATEGORY ( 'detail', '', ( #295 ) ) ;
#306 = LINE ( 'NONE', #304, #67 ) ;
#307 = AXIS2_PLACEMENT_3D ( 'NONE', #182, #20, #286 ) ;
#308 = APPROVAL_DATE_TIME ( #144, #120 ) ;
#309 = PERSON_AND_ORGANIZATION_ROLE ( 'classification_officer' ) ;
#310 = DIRECTION ( 'NONE',  ( 0.000000000000000000, 0.000000000000000000, -1.000000000000000000 ) ) ;
#311 = AXIS2_PLACEMENT_3D ( 'NONE', #187, #121, #91 ) ;
#312 = DIRECTION ( 'NONE',  ( 1.000000000000000000, 0.000000000000000000, 0.000000000000000000 ) ) ;
#313 = CARTESIAN_POINT ( 'NONE',  ( 0.000000000000000000, -5.349184558769863429, 0.000000000000000000 ) ) ;
#314 = APPLICATION_CONTEXT ( 'configuration controlled 3d designs of mechanical parts and assemblies' ) ;
#315 = DATE_AND_TIME ( #186, #78 ) ;
#316 = SPHERICAL_SURFACE ( 'NONE', #9, 16.85000000000000497 ) ;
#317 = CARTESIAN_POINT ( 'NONE',  ( 0.000000000000000000, 13.65081544123013657, -14.84999999999999964 ) ) ;
#318 = EDGE_CURVE ( 'NONE', #236, #113, #201, .T. ) ;
#319 = LOCAL_TIME ( 13, 51, 17.00000000000000000, #180 ) ;
#320 = DIRECTION ( 'NONE',  ( 0.000000000000000000, 0.000000000000000000, -1.000000000000000000 ) ) ;
#321 = EDGE_LOOP ( 'NONE', ( #251, #82, #126, #72 ) ) ;
#322 = EDGE_CURVE ( 'NONE', #85, #380, #293, .T. ) ;
#323 = DIRECTION ( 'NONE',  ( 1.000000000000000000, 0.000000000000000000, 0.000000000000000000 ) ) ;
#324 = ORIENTED_EDGE ( 'NONE', *, *, #285, .T. ) ;
#325 = AXIS2_PLACEMENT_3D ( 'NONE', #44, #162, #297 ) ;
#326 = AXIS2_PLACEMENT_3D ( 'NONE', #27, #395, #62 ) ;
#327 = CARTESIAN_POINT ( 'NONE',  ( 0.000000000000000000, -5.349184558769863429, 0.000000000000000000 ) ) ;
#328 = CARTESIAN_POINT ( 'NONE',  ( 1.451206456989612926E-15, 30.50081544123013799, 11.84999999999999609 ) ) ;
#329 = CARTESIAN_POINT ( 'NONE',  ( 1.818600496733819553E-15, -4.349184558769862541, -14.84999999999999787 ) ) ;
#330 = EDGE_LOOP ( 'NONE', ( #171, #324 ) ) ;
#331 = EDGE_CURVE ( 'NONE', #387, #85, #227, .T. ) ;
#332 = VERTEX_POINT ( 'NONE', #373 ) ;
#333 = AXIS2_PLACEMENT_3D ( 'NONE', #146, #390, #244 ) ;
#334 = DIRECTION ( 'NONE',  ( -0.000000000000000000, -0.000000000000000000, -1.000000000000000000 ) ) ;
#335 = ORIENTED_EDGE ( 'NONE', *, *, #336, .F. ) ;
#336 = EDGE_CURVE ( 'NONE', #188, #405, #106, .T. ) ;
#337 = LOCAL_TIME ( 13, 51, 17.00000000000000000, #342 ) ;
#338 = AXIS2_PLACEMENT_3D ( 'NONE', #343, #60, #312 ) ;
#339 = PERSON_AND_ORGANIZATION_ROLE ( 'design_owner' ) ;
#340 = CC_DESIGN_PERSON_AND_ORGANIZATION_ASSIGNMENT ( #59, #339, ( #295 ) ) ;
#341 = DIRECTION ( 'NONE',  ( -0.000000000000000000, -1.000000000000000000, -0.000000000000000000 ) ) ;
#342 = COORDINATED_UNIVERSAL_TIME_OFFSET ( 1, 0, .AHEAD. ) ;
#343 = CARTESIAN_POINT ( 'NONE',  ( 0.000000000000000000, 13.65081544123013302, 0.000000000000000000 ) ) ;
#344 = PERSON_AND_ORGANIZATION ( #99, #254 ) ;
#345 = DIRECTION ( 'NONE',  ( -1.000000000000000000, 0.000000000000000000, 0.000000000000000000 ) ) ;
#346 = CYLINDRICAL_SURFACE ( 'NONE', #165, 11.84999999999999609 ) ;
#347 = ADVANCED_FACE ( 'NONE', ( #366 ), #358, .T. ) ;
#348 = CARTESIAN_POINT ( 'NONE',  ( 0.000000000000000000, 22.60067577533592242, 0.000000000000000000 ) ) ;
#349 = AXIS2_PLACEMENT_3D ( 'NONE', #369, #213, #55 ) ;
#350 = AXIS2_PLACEMENT_3D ( 'NONE', #32, #228, #353 ) ;
#351 = CARTESIAN_POINT ( 'NONE',  ( 0.000000000000000000, 13.65081544123013657, 0.000000000000000000 ) ) ;
#352 = CC_DESIGN_PERSON_AND_ORGANIZATION_ASSIGNMENT ( #12, #396, ( #173 ) ) ;
#353 = DIRECTION ( 'NONE',  ( 0.000000000000000000, 0.000000000000000000, -1.000000000000000000 ) ) ;
#354 = APPROVAL_PERSON_ORGANIZATION ( #56, #120, #365 ) ;
#355 = CIRCLE ( 'NONE', #393, 14.84999999999999787 ) ;
#356 = EDGE_LOOP ( 'NONE', ( #383, #218, #302, #208, #39 ) ) ;
#357 = ADVANCED_FACE ( 'NONE', ( #223 ), #248, .F. ) ;
#358 = CYLINDRICAL_SURFACE ( 'NONE', #207, 14.84999999999999787 ) ;
#359 = AXIS2_PLACEMENT_3D ( 'NONE', #24, #128, #63 ) ;
#360 = APPROVAL_ROLE ( '' ) ;
#361 = VECTOR ( 'NONE', #13, 1000.000000000000000 ) ;
#362 = CARTESIAN_POINT ( 'NONE',  ( 0.000000000000000000, 22.60067577533592242, -11.84999999999999609 ) ) ;
#363 = ORIENTED_EDGE ( 'NONE', *, *, #331, .F. ) ;
#364 = DIRECTION ( 'NONE',  ( -0.000000000000000000, -1.000000000000000000, -0.000000000000000000 ) ) ;
#365 = APPROVAL_ROLE ( '' ) ;
#366 = FACE_OUTER_BOUND ( 'NONE', #203, .T. ) ;
#367 = PLANE ( 'NONE',  #41 ) ;
#368 = EDGE_CURVE ( 'NONE', #47, #40, #391, .T. ) ;
#369 = CARTESIAN_POINT ( 'NONE',  ( 0.000000000000000000, 13.65081544123013657, 0.000000000000000000 ) ) ;
#370 = DIRECTION ( 'NONE',  ( -0.000000000000000000, -1.000000000000000000, -0.000000000000000000 ) ) ;
#371 = DIRECTION ( 'NONE',  ( 0.000000000000000000, 0.000000000000000000, -1.000000000000000000 ) ) ;
#372 = EDGE_CURVE ( 'NONE', #332, #188, #86, .T. ) ;
#373 = CARTESIAN_POINT ( 'NONE',  ( -11.84999999999999609, 22.60067577533592242, 0.000000000000000000 ) ) ;
#374 = DIRECTION ( 'NONE',  ( 0.000000000000000000, 0.000000000000000000, -1.000000000000000000 ) ) ;
#375 = FACE_OUTER_BOUND ( 'NONE', #137, .T. ) ;
#376 = EDGE_CURVE ( 'NONE', #245, #298, #291, .T. ) ;
#377 =( GEOMETRIC_REPRESENTATION_CONTEXT ( 3 ) GLOBAL_UNCERTAINTY_ASSIGNED_CONTEXT ( ( #149 ) ) GLOBAL_UNIT_ASSIGNED_CONTEXT ( ( #234, #202, #168 ) ) REPRESENTATION_CONTEXT ( 'NONE', 'WORKASPACE' ) );
#378 = APPROVAL ( #152, 'UNSPECIFIED' ) ;
#379 = CARTESIAN_POINT ( 'NONE',  ( -9.093002483669099739E-16, 28.50081544123013444, 0.000000000000000000 ) ) ;
#380 = VERTEX_POINT ( 'NONE', #221 ) ;
#381 = ORIENTED_EDGE ( 'NONE', *, *, #112, .T. ) ;
#382 = ADVANCED_FACE ( 'NONE', ( #151 ), #346, .F. ) ;
#383 = ORIENTED_EDGE ( 'NONE', *, *, #199, .F. ) ;
#384 = DIRECTION ( 'NONE',  ( 0.000000000000000000, 0.000000000000000000, -1.000000000000000000 ) ) ;
#385 = CALENDAR_DATE ( 2024, 14, 10 ) ;
#386 = EDGE_CURVE ( 'NONE', #15, #236, #36, .T. ) ;
#387 = VERTEX_POINT ( 'NONE', #379 ) ;
#388 = CALENDAR_DATE ( 2024, 14, 10 ) ;
#389 = FACE_OUTER_BOUND ( 'NONE', #156, .T. ) ;
#390 = DIRECTION ( 'NONE',  ( 0.000000000000000000, 1.000000000000000000, 0.000000000000000000 ) ) ;
#391 = LINE ( 'NONE', #284, #262 ) ;
#392 = APPLICATION_PROTOCOL_DEFINITION ( 'international standard', 'config_control_design', 1994, #190 ) ;
#393 = AXIS2_PLACEMENT_3D ( 'NONE', #100, #225, #320 ) ;
#394 = PRODUCT_DEFINITION_SHAPE ( 'NONE', 'NONE',  #192 ) ;
#395 = DIRECTION ( 'NONE',  ( -0.000000000000000000, 0.000000000000000000, 1.000000000000000000 ) ) ;
#396 = PERSON_AND_ORGANIZATION_ROLE ( 'design_supplier' ) ;
#397 = SPHERICAL_SURFACE ( 'NONE', #140, 14.85000000000000142 ) ;
#398 = FACE_OUTER_BOUND ( 'NONE', #330, .T. ) ;
#399 = ORIENTED_EDGE ( 'NONE', *, *, #26, .F. ) ;
#400 = CIRCLE ( 'NONE', #52, 11.84999999999999609 ) ;
#401 = VECTOR ( 'NONE', #161, 1000.000000000000000 ) ;
#402 = ORIENTED_EDGE ( 'NONE', *, *, #116, .T. ) ;
#403 = CARTESIAN_POINT ( 'NONE',  ( 0.000000000000000000, 22.60067577533592242, 0.000000000000000000 ) ) ;
#404 = EDGE_CURVE ( 'NONE', #81, #298, #238, .T. ) ;
#405 = VERTEX_POINT ( 'NONE', #110 ) ;
#406 = FACE_BOUND ( 'NONE', #69, .T. ) ;
#407 = CARTESIAN_POINT ( 'NONE',  ( 0.000000000000000000, 13.65081544123013302, 0.000000000000000000 ) ) ;
ENDSEC;
END-ISO-10303-21;
