ISO-10303-21;
HEADER;
/* Generated by software containing ST-Developer
 * from STEP Tools, Inc. (www.steptools.com) 
 */

FILE_DESCRIPTION(
/* description */ ('GIUNTO A SALD. SENZA ZINC. De 21,3'),
/* implementation_level */ '2;1');

FILE_NAME(
/* name */ 
'R:\\Disegni3D_Area_Manager\\Steelpres.step\\375_STEELPRES\\375102018_
Steelpres.stp',
/* time_stamp */ '2022-10-24T08:36:19+02:00',
/* author */ ('Vault'),
/* organization */ ('Raccorderie metalliche s.p.a. '),
/* preprocessor_version */ 'ST-DEVELOPER v18.1',
/* originating_system */ 'Autodesk Inventor 2020',
/* authorisation */ 'Raccorderie metalliche s.p.a. ');

FILE_SCHEMA (('AUTOMOTIVE_DESIGN { 1 0 10303 214 3 1 1 }'));
ENDSEC;

DATA;
#10=MECHANICAL_DESIGN_GEOMETRIC_PRESENTATION_REPRESENTATION('',(#13),#236);
#11=SHAPE_REPRESENTATION_RELATIONSHIP('SRR','None',#243,#12);
#12=ADVANCED_BREP_SHAPE_REPRESENTATION('',(#14),#235);
#13=STYLED_ITEM('',(#252),#14);
#14=MANIFOLD_SOLID_BREP('Solido1',#120);
#15=LINE('',#219,#18);
#16=LINE('',#225,#19);
#17=LINE('',#232,#20);
#18=VECTOR('',#182,10.65);
#19=VECTOR('',#189,9.);
#20=VECTOR('',#198,7.5);
#21=CYLINDRICAL_SURFACE('',#150,10.65);
#22=CYLINDRICAL_SURFACE('',#151,9.);
#23=CYLINDRICAL_SURFACE('',#157,7.5);
#24=FACE_BOUND('',#34,.T.);
#25=FACE_BOUND('',#36,.T.);
#26=FACE_BOUND('',#40,.T.);
#27=FACE_OUTER_BOUND('',#33,.T.);
#28=FACE_OUTER_BOUND('',#35,.T.);
#29=FACE_OUTER_BOUND('',#37,.T.);
#30=FACE_OUTER_BOUND('',#38,.T.);
#31=FACE_OUTER_BOUND('',#39,.T.);
#32=FACE_OUTER_BOUND('',#41,.T.);
#33=EDGE_LOOP('',(#81,#82));
#34=EDGE_LOOP('',(#83,#84));
#35=EDGE_LOOP('',(#85,#86));
#36=EDGE_LOOP('',(#87,#88));
#37=EDGE_LOOP('',(#89,#90,#91,#92,#93,#94));
#38=EDGE_LOOP('',(#95,#96,#97,#98,#99,#100));
#39=EDGE_LOOP('',(#101,#102));
#40=EDGE_LOOP('',(#103,#104));
#41=EDGE_LOOP('',(#105,#106,#107,#108,#109,#110));
#42=CIRCLE('',#141,10.65);
#43=CIRCLE('',#142,10.65);
#44=CIRCLE('',#143,9.);
#45=CIRCLE('',#144,9.);
#46=CIRCLE('',#146,10.65);
#47=CIRCLE('',#147,10.65);
#48=CIRCLE('',#148,7.5);
#49=CIRCLE('',#149,7.5);
#50=CIRCLE('',#152,9.);
#51=CIRCLE('',#153,9.);
#52=CIRCLE('',#155,7.5);
#53=CIRCLE('',#156,7.5);
#54=VERTEX_POINT('',#201);
#55=VERTEX_POINT('',#202);
#56=VERTEX_POINT('',#205);
#57=VERTEX_POINT('',#206);
#58=VERTEX_POINT('',#210);
#59=VERTEX_POINT('',#211);
#60=VERTEX_POINT('',#214);
#61=VERTEX_POINT('',#215);
#62=VERTEX_POINT('',#221);
#63=VERTEX_POINT('',#222);
#64=VERTEX_POINT('',#227);
#65=VERTEX_POINT('',#228);
#66=EDGE_CURVE('',#54,#55,#42,.T.);
#67=EDGE_CURVE('',#55,#54,#43,.T.);
#68=EDGE_CURVE('',#56,#57,#44,.T.);
#69=EDGE_CURVE('',#57,#56,#45,.T.);
#70=EDGE_CURVE('',#58,#59,#46,.T.);
#71=EDGE_CURVE('',#59,#58,#47,.T.);
#72=EDGE_CURVE('',#60,#61,#48,.T.);
#73=EDGE_CURVE('',#61,#60,#49,.T.);
#74=EDGE_CURVE('',#55,#59,#15,.T.);
#75=EDGE_CURVE('',#62,#63,#50,.T.);
#76=EDGE_CURVE('',#63,#62,#51,.T.);
#77=EDGE_CURVE('',#63,#57,#16,.T.);
#78=EDGE_CURVE('',#64,#65,#52,.T.);
#79=EDGE_CURVE('',#65,#64,#53,.T.);
#80=EDGE_CURVE('',#65,#61,#17,.T.);
#81=ORIENTED_EDGE('',*,*,#66,.T.);
#82=ORIENTED_EDGE('',*,*,#67,.T.);
#83=ORIENTED_EDGE('',*,*,#68,.F.);
#84=ORIENTED_EDGE('',*,*,#69,.F.);
#85=ORIENTED_EDGE('',*,*,#70,.F.);
#86=ORIENTED_EDGE('',*,*,#71,.F.);
#87=ORIENTED_EDGE('',*,*,#72,.T.);
#88=ORIENTED_EDGE('',*,*,#73,.T.);
#89=ORIENTED_EDGE('',*,*,#66,.F.);
#90=ORIENTED_EDGE('',*,*,#67,.F.);
#91=ORIENTED_EDGE('',*,*,#74,.T.);
#92=ORIENTED_EDGE('',*,*,#71,.T.);
#93=ORIENTED_EDGE('',*,*,#70,.T.);
#94=ORIENTED_EDGE('',*,*,#74,.F.);
#95=ORIENTED_EDGE('',*,*,#75,.F.);
#96=ORIENTED_EDGE('',*,*,#76,.F.);
#97=ORIENTED_EDGE('',*,*,#77,.T.);
#98=ORIENTED_EDGE('',*,*,#69,.T.);
#99=ORIENTED_EDGE('',*,*,#68,.T.);
#100=ORIENTED_EDGE('',*,*,#77,.F.);
#101=ORIENTED_EDGE('',*,*,#75,.T.);
#102=ORIENTED_EDGE('',*,*,#76,.T.);
#103=ORIENTED_EDGE('',*,*,#78,.F.);
#104=ORIENTED_EDGE('',*,*,#79,.F.);
#105=ORIENTED_EDGE('',*,*,#78,.T.);
#106=ORIENTED_EDGE('',*,*,#80,.T.);
#107=ORIENTED_EDGE('',*,*,#72,.F.);
#108=ORIENTED_EDGE('',*,*,#73,.F.);
#109=ORIENTED_EDGE('',*,*,#80,.F.);
#110=ORIENTED_EDGE('',*,*,#79,.T.);
#111=PLANE('',#140);
#112=PLANE('',#145);
#113=PLANE('',#154);
#114=ADVANCED_FACE('',(#27,#24),#111,.T.);
#115=ADVANCED_FACE('',(#28,#25),#112,.T.);
#116=ADVANCED_FACE('',(#29),#21,.T.);
#117=ADVANCED_FACE('',(#30),#22,.T.);
#118=ADVANCED_FACE('',(#31,#26),#113,.T.);
#119=ADVANCED_FACE('',(#32),#23,.F.);
#120=CLOSED_SHELL('',(#114,#115,#116,#117,#118,#119));
#121=DERIVED_UNIT_ELEMENT(#123,1.);
#122=DERIVED_UNIT_ELEMENT(#238,3.);
#123=(
MASS_UNIT()
NAMED_UNIT(*)
SI_UNIT($,.GRAM.)
);
#124=DERIVED_UNIT((#121,#122));
#125=MEASURE_REPRESENTATION_ITEM('density measure',
POSITIVE_RATIO_MEASURE(1.),#124);
#126=PROPERTY_DEFINITION_REPRESENTATION(#131,#128);
#127=PROPERTY_DEFINITION_REPRESENTATION(#132,#129);
#128=REPRESENTATION('material name',(#130),#235);
#129=REPRESENTATION('density',(#125),#235);
#130=DESCRIPTIVE_REPRESENTATION_ITEM('Generico','Generico');
#131=PROPERTY_DEFINITION('material property','material name',#245);
#132=PROPERTY_DEFINITION('material property','density of part',#245);
#133=DATE_TIME_ROLE('creation_date');
#134=APPLIED_DATE_AND_TIME_ASSIGNMENT(#135,#133,(#245));
#135=DATE_AND_TIME(#136,#137);
#136=CALENDAR_DATE(2016,9,2);
#137=LOCAL_TIME(16,8,48.,#138);
#138=COORDINATED_UNIVERSAL_TIME_OFFSET(0,0,.BEHIND.);
#139=AXIS2_PLACEMENT_3D('placement',#199,#158,#159);
#140=AXIS2_PLACEMENT_3D('',#200,#160,#161);
#141=AXIS2_PLACEMENT_3D('',#203,#162,#163);
#142=AXIS2_PLACEMENT_3D('',#204,#164,#165);
#143=AXIS2_PLACEMENT_3D('',#207,#166,#167);
#144=AXIS2_PLACEMENT_3D('',#208,#168,#169);
#145=AXIS2_PLACEMENT_3D('',#209,#170,#171);
#146=AXIS2_PLACEMENT_3D('',#212,#172,#173);
#147=AXIS2_PLACEMENT_3D('',#213,#174,#175);
#148=AXIS2_PLACEMENT_3D('',#216,#176,#177);
#149=AXIS2_PLACEMENT_3D('',#217,#178,#179);
#150=AXIS2_PLACEMENT_3D('',#218,#180,#181);
#151=AXIS2_PLACEMENT_3D('',#220,#183,#184);
#152=AXIS2_PLACEMENT_3D('',#223,#185,#186);
#153=AXIS2_PLACEMENT_3D('',#224,#187,#188);
#154=AXIS2_PLACEMENT_3D('',#226,#190,#191);
#155=AXIS2_PLACEMENT_3D('',#229,#192,#193);
#156=AXIS2_PLACEMENT_3D('',#230,#194,#195);
#157=AXIS2_PLACEMENT_3D('',#231,#196,#197);
#158=DIRECTION('axis',(0.,0.,1.));
#159=DIRECTION('refdir',(1.,0.,0.));
#160=DIRECTION('center_axis',(1.,0.,0.));
#161=DIRECTION('ref_axis',(0.,0.,-1.));
#162=DIRECTION('center_axis',(1.,0.,0.));
#163=DIRECTION('ref_axis',(0.,1.,0.));
#164=DIRECTION('center_axis',(1.,0.,0.));
#165=DIRECTION('ref_axis',(0.,1.,0.));
#166=DIRECTION('center_axis',(1.,0.,0.));
#167=DIRECTION('ref_axis',(0.,1.,0.));
#168=DIRECTION('center_axis',(1.,0.,0.));
#169=DIRECTION('ref_axis',(0.,1.,0.));
#170=DIRECTION('center_axis',(-1.,0.,0.));
#171=DIRECTION('ref_axis',(0.,0.,1.));
#172=DIRECTION('center_axis',(1.,0.,0.));
#173=DIRECTION('ref_axis',(0.,1.,0.));
#174=DIRECTION('center_axis',(1.,0.,0.));
#175=DIRECTION('ref_axis',(0.,1.,0.));
#176=DIRECTION('center_axis',(1.,0.,0.));
#177=DIRECTION('ref_axis',(0.,1.,0.));
#178=DIRECTION('center_axis',(1.,0.,0.));
#179=DIRECTION('ref_axis',(0.,1.,0.));
#180=DIRECTION('center_axis',(1.,0.,0.));
#181=DIRECTION('ref_axis',(0.,1.,0.));
#182=DIRECTION('',(-1.,0.,0.));
#183=DIRECTION('center_axis',(1.,0.,0.));
#184=DIRECTION('ref_axis',(0.,1.,0.));
#185=DIRECTION('center_axis',(1.,0.,0.));
#186=DIRECTION('ref_axis',(0.,1.,0.));
#187=DIRECTION('center_axis',(1.,0.,0.));
#188=DIRECTION('ref_axis',(0.,1.,0.));
#189=DIRECTION('',(-1.,0.,0.));
#190=DIRECTION('center_axis',(1.,0.,0.));
#191=DIRECTION('ref_axis',(0.,0.,-1.));
#192=DIRECTION('center_axis',(1.,0.,0.));
#193=DIRECTION('ref_axis',(0.,1.,0.));
#194=DIRECTION('center_axis',(1.,0.,0.));
#195=DIRECTION('ref_axis',(0.,1.,0.));
#196=DIRECTION('center_axis',(1.,0.,0.));
#197=DIRECTION('ref_axis',(0.,1.,0.));
#198=DIRECTION('',(-1.,0.,0.));
#199=CARTESIAN_POINT('',(0.,0.,0.));
#200=CARTESIAN_POINT('Origin',(90.,9.075,0.));
#201=CARTESIAN_POINT('',(90.,10.65,0.));
#202=CARTESIAN_POINT('',(90.,-10.65,-1.30424884109193E-15));
#203=CARTESIAN_POINT('Origin',(90.,0.,0.));
#204=CARTESIAN_POINT('Origin',(90.,0.,0.));
#205=CARTESIAN_POINT('',(90.,9.,0.));
#206=CARTESIAN_POINT('',(90.,-9.,-1.10218211923262E-15));
#207=CARTESIAN_POINT('Origin',(90.,0.,0.));
#208=CARTESIAN_POINT('Origin',(90.,0.,0.));
#209=CARTESIAN_POINT('Origin',(0.,9.075,0.));
#210=CARTESIAN_POINT('',(0.,10.65,0.));
#211=CARTESIAN_POINT('',(0.,-10.65,-1.30424884109193E-15));
#212=CARTESIAN_POINT('Origin',(0.,0.,0.));
#213=CARTESIAN_POINT('Origin',(0.,0.,0.));
#214=CARTESIAN_POINT('',(0.,7.5,0.));
#215=CARTESIAN_POINT('',(0.,-7.5,-9.18485099360515E-16));
#216=CARTESIAN_POINT('Origin',(0.,0.,0.));
#217=CARTESIAN_POINT('Origin',(0.,0.,0.));
#218=CARTESIAN_POINT('Origin',(45.,0.,0.));
#219=CARTESIAN_POINT('',(45.,-10.65,-1.30424884109193E-15));
#220=CARTESIAN_POINT('Origin',(105.,0.,0.));
#221=CARTESIAN_POINT('',(120.,9.,0.));
#222=CARTESIAN_POINT('',(120.,-9.,-1.10218211923262E-15));
#223=CARTESIAN_POINT('Origin',(120.,0.,0.));
#224=CARTESIAN_POINT('Origin',(120.,0.,0.));
#225=CARTESIAN_POINT('',(105.,-9.,-1.10218211923262E-15));
#226=CARTESIAN_POINT('Origin',(120.,8.25,0.));
#227=CARTESIAN_POINT('',(120.,7.5,0.));
#228=CARTESIAN_POINT('',(120.,-7.5,-9.18485099360515E-16));
#229=CARTESIAN_POINT('Origin',(120.,0.,0.));
#230=CARTESIAN_POINT('Origin',(120.,0.,0.));
#231=CARTESIAN_POINT('Origin',(60.,-1.11022302462516E-15,0.));
#232=CARTESIAN_POINT('',(60.,-7.5,-9.18485099360515E-16));
#233=UNCERTAINTY_MEASURE_WITH_UNIT(LENGTH_MEASURE(0.01),#237,
'DISTANCE_ACCURACY_VALUE',
'Maximum model space distance between geometric entities at asserted c
onnectivities');
#234=UNCERTAINTY_MEASURE_WITH_UNIT(LENGTH_MEASURE(0.01),#237,
'DISTANCE_ACCURACY_VALUE',
'Maximum model space distance between geometric entities at asserted c
onnectivities');
#235=(
GEOMETRIC_REPRESENTATION_CONTEXT(3)
GLOBAL_UNCERTAINTY_ASSIGNED_CONTEXT((#233))
GLOBAL_UNIT_ASSIGNED_CONTEXT((#237,#239,#240))
REPRESENTATION_CONTEXT('','3D')
);
#236=(
GEOMETRIC_REPRESENTATION_CONTEXT(3)
GLOBAL_UNCERTAINTY_ASSIGNED_CONTEXT((#234))
GLOBAL_UNIT_ASSIGNED_CONTEXT((#237,#239,#240))
REPRESENTATION_CONTEXT('','3D')
);
#237=(
LENGTH_UNIT()
NAMED_UNIT(*)
SI_UNIT(.MILLI.,.METRE.)
);
#238=(
LENGTH_UNIT()
NAMED_UNIT(*)
SI_UNIT(.CENTI.,.METRE.)
);
#239=(
NAMED_UNIT(*)
PLANE_ANGLE_UNIT()
SI_UNIT($,.RADIAN.)
);
#240=(
NAMED_UNIT(*)
SI_UNIT($,.STERADIAN.)
SOLID_ANGLE_UNIT()
);
#241=SHAPE_DEFINITION_REPRESENTATION(#242,#243);
#242=PRODUCT_DEFINITION_SHAPE('',$,#245);
#243=SHAPE_REPRESENTATION('',(#139),#235);
#244=PRODUCT_DEFINITION_CONTEXT('part definition',#249,'design');
#245=PRODUCT_DEFINITION('375102018_Steelpres','375102018_Steelpres',#246,
#244);
#246=PRODUCT_DEFINITION_FORMATION('0',$,#251);
#247=PRODUCT_RELATED_PRODUCT_CATEGORY('375102018_Steelpres',
'375102018_Steelpres',(#251));
#248=APPLICATION_PROTOCOL_DEFINITION('international standard',
'automotive_design',2009,#249);
#249=APPLICATION_CONTEXT(
'Core Data for Automotive Mechanical Design Process');
#250=PRODUCT_CONTEXT('part definition',#249,'mechanical');
#251=PRODUCT('375102018_Steelpres','375102018_Steelpres',
'GIUNTO A SALD. SENZA ZINC. De 21,3',(#250));
#252=PRESENTATION_STYLE_ASSIGNMENT((#253));
#253=SURFACE_STYLE_USAGE(.BOTH.,#256);
#254=SURFACE_STYLE_RENDERING_WITH_PROPERTIES($,#260,(#255));
#255=SURFACE_STYLE_TRANSPARENT(0.);
#256=SURFACE_SIDE_STYLE('',(#257,#254));
#257=SURFACE_STYLE_FILL_AREA(#258);
#258=FILL_AREA_STYLE('',(#259));
#259=FILL_AREA_STYLE_COLOUR('',#260);
#260=COLOUR_RGB('',0.886274509803922,0.917647058823529,0.894117647058824);
ENDSEC;
END-ISO-10303-21;
