ISO-10303-21;
HEADER;
FILE_DESCRIPTION (( 'STEP AP203' ),
    '1' );
FILE_NAME ('3D_R152_DN42.4_17305195.STEP',
    '2024-08-13T07:35:56',
    ( '' ),
    ( '' ),
    'SwSTEP 2.0',
    'SolidWorks 2024',
    '' );
FILE_SCHEMA (( 'CONFIG_CONTROL_DESIGN' ));
ENDSEC;

DATA;
#1 = CARTESIAN_POINT ( 'NONE',  ( 4.776122516674677878E-15, 6.000000000000000000, 39.00000000000000000 ) ) ;
#2 = PERSON_AND_ORGANIZATION_ROLE ( 'creator' ) ;
#3 = LINE ( 'NONE', #231, #153 ) ;
#4 = APPROVAL_ROLE ( '' ) ;
#5 = CARTESIAN_POINT ( 'NONE',  ( 4.776122516674677878E-15, 0.000000000000000000, 39.00000000000000000 ) ) ;
#6 = CARTESIAN_POINT ( 'NONE',  ( 0.000000000000000000, 6.000000000000000000, 0.000000000000000000 ) ) ;
#7 = AXIS2_PLACEMENT_3D ( 'NONE', #208, #38, #224 ) ;
#8 = PERSON_AND_ORGANIZATION_ROLE ( 'design_supplier' ) ;
#9 = ORIENTED_EDGE ( 'NONE', *, *, #28, .T. ) ;
#10 = ORIENTED_EDGE ( 'NONE', *, *, #174, .F. ) ;
#11 = ORIENTED_EDGE ( 'NONE', *, *, #178, .T. ) ;
#12 = ADVANCED_FACE ( 'NONE', ( #194 ), #173, .T. ) ;
#13 = ORIENTED_EDGE ( 'NONE', *, *, #200, .T. ) ;
#14 = CC_DESIGN_APPROVAL ( #240, ( #59 ) ) ;
#15 = DIRECTION ( 'NONE',  ( 0.000000000000000000, 0.000000000000000000, 1.000000000000000000 ) ) ;
#16 = CARTESIAN_POINT ( 'NONE',  ( 0.000000000000000000, 6.000000000000000000, 0.000000000000000000 ) ) ;
#17 = DIRECTION ( 'NONE',  ( 0.000000000000000000, 0.000000000000000000, 1.000000000000000000 ) ) ;
#18 = CLOSED_SHELL ( 'NONE', ( #115, #21, #128, #52, #12, #131 ) ) ;
#19 = DIRECTION ( 'NONE',  ( 0.000000000000000000, -0.000000000000000000, 1.000000000000000000 ) ) ;
#20 = CARTESIAN_POINT ( 'NONE',  ( 0.000000000000000000, 6.000000000000000000, -39.00000000000000000 ) ) ;
#21 = ADVANCED_FACE ( 'NONE', ( #191 ), #177, .T. ) ;
#22 =( NAMED_UNIT ( * ) SI_UNIT ( $, .STERADIAN. ) SOLID_ANGLE_UNIT ( ) );
#23 = DATE_AND_TIME ( #87, #24 ) ;
#24 = LOCAL_TIME ( 9, 35, 56.00000000000000000, #122 ) ;
#25 = MECHANICAL_CONTEXT ( 'NONE', #54, 'mechanical' ) ;
#26 = APPROVAL_PERSON_ORGANIZATION ( #230, #151, #4 ) ;
#27 = APPROVAL_PERSON_ORGANIZATION ( #60, #88, #213 ) ;
#28 = EDGE_CURVE ( 'NONE', #130, #219, #204, .T. ) ;
#29 = ORIENTED_EDGE ( 'NONE', *, *, #174, .T. ) ;
#30 = ORIENTED_EDGE ( 'NONE', *, *, #233, .F. ) ;
#31 = AXIS2_PLACEMENT_3D ( 'NONE', #223, #99, #40 ) ;
#32 = CALENDAR_DATE ( 2024, 13, 8 ) ;
#33 = EDGE_CURVE ( 'NONE', #219, #116, #37, .T. ) ;
#34 = ORIENTED_EDGE ( 'NONE', *, *, #166, .T. ) ;
#35 = CYLINDRICAL_SURFACE ( 'NONE', #106, 39.00000000000000000 ) ;
#36 = PRODUCT_RELATED_PRODUCT_CATEGORY ( 'detail', '', ( #145 ) ) ;
#37 = LINE ( 'NONE', #247, #201 ) ;
#38 = DIRECTION ( 'NONE',  ( 0.000000000000000000, 1.000000000000000000, 0.000000000000000000 ) ) ;
#39 = LOCAL_TIME ( 9, 35, 56.00000000000000000, #202 ) ;
#40 = DIRECTION ( 'NONE',  ( 0.000000000000000000, 0.000000000000000000, -1.000000000000000000 ) ) ;
#41 = CC_DESIGN_PERSON_AND_ORGANIZATION_ASSIGNMENT ( #126, #2, ( #125 ) ) ;
#42 =( NAMED_UNIT ( * ) PLANE_ANGLE_UNIT ( ) SI_UNIT ( $, .RADIAN. ) );
#43 = DIRECTION ( 'NONE',  ( 0.000000000000000000, 0.000000000000000000, 1.000000000000000000 ) ) ;
#44 = DIRECTION ( 'NONE',  ( 1.000000000000000000, 0.000000000000000000, 0.000000000000000000 ) ) ;
#45 = EDGE_LOOP ( 'NONE', ( #236, #69 ) ) ;
#46 = PRODUCT_DEFINITION_FORMATION_WITH_SPECIFIED_SOURCE ( 'ANY', '', #145, .NOT_KNOWN. ) ;
#47 = CC_DESIGN_PERSON_AND_ORGANIZATION_ASSIGNMENT ( #109, #161, ( #145 ) ) ;
#48 = EDGE_LOOP ( 'NONE', ( #10, #187 ) ) ;
#49 = ORIENTED_EDGE ( 'NONE', *, *, #233, .T. ) ;
#50 = DIRECTION ( 'NONE',  ( 0.000000000000000000, 1.000000000000000000, 0.000000000000000000 ) ) ;
#51 = DIRECTION ( 'NONE',  ( 0.000000000000000000, -0.000000000000000000, 1.000000000000000000 ) ) ;
#52 = ADVANCED_FACE ( 'NONE', ( #210, #206 ), #117, .F. ) ;
#53 = LOCAL_TIME ( 9, 35, 56.00000000000000000, #66 ) ;
#54 = APPLICATION_CONTEXT ( 'configuration controlled 3d designs of mechanical parts and assemblies' ) ;
#55 = ORIENTED_EDGE ( 'NONE', *, *, #160, .F. ) ;
#56 = FACE_OUTER_BOUND ( 'NONE', #111, .T. ) ;
#57 = EDGE_CURVE ( 'NONE', #243, #183, #237, .T. ) ;
#58 = CARTESIAN_POINT ( 'NONE',  ( 0.000000000000000000, 6.000000000000000000, 0.000000000000000000 ) ) ;
#59 = SECURITY_CLASSIFICATION ( '', '', #152 ) ;
#60 = PERSON_AND_ORGANIZATION ( #150, #138 ) ;
#61 = DATE_TIME_ROLE ( 'creation_date' ) ;
#62 = CC_DESIGN_APPROVAL ( #151, ( #125 ) ) ;
#63 = CARTESIAN_POINT ( 'NONE',  ( 0.000000000000000000, 6.000000000000000000, -81.90000000000000568 ) ) ;
#64 = CARTESIAN_POINT ( 'NONE',  ( 0.000000000000000000, 6.000000000000000000, 0.000000000000000000 ) ) ;
#65 = DATE_AND_TIME ( #105, #171 ) ;
#66 = COORDINATED_UNIVERSAL_TIME_OFFSET ( 1, 0, .AHEAD. ) ;
#67 = CC_DESIGN_PERSON_AND_ORGANIZATION_ASSIGNMENT ( #163, #112, ( #46 ) ) ;
#68 = UNCERTAINTY_MEASURE_WITH_UNIT (LENGTH_MEASURE( 1.000000000000000082E-05 ), #89, 'distance_accuracy_value', 'NONE');
#69 = ORIENTED_EDGE ( 'NONE', *, *, #166, .F. ) ;
#70 = AXIS2_PLACEMENT_3D ( 'NONE', #172, #83, #227 ) ;
#71 = ORIENTED_EDGE ( 'NONE', *, *, #33, .F. ) ;
#72 = PRODUCT_DEFINITION_SHAPE ( 'NONE', 'NONE',  #125 ) ;
#73 = PERSON_AND_ORGANIZATION ( #150, #138 ) ;
#74 = ORIENTED_EDGE ( 'NONE', *, *, #28, .F. ) ;
#75 = ORIENTED_EDGE ( 'NONE', *, *, #200, .F. ) ;
#76 = EDGE_LOOP ( 'NONE', ( #74, #95, #242, #71 ) ) ;
#77 = AXIS2_PLACEMENT_3D ( 'NONE', #100, #159, #119 ) ;
#78 = LOCAL_TIME ( 9, 35, 56.00000000000000000, #179 ) ;
#79 = DIRECTION ( 'NONE',  ( 0.000000000000000000, 0.000000000000000000, -1.000000000000000000 ) ) ;
#80 = CARTESIAN_POINT ( 'NONE',  ( 0.000000000000000000, 0.000000000000000000, 0.000000000000000000 ) ) ;
#81 = PLANE ( 'NONE',  #211 ) ;
#82 = AXIS2_PLACEMENT_3D ( 'NONE', #155, #50, #104 ) ;
#83 = DIRECTION ( 'NONE',  ( 0.000000000000000000, 1.000000000000000000, 0.000000000000000000 ) ) ;
#84 = FACE_OUTER_BOUND ( 'NONE', #239, .T. ) ;
#85 = CALENDAR_DATE ( 2024, 13, 8 ) ;
#86 = APPLICATION_PROTOCOL_DEFINITION ( 'international standard', 'config_control_design', 1994, #54 ) ;
#87 = CALENDAR_DATE ( 2024, 13, 8 ) ;
#88 = APPROVAL ( #140, 'UNSPECIFIED' ) ;
#89 =( LENGTH_UNIT ( ) NAMED_UNIT ( * ) SI_UNIT ( .MILLI., .METRE. ) );
#90 = AXIS2_PLACEMENT_3D ( 'NONE', #176, #118, #101 ) ;
#91 = CC_DESIGN_APPROVAL ( #88, ( #46 ) ) ;
#92 = EDGE_CURVE ( 'NONE', #183, #243, #232, .T. ) ;
#93 = APPROVAL_DATE_TIME ( #184, #240 ) ;
#94 = AXIS2_PLACEMENT_3D ( 'NONE', #157, #209, #137 ) ;
#95 = ORIENTED_EDGE ( 'NONE', *, *, #160, .T. ) ;
#96 = DATE_AND_TIME ( #129, #53 ) ;
#97 = ORIENTED_EDGE ( 'NONE', *, *, #217, .T. ) ;
#98 = CC_DESIGN_DATE_AND_TIME_ASSIGNMENT ( #96, #241, ( #59 ) ) ;
#99 = DIRECTION ( 'NONE',  ( -0.000000000000000000, -1.000000000000000000, -0.000000000000000000 ) ) ;
#100 = CARTESIAN_POINT ( 'NONE',  ( 0.000000000000000000, 6.000000000000000000, 0.000000000000000000 ) ) ;
#101 = DIRECTION ( 'NONE',  ( 0.000000000000000000, 0.000000000000000000, -1.000000000000000000 ) ) ;
#102 = AXIS2_PLACEMENT_3D ( 'NONE', #6, #139, #108 ) ;
#103 = CARTESIAN_POINT ( 'NONE',  ( 0.000000000000000000, 0.000000000000000000, 0.000000000000000000 ) ) ;
#104 = DIRECTION ( 'NONE',  ( 0.000000000000000000, 0.000000000000000000, 1.000000000000000000 ) ) ;
#105 = CALENDAR_DATE ( 2024, 13, 8 ) ;
#106 = AXIS2_PLACEMENT_3D ( 'NONE', #58, #190, #79 ) ;
#107 = APPROVAL_DATE_TIME ( #23, #88 ) ;
#108 = DIRECTION ( 'NONE',  ( 0.000000000000000000, 0.000000000000000000, 1.000000000000000000 ) ) ;
#109 = PERSON_AND_ORGANIZATION ( #150, #138 ) ;
#110 = CIRCLE ( 'NONE', #214, 81.90000000000000568 ) ;
#111 = EDGE_LOOP ( 'NONE', ( #11, #49, #114, #132 ) ) ;
#112 = PERSON_AND_ORGANIZATION_ROLE ( 'creator' ) ;
#113 = EDGE_CURVE ( 'NONE', #170, #116, #167, .T. ) ;
#114 = ORIENTED_EDGE ( 'NONE', *, *, #57, .F. ) ;
#115 = ADVANCED_FACE ( 'NONE', ( #56 ), #226, .F. ) ;
#116 = VERTEX_POINT ( 'NONE', #134 ) ;
#117 = PLANE ( 'NONE',  #221 ) ;
#118 = DIRECTION ( 'NONE',  ( -0.000000000000000000, -1.000000000000000000, -0.000000000000000000 ) ) ;
#119 = DIRECTION ( 'NONE',  ( 0.000000000000000000, 0.000000000000000000, -1.000000000000000000 ) ) ;
#120 = CIRCLE ( 'NONE', #82, 81.90000000000000568 ) ;
#121 = LINE ( 'NONE', #248, #196 ) ;
#122 = COORDINATED_UNIVERSAL_TIME_OFFSET ( 1, 0, .AHEAD. ) ;
#123 = LINE ( 'NONE', #215, #244 ) ;
#124 = DIRECTION ( 'NONE',  ( 0.000000000000000000, 1.000000000000000000, 0.000000000000000000 ) ) ;
#125 = PRODUCT_DEFINITION ( 'UNKNOWN', '', #46, #127 ) ;
#126 = PERSON_AND_ORGANIZATION ( #150, #138 ) ;
#127 = DESIGN_CONTEXT ( 'detailed design', #238, 'design' ) ;
#128 = ADVANCED_FACE ( 'NONE', ( #175, #189 ), #81, .T. ) ;
#129 = CALENDAR_DATE ( 2024, 13, 8 ) ;
#130 = VERTEX_POINT ( 'NONE', #133 ) ;
#131 = ADVANCED_FACE ( 'NONE', ( #84 ), #35, .F. ) ;
#132 = ORIENTED_EDGE ( 'NONE', *, *, #217, .F. ) ;
#133 = CARTESIAN_POINT ( 'NONE',  ( 1.002985728501682220E-14, 6.000000000000000000, 81.90000000000000568 ) ) ;
#134 = CARTESIAN_POINT ( 'NONE',  ( 0.000000000000000000, 0.000000000000000000, -81.90000000000000568 ) ) ;
#135 = DIRECTION ( 'NONE',  ( 0.000000000000000000, 1.000000000000000000, 0.000000000000000000 ) ) ;
#136 = CARTESIAN_POINT ( 'NONE',  ( 0.000000000000000000, 6.000000000000000000, 0.000000000000000000 ) ) ;
#137 = DIRECTION ( 'NONE',  ( 0.000000000000000000, 0.000000000000000000, 1.000000000000000000 ) ) ;
#138 = ORGANIZATION ( 'UNSPECIFIED', 'UNSPECIFIED', '' ) ;
#139 = DIRECTION ( 'NONE',  ( 0.000000000000000000, 1.000000000000000000, 0.000000000000000000 ) ) ;
#140 = APPROVAL_STATUS ( 'not_yet_approved' ) ;
#141 =( GEOMETRIC_REPRESENTATION_CONTEXT ( 3 ) GLOBAL_UNCERTAINTY_ASSIGNED_CONTEXT ( ( #68 ) ) GLOBAL_UNIT_ASSIGNED_CONTEXT ( ( #89, #42, #22 ) ) REPRESENTATION_CONTEXT ( 'NONE', 'WORKASPACE' ) );
#142 = CARTESIAN_POINT ( 'NONE',  ( 0.000000000000000000, 0.000000000000000000, 0.000000000000000000 ) ) ;
#143 = MANIFOLD_SOLID_BREP ( 'Aufsatz-Linear austragen1', #18 ) ;
#144 = APPROVAL_DATE_TIME ( #65, #151 ) ;
#145 = PRODUCT ( '3D_R152_DN42.4_17305195', '3D_R152_DN42.4_17305195', '', ( #25 ) ) ;
#146 = ORIENTED_EDGE ( 'NONE', *, *, #92, .T. ) ;
#147 = APPROVAL_STATUS ( 'not_yet_approved' ) ;
#148 = ORIENTED_EDGE ( 'NONE', *, *, #92, .F. ) ;
#149 = ORIENTED_EDGE ( 'NONE', *, *, #33, .T. ) ;
#150 = PERSON ( 'UNSPECIFIED', 'UNSPECIFIED', 'UNSPECIFIED', ('UNSPECIFIED'), ('UNSPECIFIED'), ('UNSPECIFIED') ) ;
#151 = APPROVAL ( #180, 'UNSPECIFIED' ) ;
#152 = SECURITY_CLASSIFICATION_LEVEL ( 'unclassified' ) ;
#153 = VECTOR ( 'NONE', #162, 1000.000000000000000 ) ;
#154 = VERTEX_POINT ( 'NONE', #1 ) ;
#155 = CARTESIAN_POINT ( 'NONE',  ( 0.000000000000000000, 0.000000000000000000, 0.000000000000000000 ) ) ;
#156 = DIRECTION ( 'NONE',  ( 0.000000000000000000, 1.000000000000000000, 0.000000000000000000 ) ) ;
#157 = CARTESIAN_POINT ( 'NONE',  ( 0.000000000000000000, 6.000000000000000000, 0.000000000000000000 ) ) ;
#158 = EDGE_LOOP ( 'NONE', ( #13, #9 ) ) ;
#159 = DIRECTION ( 'NONE',  ( -0.000000000000000000, -1.000000000000000000, -0.000000000000000000 ) ) ;
#160 = EDGE_CURVE ( 'NONE', #130, #170, #121, .T. ) ;
#161 = PERSON_AND_ORGANIZATION_ROLE ( 'design_owner' ) ;
#162 = DIRECTION ( 'NONE',  ( -0.000000000000000000, -1.000000000000000000, -0.000000000000000000 ) ) ;
#163 = PERSON_AND_ORGANIZATION ( #150, #138 ) ;
#164 = APPLICATION_PROTOCOL_DEFINITION ( 'international standard', 'config_control_design', 1994, #238 ) ;
#165 = APPROVAL_ROLE ( '' ) ;
#166 = EDGE_CURVE ( 'NONE', #154, #169, #185, .T. ) ;
#167 = CIRCLE ( 'NONE', #7, 81.90000000000000568 ) ;
#168 = SHAPE_DEFINITION_REPRESENTATION ( #72, #198 ) ;
#169 = VERTEX_POINT ( 'NONE', #20 ) ;
#170 = VERTEX_POINT ( 'NONE', #212 ) ;
#171 = LOCAL_TIME ( 9, 35, 56.00000000000000000, #234 ) ;
#172 = CARTESIAN_POINT ( 'NONE',  ( 0.000000000000000000, 0.000000000000000000, 0.000000000000000000 ) ) ;
#173 = CYLINDRICAL_SURFACE ( 'NONE', #90, 81.90000000000000568 ) ;
#174 = EDGE_CURVE ( 'NONE', #116, #170, #120, .T. ) ;
#175 = FACE_OUTER_BOUND ( 'NONE', #158, .T. ) ;
#176 = CARTESIAN_POINT ( 'NONE',  ( 0.000000000000000000, 6.000000000000000000, 0.000000000000000000 ) ) ;
#177 = CYLINDRICAL_SURFACE ( 'NONE', #31, 81.90000000000000568 ) ;
#178 = EDGE_CURVE ( 'NONE', #169, #154, #181, .T. ) ;
#179 = COORDINATED_UNIVERSAL_TIME_OFFSET ( 1, 0, .AHEAD. ) ;
#180 = APPROVAL_STATUS ( 'not_yet_approved' ) ;
#181 = CIRCLE ( 'NONE', #102, 39.00000000000000000 ) ;
#182 = CC_DESIGN_PERSON_AND_ORGANIZATION_ASSIGNMENT ( #218, #186, ( #59 ) ) ;
#183 = VERTEX_POINT ( 'NONE', #5 ) ;
#184 = DATE_AND_TIME ( #32, #39 ) ;
#185 = CIRCLE ( 'NONE', #94, 39.00000000000000000 ) ;
#186 = PERSON_AND_ORGANIZATION_ROLE ( 'classification_officer' ) ;
#187 = ORIENTED_EDGE ( 'NONE', *, *, #113, .F. ) ;
#188 = CC_DESIGN_SECURITY_CLASSIFICATION ( #59, ( #46 ) ) ;
#189 = FACE_BOUND ( 'NONE', #45, .T. ) ;
#190 = DIRECTION ( 'NONE',  ( -0.000000000000000000, -1.000000000000000000, -0.000000000000000000 ) ) ;
#191 = FACE_OUTER_BOUND ( 'NONE', #76, .T. ) ;
#192 = AXIS2_PLACEMENT_3D ( 'NONE', #136, #193, #17 ) ;
#193 = DIRECTION ( 'NONE',  ( 0.000000000000000000, 1.000000000000000000, 0.000000000000000000 ) ) ;
#194 = FACE_OUTER_BOUND ( 'NONE', #205, .T. ) ;
#195 = DIRECTION ( 'NONE',  ( 0.000000000000000000, 0.000000000000000000, 1.000000000000000000 ) ) ;
#196 = VECTOR ( 'NONE', #228, 1000.000000000000000 ) ;
#197 = APPROVAL_PERSON_ORGANIZATION ( #73, #240, #165 ) ;
#198 = ADVANCED_BREP_SHAPE_REPRESENTATION ( '3D_R152_DN42.4_17305195', ( #143, #225 ), #141 ) ;
#199 = DIRECTION ( 'NONE',  ( -0.000000000000000000, -1.000000000000000000, -0.000000000000000000 ) ) ;
#200 = EDGE_CURVE ( 'NONE', #219, #130, #110, .T. ) ;
#201 = VECTOR ( 'NONE', #249, 1000.000000000000000 ) ;
#202 = COORDINATED_UNIVERSAL_TIME_OFFSET ( 1, 0, .AHEAD. ) ;
#203 = EDGE_LOOP ( 'NONE', ( #235, #146 ) ) ;
#204 = CIRCLE ( 'NONE', #192, 81.90000000000000568 ) ;
#205 = EDGE_LOOP ( 'NONE', ( #55, #75, #149, #29 ) ) ;
#206 = FACE_BOUND ( 'NONE', #203, .T. ) ;
#207 = AXIS2_PLACEMENT_3D ( 'NONE', #103, #246, #15 ) ;
#208 = CARTESIAN_POINT ( 'NONE',  ( 0.000000000000000000, 0.000000000000000000, 0.000000000000000000 ) ) ;
#209 = DIRECTION ( 'NONE',  ( 0.000000000000000000, 1.000000000000000000, 0.000000000000000000 ) ) ;
#210 = FACE_OUTER_BOUND ( 'NONE', #48, .T. ) ;
#211 = AXIS2_PLACEMENT_3D ( 'NONE', #16, #135, #51 ) ;
#212 = CARTESIAN_POINT ( 'NONE',  ( 1.002985728501682220E-14, 0.000000000000000000, 81.90000000000000568 ) ) ;
#213 = APPROVAL_ROLE ( '' ) ;
#214 = AXIS2_PLACEMENT_3D ( 'NONE', #64, #124, #43 ) ;
#215 = CARTESIAN_POINT ( 'NONE',  ( 4.776122516674677878E-15, 6.000000000000000000, 39.00000000000000000 ) ) ;
#216 = CARTESIAN_POINT ( 'NONE',  ( 0.000000000000000000, 0.000000000000000000, -39.00000000000000000 ) ) ;
#217 = EDGE_CURVE ( 'NONE', #169, #243, #3, .T. ) ;
#218 = PERSON_AND_ORGANIZATION ( #150, #138 ) ;
#219 = VERTEX_POINT ( 'NONE', #63 ) ;
#220 = PERSON_AND_ORGANIZATION ( #150, #138 ) ;
#221 = AXIS2_PLACEMENT_3D ( 'NONE', #80, #156, #19 ) ;
#222 = CC_DESIGN_PERSON_AND_ORGANIZATION_ASSIGNMENT ( #220, #8, ( #46 ) ) ;
#223 = CARTESIAN_POINT ( 'NONE',  ( 0.000000000000000000, 6.000000000000000000, 0.000000000000000000 ) ) ;
#224 = DIRECTION ( 'NONE',  ( 0.000000000000000000, 0.000000000000000000, 1.000000000000000000 ) ) ;
#225 = AXIS2_PLACEMENT_3D ( 'NONE', #142, #195, #44 ) ;
#226 = CYLINDRICAL_SURFACE ( 'NONE', #77, 39.00000000000000000 ) ;
#227 = DIRECTION ( 'NONE',  ( 0.000000000000000000, 0.000000000000000000, 1.000000000000000000 ) ) ;
#228 = DIRECTION ( 'NONE',  ( -0.000000000000000000, -1.000000000000000000, -0.000000000000000000 ) ) ;
#229 = DATE_AND_TIME ( #85, #78 ) ;
#230 = PERSON_AND_ORGANIZATION ( #150, #138 ) ;
#231 = CARTESIAN_POINT ( 'NONE',  ( 0.000000000000000000, 6.000000000000000000, -39.00000000000000000 ) ) ;
#232 = CIRCLE ( 'NONE', #207, 39.00000000000000000 ) ;
#233 = EDGE_CURVE ( 'NONE', #154, #183, #123, .T. ) ;
#234 = COORDINATED_UNIVERSAL_TIME_OFFSET ( 1, 0, .AHEAD. ) ;
#235 = ORIENTED_EDGE ( 'NONE', *, *, #57, .T. ) ;
#236 = ORIENTED_EDGE ( 'NONE', *, *, #178, .F. ) ;
#237 = CIRCLE ( 'NONE', #70, 39.00000000000000000 ) ;
#238 = APPLICATION_CONTEXT ( 'configuration controlled 3d designs of mechanical parts and assemblies' ) ;
#239 = EDGE_LOOP ( 'NONE', ( #30, #34, #97, #148 ) ) ;
#240 = APPROVAL ( #147, 'UNSPECIFIED' ) ;
#241 = DATE_TIME_ROLE ( 'classification_date' ) ;
#242 = ORIENTED_EDGE ( 'NONE', *, *, #113, .T. ) ;
#243 = VERTEX_POINT ( 'NONE', #216 ) ;
#244 = VECTOR ( 'NONE', #199, 1000.000000000000000 ) ;
#245 = CC_DESIGN_DATE_AND_TIME_ASSIGNMENT ( #229, #61, ( #125 ) ) ;
#246 = DIRECTION ( 'NONE',  ( 0.000000000000000000, 1.000000000000000000, 0.000000000000000000 ) ) ;
#247 = CARTESIAN_POINT ( 'NONE',  ( 0.000000000000000000, 6.000000000000000000, -81.90000000000000568 ) ) ;
#248 = CARTESIAN_POINT ( 'NONE',  ( 1.002985728501682220E-14, 6.000000000000000000, 81.90000000000000568 ) ) ;
#249 = DIRECTION ( 'NONE',  ( -0.000000000000000000, -1.000000000000000000, -0.000000000000000000 ) ) ;
ENDSEC;
END-ISO-10303-21;
