ISO-10303-21;
HEADER;
FILE_DESCRIPTION (( 'STEP AP203' ),
    '1' );
FILE_NAME ('3D_R365_17.2x2_173371110.STEP',
    '2024-07-16T05:56:01',
    ( '' ),
    ( '' ),
    'SwSTEP 2.0',
    'SolidWorks 2024',
    '' );
FILE_SCHEMA (( 'CONFIG_CONTROL_DESIGN' ));
ENDSEC;

DATA;
#1 = CIRCLE ( 'NONE', #21, 6.599999999999997868 ) ;
#2 = DIRECTION ( 'NONE',  ( -0.000000000000000000, 0.000000000000000000, -1.000000000000000000 ) ) ;
#3 = DIRECTION ( 'NONE',  ( -0.000000000000000000, 0.000000000000000000, -1.000000000000000000 ) ) ;
#4 = CARTESIAN_POINT ( 'NONE',  ( 6.032610132599846519E-15, -4.760000000000000675, 0.000000000000000000 ) ) ;
#5 = CARTESIAN_POINT ( 'NONE',  ( 1.387778780781445676E-14, 2817.965330118411202, 0.000000000000000000 ) ) ;
#6 = DIRECTION ( 'NONE',  ( -1.000000000000000000, 0.000000000000000000, 0.000000000000000000 ) ) ;
#7 = COORDINATED_UNIVERSAL_TIME_OFFSET ( 1, 0, .AHEAD. ) ;
#8 = APPROVAL_STATUS ( 'not_yet_approved' ) ;
#9 = LOCAL_TIME ( 7, 56, 1.000000000000000000, #293 ) ;
#10 = CALENDAR_DATE ( 2024, 16, 7 ) ;
#11 = AXIS2_PLACEMENT_3D ( 'NONE', #286, #167, #145 ) ;
#12 =( GEOMETRIC_REPRESENTATION_CONTEXT ( 3 ) GLOBAL_UNCERTAINTY_ASSIGNED_CONTEXT ( ( #120 ) ) GLOBAL_UNIT_ASSIGNED_CONTEXT ( ( #69, #345, #170 ) ) REPRESENTATION_CONTEXT ( 'NONE', 'WORKASPACE' ) );
#13 = SECURITY_CLASSIFICATION_LEVEL ( 'unclassified' ) ;
#14 = LINE ( 'NONE', #356, #160 ) ;
#15 = CARTESIAN_POINT ( 'NONE',  ( 8.020000000000003126, 3.029223324568365960, 9.821667329161773160E-16 ) ) ;
#16 = EDGE_LOOP ( 'NONE', ( #159, #219, #250 ) ) ;
#17 = CARTESIAN_POINT ( 'NONE',  ( 1.734723475976807094E-15, 3.029223324568365960, 0.000000000000000000 ) ) ;
#18 = ORIENTED_EDGE ( 'NONE', *, *, #129, .T. ) ;
#19 = AXIS2_PLACEMENT_3D ( 'NONE', #76, #247, #73 ) ;
#20 = DIRECTION ( 'NONE',  ( -1.000000000000000000, 4.596983092540343816E-18, 0.000000000000000000 ) ) ;
#21 = AXIS2_PLACEMENT_3D ( 'NONE', #111, #36, #88 ) ;
#22 = DIRECTION ( 'NONE',  ( 4.596983092540343816E-18, 1.000000000000000000, -0.000000000000000000 ) ) ;
#23 = ORIENTED_EDGE ( 'NONE', *, *, #208, .T. ) ;
#24 = EDGE_CURVE ( 'NONE', #102, #211, #295, .T. ) ;
#25 = AXIS2_PLACEMENT_3D ( 'NONE', #17, #212, #20 ) ;
#26 = ORIENTED_EDGE ( 'NONE', *, *, #352, .F. ) ;
#27 = SHAPE_DEFINITION_REPRESENTATION ( #288, #206 ) ;
#28 = VERTEX_POINT ( 'NONE', #197 ) ;
#29 = APPROVAL ( #8, 'UNSPECIFIED' ) ;
#30 = AXIS2_PLACEMENT_3D ( 'NONE', #60, #165, #38 ) ;
#31 = CC_DESIGN_APPROVAL ( #29, ( #220 ) ) ;
#32 = PRODUCT ( '3D_R365_17.2x2_173371110', '3D_R365_17.2x2_173371110', '', ( #299 ) ) ;
#33 = DIRECTION ( 'NONE',  ( 4.596983092540343816E-18, 1.000000000000000000, -0.000000000000000000 ) ) ;
#34 = CYLINDRICAL_SURFACE ( 'NONE', #175, 6.599999999999997868 ) ;
#35 = CARTESIAN_POINT ( 'NONE',  ( -8.019999999999999574, 3.029223324568365960, 0.000000000000000000 ) ) ;
#36 = DIRECTION ( 'NONE',  ( 4.596983092540343816E-18, 1.000000000000000000, -0.000000000000000000 ) ) ;
#37 = CARTESIAN_POINT ( 'NONE',  ( 6.032610132599846519E-15, -4.760000000000000675, 0.000000000000000000 ) ) ;
#38 = DIRECTION ( 'NONE',  ( 1.000000000000000000, -4.596983092540343816E-18, 0.000000000000000000 ) ) ;
#39 = CALENDAR_DATE ( 2024, 16, 7 ) ;
#40 = EDGE_CURVE ( 'NONE', #181, #211, #227, .T. ) ;
#41 = DESIGN_CONTEXT ( 'detailed design', #196, 'design' ) ;
#42 = APPROVAL_STATUS ( 'not_yet_approved' ) ;
#43 = PERSON ( 'UNSPECIFIED', 'UNSPECIFIED', 'UNSPECIFIED', ('UNSPECIFIED'), ('UNSPECIFIED'), ('UNSPECIFIED') ) ;
#44 = CARTESIAN_POINT ( 'NONE',  ( 0.000000000000000000, 0.000000000000000000, 0.000000000000000000 ) ) ;
#45 = TOROIDAL_SURFACE ( 'NONE', #119, 8.020000000000001350, 0.5799999999999900790 ) ;
#46 = DIRECTION ( 'NONE',  ( -1.000000000000000000, 0.000000000000000000, 0.000000000000000000 ) ) ;
#47 = DIRECTION ( 'NONE',  ( 1.000000000000000000, 0.000000000000000000, 0.000000000000000000 ) ) ;
#48 = EDGE_LOOP ( 'NONE', ( #158, #18, #272 ) ) ;
#49 = LINE ( 'NONE', #103, #258 ) ;
#50 = EDGE_LOOP ( 'NONE', ( #359, #270, #274 ) ) ;
#51 = FACE_OUTER_BOUND ( 'NONE', #305, .T. ) ;
#52 = AXIS2_PLACEMENT_3D ( 'NONE', #5, #64, #201 ) ;
#53 = ORIENTED_EDGE ( 'NONE', *, *, #279, .T. ) ;
#54 = EDGE_CURVE ( 'NONE', #28, #336, #137, .T. ) ;
#55 = VERTEX_POINT ( 'NONE', #110 ) ;
#56 = LOCAL_TIME ( 7, 56, 1.000000000000000000, #7 ) ;
#57 = AXIS2_PLACEMENT_3D ( 'NONE', #139, #342, #224 ) ;
#58 = CC_DESIGN_PERSON_AND_ORGANIZATION_ASSIGNMENT ( #123, #118, ( #334 ) ) ;
#59 = AXIS2_PLACEMENT_3D ( 'NONE', #174, #169, #256 ) ;
#60 = CARTESIAN_POINT ( 'NONE',  ( 9.236488298952508525E-16, 0.000000000000000000, 0.000000000000000000 ) ) ;
#61 = DIRECTION ( 'NONE',  ( 4.596983092540339194E-18, 1.000000000000000000, -0.000000000000000000 ) ) ;
#62 = APPLICATION_CONTEXT ( 'configuration controlled 3d designs of mechanical parts and assemblies' ) ;
#63 = SPHERICAL_SURFACE ( 'NONE', #172, 11.75999999999998913 ) ;
#64 = DIRECTION ( 'NONE',  ( 4.596983092540343816E-18, 1.000000000000000000, -0.000000000000000000 ) ) ;
#65 = PERSON_AND_ORGANIZATION_ROLE ( 'classification_officer' ) ;
#66 = CARTESIAN_POINT ( 'NONE',  ( 9.394317227917752417E-16, 3.433315411173865073, 0.000000000000000000 ) ) ;
#67 = PERSON_AND_ORGANIZATION_ROLE ( 'creator' ) ;
#68 = ADVANCED_FACE ( 'NONE', ( #255 ), #63, .T. ) ;
#69 =( LENGTH_UNIT ( ) NAMED_UNIT ( * ) SI_UNIT ( .MILLI., .METRE. ) );
#70 = APPROVAL_ROLE ( '' ) ;
#71 = AXIS2_PLACEMENT_3D ( 'NONE', #290, #259, #203 ) ;
#72 = ORIENTED_EDGE ( 'NONE', *, *, #125, .T. ) ;
#73 = DIRECTION ( 'NONE',  ( -1.000000000000000000, 0.000000000000000000, 0.000000000000000000 ) ) ;
#74 = DIRECTION ( 'NONE',  ( -1.224646799147353207E-16, 5.629680630014033300E-34, 1.000000000000000000 ) ) ;
#75 = ORIENTED_EDGE ( 'NONE', *, *, #352, .T. ) ;
#76 = CARTESIAN_POINT ( 'NONE',  ( 9.394317227917752417E-16, 3.433315411173865073, 0.000000000000000000 ) ) ;
#77 = ORIENTED_EDGE ( 'NONE', *, *, #54, .T. ) ;
#78 = PLANE ( 'NONE',  #184 ) ;
#79 = TOROIDAL_SURFACE ( 'NONE', #25, 8.020000000000001350, 0.5799999999999900790 ) ;
#80 = EDGE_CURVE ( 'NONE', #102, #153, #324, .T. ) ;
#81 = EDGE_LOOP ( 'NONE', ( #23, #106, #308, #341 ) ) ;
#82 = ORIENTED_EDGE ( 'NONE', *, *, #208, .F. ) ;
#83 = EDGE_CURVE ( 'NONE', #336, #193, #280, .T. ) ;
#84 = CIRCLE ( 'NONE', #19, 8.436064400715558520 ) ;
#85 = ADVANCED_FACE ( 'NONE', ( #338 ), #166, .T. ) ;
#86 = DIRECTION ( 'NONE',  ( -1.000000000000000000, 0.000000000000000000, 0.000000000000000000 ) ) ;
#87 = CIRCLE ( 'NONE', #105, 11.75999999999998913 ) ;
#88 = DIRECTION ( 'NONE',  ( 1.000000000000000000, -4.596983092540343816E-18, 0.000000000000000000 ) ) ;
#89 = CARTESIAN_POINT ( 'NONE',  ( 8.600000000000012079, 2817.965330118411202, 1.053196247266723497E-15 ) ) ;
#90 = PERSON_AND_ORGANIZATION ( #43, #217 ) ;
#91 = CARTESIAN_POINT ( 'NONE',  ( 5.366578335869477787E-15, 6.999999999999988454, 0.000000000000000000 ) ) ;
#92 = EDGE_CURVE ( 'NONE', #333, #132, #49, .T. ) ;
#93 = CALENDAR_DATE ( 2024, 16, 7 ) ;
#94 = DIRECTION ( 'NONE',  ( -1.224646799147353207E-16, 5.629680630014033300E-34, 1.000000000000000000 ) ) ;
#95 = PERSON_AND_ORGANIZATION_ROLE ( 'creator' ) ;
#96 = DATE_AND_TIME ( #298, #56 ) ;
#97 = FACE_OUTER_BOUND ( 'NONE', #81, .T. ) ;
#98 = DIRECTION ( 'NONE',  ( 4.596983092540343816E-18, 1.000000000000000000, -0.000000000000000000 ) ) ;
#99 = AXIS2_PLACEMENT_3D ( 'NONE', #35, #2, #86 ) ;
#100 = ORIENTED_EDGE ( 'NONE', *, *, #141, .T. ) ;
#101 = DIRECTION ( 'NONE',  ( -1.000000000000000000, 4.596983092540343816E-18, 0.000000000000000000 ) ) ;
#102 = VERTEX_POINT ( 'NONE', #306 ) ;
#103 = CARTESIAN_POINT ( 'NONE',  ( -6.599999999999984546, 2817.965330118411202, 0.000000000000000000 ) ) ;
#104 = EDGE_LOOP ( 'NONE', ( #252, #134, #355, #75 ) ) ;
#105 = AXIS2_PLACEMENT_3D ( 'NONE', #292, #3, #254 ) ;
#106 = ORIENTED_EDGE ( 'NONE', *, *, #40, .T. ) ;
#107 = AXIS2_PLACEMENT_3D ( 'NONE', #310, #61, #140 ) ;
#108 = EDGE_CURVE ( 'NONE', #55, #102, #14, .T. ) ;
#109 = FACE_OUTER_BOUND ( 'NONE', #226, .T. ) ;
#110 = CARTESIAN_POINT ( 'NONE',  ( -8.599999999999996092, 3.953405459584694942E-17, 0.000000000000000000 ) ) ;
#111 = CARTESIAN_POINT ( 'NONE',  ( 9.236488298952508525E-16, 0.000000000000000000, 0.000000000000000000 ) ) ;
#112 = CLOSED_SHELL ( 'NONE', ( #343, #294, #68, #192, #177, #148, #144, #205, #85, #315, #282 ) ) ;
#113 = DIRECTION ( 'NONE',  ( 0.000000000000000000, 0.000000000000000000, 1.000000000000000000 ) ) ;
#114 = CC_DESIGN_PERSON_AND_ORGANIZATION_ASSIGNMENT ( #115, #67, ( #334 ) ) ;
#115 = PERSON_AND_ORGANIZATION ( #43, #217 ) ;
#116 = DIRECTION ( 'NONE',  ( 4.596983092540343816E-18, 1.000000000000000000, -0.000000000000000000 ) ) ;
#117 = CC_DESIGN_APPROVAL ( #266, ( #233 ) ) ;
#118 = PERSON_AND_ORGANIZATION_ROLE ( 'design_supplier' ) ;
#119 = AXIS2_PLACEMENT_3D ( 'NONE', #209, #271, #101 ) ;
#120 = UNCERTAINTY_MEASURE_WITH_UNIT (LENGTH_MEASURE( 1.000000000000000082E-05 ), #69, 'distance_accuracy_value', 'NONE');
#121 = DATE_TIME_ROLE ( 'creation_date' ) ;
#122 = AXIS2_PLACEMENT_3D ( 'NONE', #44, #113, #232 ) ;
#123 = PERSON_AND_ORGANIZATION ( #43, #217 ) ;
#124 = DIRECTION ( 'NONE',  ( 4.596983092540343816E-18, 1.000000000000000000, -0.000000000000000000 ) ) ;
#125 = EDGE_CURVE ( 'NONE', #211, #127, #309, .T. ) ;
#126 = CARTESIAN_POINT ( 'NONE',  ( -8.436064400715556744, 3.433315411173865073, 0.000000000000000000 ) ) ;
#127 = VERTEX_POINT ( 'NONE', #207 ) ;
#128 = FACE_OUTER_BOUND ( 'NONE', #246, .T. ) ;
#129 = EDGE_CURVE ( 'NONE', #127, #153, #84, .T. ) ;
#130 = ORIENTED_EDGE ( 'NONE', *, *, #275, .T. ) ;
#131 = CARTESIAN_POINT ( 'NONE',  ( 9.236488298952508525E-16, 0.000000000000000000, 0.000000000000000000 ) ) ;
#132 = VERTEX_POINT ( 'NONE', #268 ) ;
#133 = AXIS2_PLACEMENT_3D ( 'NONE', #131, #302, #242 ) ;
#134 = ORIENTED_EDGE ( 'NONE', *, *, #322, .F. ) ;
#135 = CC_DESIGN_SECURITY_CLASSIFICATION ( #233, ( #334 ) ) ;
#136 = APPROVAL_PERSON_ORGANIZATION ( #149, #29, #70 ) ;
#137 = LINE ( 'NONE', #312, #243 ) ;
#138 = CARTESIAN_POINT ( 'NONE',  ( 1.387778780781445676E-14, 2817.965330118411202, 0.000000000000000000 ) ) ;
#139 = CARTESIAN_POINT ( 'NONE',  ( 6.032610132599846519E-15, -4.760000000000000675, 0.000000000000000000 ) ) ;
#140 = DIRECTION ( 'NONE',  ( 1.000000000000000000, 0.000000000000000000, 0.000000000000000000 ) ) ;
#141 = EDGE_CURVE ( 'NONE', #336, #132, #222, .T. ) ;
#142 = DIRECTION ( 'NONE',  ( -0.000000000000000000, 0.000000000000000000, -1.000000000000000000 ) ) ;
#143 = VECTOR ( 'NONE', #314, 1000.000000000000000 ) ;
#144 = ADVANCED_FACE ( 'NONE', ( #128 ), #156, .T. ) ;
#145 = DIRECTION ( 'NONE',  ( -1.000000000000000000, 0.000000000000000000, 0.000000000000000000 ) ) ;
#146 = APPROVAL_ROLE ( '' ) ;
#147 = CALENDAR_DATE ( 2024, 16, 7 ) ;
#148 = ADVANCED_FACE ( 'NONE', ( #301, #328 ), #78, .T. ) ;
#149 = PERSON_AND_ORGANIZATION ( #43, #217 ) ;
#150 = CARTESIAN_POINT ( 'NONE',  ( 1.387778780781445676E-14, 2817.965330118411202, 0.000000000000000000 ) ) ;
#151 = DIRECTION ( 'NONE',  ( 1.000000000000000000, -4.596983092540343816E-18, 0.000000000000000000 ) ) ;
#152 = CC_DESIGN_PERSON_AND_ORGANIZATION_ASSIGNMENT ( #264, #95, ( #220 ) ) ;
#153 = VERTEX_POINT ( 'NONE', #126 ) ;
#154 = DIRECTION ( 'NONE',  ( -1.000000000000000000, 0.000000000000000000, 0.000000000000000000 ) ) ;
#155 = ORIENTED_EDGE ( 'NONE', *, *, #83, .F. ) ;
#156 = CYLINDRICAL_SURFACE ( 'NONE', #358, 8.599999999999997868 ) ;
#157 = AXIS2_PLACEMENT_3D ( 'NONE', #198, #142, #6 ) ;
#158 = ORIENTED_EDGE ( 'NONE', *, *, #218, .F. ) ;
#159 = ORIENTED_EDGE ( 'NONE', *, *, #141, .F. ) ;
#160 = VECTOR ( 'NONE', #239, 1000.000000000000000 ) ;
#161 = ORIENTED_EDGE ( 'NONE', *, *, #80, .F. ) ;
#162 = ORIENTED_EDGE ( 'NONE', *, *, #279, .F. ) ;
#163 = LOCAL_TIME ( 7, 56, 1.000000000000000000, #263 ) ;
#164 = CIRCLE ( 'NONE', #11, 8.599999999999997868 ) ;
#165 = DIRECTION ( 'NONE',  ( 4.596983092540343816E-18, 1.000000000000000000, -0.000000000000000000 ) ) ;
#166 = SPHERICAL_SURFACE ( 'NONE', #210, 11.75999999999998913 ) ;
#167 = DIRECTION ( 'NONE',  ( 4.596983092540343816E-18, 1.000000000000000000, -0.000000000000000000 ) ) ;
#168 = DIRECTION ( 'NONE',  ( 0.000000000000000000, 0.000000000000000000, 1.000000000000000000 ) ) ;
#169 = DIRECTION ( 'NONE',  ( 0.000000000000000000, 0.000000000000000000, 1.000000000000000000 ) ) ;
#170 =( NAMED_UNIT ( * ) SI_UNIT ( $, .STERADIAN. ) SOLID_ANGLE_UNIT ( ) );
#171 = DIRECTION ( 'NONE',  ( 4.596983092540343816E-18, 1.000000000000000000, -0.000000000000000000 ) ) ;
#172 = AXIS2_PLACEMENT_3D ( 'NONE', #37, #168, #291 ) ;
#173 = PERSON_AND_ORGANIZATION ( #43, #217 ) ;
#174 = CARTESIAN_POINT ( 'NONE',  ( 6.032610132599846519E-15, -4.760000000000000675, 0.000000000000000000 ) ) ;
#175 = AXIS2_PLACEMENT_3D ( 'NONE', #138, #116, #234 ) ;
#176 = PERSON_AND_ORGANIZATION ( #43, #217 ) ;
#177 = ADVANCED_FACE ( 'NONE', ( #97 ), #276, .T. ) ;
#178 = DIRECTION ( 'NONE',  ( 4.596983092540339194E-18, 1.000000000000000000, -0.000000000000000000 ) ) ;
#179 = APPROVAL ( #346, 'UNSPECIFIED' ) ;
#180 = MANIFOLD_SOLID_BREP ( 'Wandung1', #112 ) ;
#181 = VERTEX_POINT ( 'NONE', #269 ) ;
#182 = DIRECTION ( 'NONE',  ( -4.596983092540343816E-18, -1.000000000000000000, 0.000000000000000000 ) ) ;
#183 = ORIENTED_EDGE ( 'NONE', *, *, #92, .F. ) ;
#184 = AXIS2_PLACEMENT_3D ( 'NONE', #350, #182, #151 ) ;
#185 = FACE_OUTER_BOUND ( 'NONE', #335, .T. ) ;
#186 = CC_DESIGN_DATE_AND_TIME_ASSIGNMENT ( #260, #202, ( #233 ) ) ;
#187 = APPROVAL_PERSON_ORGANIZATION ( #176, #179, #267 ) ;
#188 = ORIENTED_EDGE ( 'NONE', *, *, #190, .T. ) ;
#189 = CARTESIAN_POINT ( 'NONE',  ( 9.375741183018205254E-16, 3.029223324568341980, 0.000000000000000000 ) ) ;
#190 = EDGE_CURVE ( 'NONE', #181, #55, #284, .T. ) ;
#191 = AXIS2_PLACEMENT_3D ( 'NONE', #15, #74, #351 ) ;
#192 = ADVANCED_FACE ( 'NONE', ( #185 ), #45, .T. ) ;
#193 = VERTEX_POINT ( 'NONE', #325 ) ;
#194 = PRODUCT_RELATED_PRODUCT_CATEGORY ( 'detail', '', ( #32 ) ) ;
#195 = AXIS2_PLACEMENT_3D ( 'NONE', #240, #98, #273 ) ;
#196 = APPLICATION_CONTEXT ( 'configuration controlled 3d designs of mechanical parts and assemblies' ) ;
#197 = CARTESIAN_POINT ( 'NONE',  ( 6.599999999999998757, -3.034008841076626179E-17, 8.082668874372529047E-16 ) ) ;
#198 = CARTESIAN_POINT ( 'NONE',  ( 6.032610132599846519E-15, -4.760000000000000675, 0.000000000000000000 ) ) ;
#199 = DIRECTION ( 'NONE',  ( 4.596983092540343816E-18, 1.000000000000000000, -0.000000000000000000 ) ) ;
#200 = PERSON_AND_ORGANIZATION_ROLE ( 'design_owner' ) ;
#201 = DIRECTION ( 'NONE',  ( -1.000000000000000000, 0.000000000000000000, 0.000000000000000000 ) ) ;
#202 = DATE_TIME_ROLE ( 'classification_date' ) ;
#203 = DIRECTION ( 'NONE',  ( -1.000000000000000000, 0.000000000000000000, 0.000000000000000000 ) ) ;
#204 = APPLICATION_PROTOCOL_DEFINITION ( 'international standard', 'config_control_design', 1994, #62 ) ;
#205 = ADVANCED_FACE ( 'NONE', ( #51 ), #79, .T. ) ;
#206 = ADVANCED_BREP_SHAPE_REPRESENTATION ( '3D_R365_17.2x2_173371110', ( #180, #122 ), #12 ) ;
#207 = CARTESIAN_POINT ( 'NONE',  ( 8.436064400715560296, 3.433315411173865073, 1.043158086920223447E-15 ) ) ;
#208 = EDGE_CURVE ( 'NONE', #55, #181, #216, .T. ) ;
#209 = CARTESIAN_POINT ( 'NONE',  ( 1.734723475976807094E-15, 3.029223324568365960, 0.000000000000000000 ) ) ;
#210 = AXIS2_PLACEMENT_3D ( 'NONE', #289, #245, #323 ) ;
#211 = VERTEX_POINT ( 'NONE', #214 ) ;
#212 = DIRECTION ( 'NONE',  ( 4.596983092540343816E-18, 1.000000000000000000, -0.000000000000000000 ) ) ;
#213 = ORIENTED_EDGE ( 'NONE', *, *, #129, .F. ) ;
#214 = CARTESIAN_POINT ( 'NONE',  ( 8.599999999999999645, 3.029223324568341980, 1.053196247266723497E-15 ) ) ;
#215 = EDGE_LOOP ( 'NONE', ( #353, #77, #100, #183 ) ) ;
#216 = CIRCLE ( 'NONE', #133, 8.599999999999997868 ) ;
#217 = ORGANIZATION ( 'UNSPECIFIED', 'UNSPECIFIED', '' ) ;
#218 = EDGE_CURVE ( 'NONE', #127, #357, #340, .T. ) ;
#219 = ORIENTED_EDGE ( 'NONE', *, *, #83, .T. ) ;
#220 = PRODUCT_DEFINITION ( 'UNKNOWN', '', #334, #41 ) ;
#221 = ORIENTED_EDGE ( 'NONE', *, *, #322, .T. ) ;
#222 = CIRCLE ( 'NONE', #257, 6.599999999999997868 ) ;
#223 = CIRCLE ( 'NONE', #157, 9.759999999999989129 ) ;
#224 = DIRECTION ( 'NONE',  ( 1.000000000000000000, 0.000000000000000000, 1.224646799147352961E-16 ) ) ;
#225 = FACE_OUTER_BOUND ( 'NONE', #215, .T. ) ;
#226 = EDGE_LOOP ( 'NONE', ( #155, #26, #249 ) ) ;
#227 = LINE ( 'NONE', #89, #143 ) ;
#228 = AXIS2_PLACEMENT_3D ( 'NONE', #189, #199, #253 ) ;
#229 = DIRECTION ( 'NONE',  ( -1.000000000000000000, 0.000000000000000000, 0.000000000000000000 ) ) ;
#230 = APPLICATION_PROTOCOL_DEFINITION ( 'international standard', 'config_control_design', 1994, #196 ) ;
#231 = FACE_OUTER_BOUND ( 'NONE', #104, .T. ) ;
#232 = DIRECTION ( 'NONE',  ( 1.000000000000000000, 0.000000000000000000, 0.000000000000000000 ) ) ;
#233 = SECURITY_CLASSIFICATION ( '', '', #13 ) ;
#234 = DIRECTION ( 'NONE',  ( -1.000000000000000000, 0.000000000000000000, 0.000000000000000000 ) ) ;
#235 = DATE_AND_TIME ( #147, #285 ) ;
#236 = AXIS2_PLACEMENT_3D ( 'NONE', #150, #22, #46 ) ;
#237 = DATE_AND_TIME ( #10, #163 ) ;
#238 = DATE_AND_TIME ( #93, #348 ) ;
#239 = DIRECTION ( 'NONE',  ( 4.596983092540343816E-18, 1.000000000000000000, -0.000000000000000000 ) ) ;
#240 = CARTESIAN_POINT ( 'NONE',  ( 9.236488298952508525E-16, 0.000000000000000000, 0.000000000000000000 ) ) ;
#241 = EDGE_LOOP ( 'NONE', ( #82, #326 ) ) ;
#242 = DIRECTION ( 'NONE',  ( -1.000000000000000000, 4.596983092540343816E-18, 0.000000000000000000 ) ) ;
#243 = VECTOR ( 'NONE', #33, 1000.000000000000000 ) ;
#244 = ORIENTED_EDGE ( 'NONE', *, *, #287, .F. ) ;
#245 = DIRECTION ( 'NONE',  ( 0.000000000000000000, 0.000000000000000000, 1.000000000000000000 ) ) ;
#246 = EDGE_LOOP ( 'NONE', ( #277, #188, #278, #162 ) ) ;
#247 = DIRECTION ( 'NONE',  ( 4.596983092540343816E-18, 1.000000000000000000, -0.000000000000000000 ) ) ;
#248 = CC_DESIGN_PERSON_AND_ORGANIZATION_ASSIGNMENT ( #173, #65, ( #233 ) ) ;
#249 = ORIENTED_EDGE ( 'NONE', *, *, #337, .T. ) ;
#250 = ORIENTED_EDGE ( 'NONE', *, *, #337, .F. ) ;
#251 = CC_DESIGN_PERSON_AND_ORGANIZATION_ASSIGNMENT ( #90, #200, ( #32 ) ) ;
#252 = ORIENTED_EDGE ( 'NONE', *, *, #54, .F. ) ;
#253 = DIRECTION ( 'NONE',  ( -1.000000000000000000, 0.000000000000000000, 0.000000000000000000 ) ) ;
#254 = DIRECTION ( 'NONE',  ( -1.000000000000000000, 0.000000000000000000, 0.000000000000000000 ) ) ;
#255 = FACE_OUTER_BOUND ( 'NONE', #50, .T. ) ;
#256 = DIRECTION ( 'NONE',  ( -1.000000000000000000, 0.000000000000000000, 0.000000000000000000 ) ) ;
#257 = AXIS2_PLACEMENT_3D ( 'NONE', #331, #178, #47 ) ;
#258 = VECTOR ( 'NONE', #304, 1000.000000000000000 ) ;
#259 = DIRECTION ( 'NONE',  ( 0.000000000000000000, 0.000000000000000000, 1.000000000000000000 ) ) ;
#260 = DATE_AND_TIME ( #39, #9 ) ;
#261 = EDGE_CURVE ( 'NONE', #153, #357, #87, .T. ) ;
#262 = SPHERICAL_SURFACE ( 'NONE', #59, 9.759999999999989129 ) ;
#263 = COORDINATED_UNIVERSAL_TIME_OFFSET ( 1, 0, .AHEAD. ) ;
#264 = PERSON_AND_ORGANIZATION ( #43, #217 ) ;
#265 = CIRCLE ( 'NONE', #311, 8.436064400715558520 ) ;
#266 = APPROVAL ( #42, 'UNSPECIFIED' ) ;
#267 = APPROVAL_ROLE ( '' ) ;
#268 = CARTESIAN_POINT ( 'NONE',  ( -6.599999999999996980, 2.430104310787041921, 0.000000000000000000 ) ) ;
#269 = CARTESIAN_POINT ( 'NONE',  ( 8.599999999999999645, -3.953405459584694942E-17, 1.053196247266723497E-15 ) ) ;
#270 = ORIENTED_EDGE ( 'NONE', *, *, #218, .T. ) ;
#271 = DIRECTION ( 'NONE',  ( 4.596983092540343816E-18, 1.000000000000000000, -0.000000000000000000 ) ) ;
#272 = ORIENTED_EDGE ( 'NONE', *, *, #261, .T. ) ;
#273 = DIRECTION ( 'NONE',  ( -1.000000000000000000, 4.596983092540343816E-18, 0.000000000000000000 ) ) ;
#274 = ORIENTED_EDGE ( 'NONE', *, *, #261, .F. ) ;
#275 = EDGE_CURVE ( 'NONE', #28, #333, #332, .T. ) ;
#276 = CYLINDRICAL_SURFACE ( 'NONE', #236, 8.599999999999997868 ) ;
#277 = ORIENTED_EDGE ( 'NONE', *, *, #40, .F. ) ;
#278 = ORIENTED_EDGE ( 'NONE', *, *, #108, .T. ) ;
#279 = EDGE_CURVE ( 'NONE', #211, #102, #164, .T. ) ;
#280 = CIRCLE ( 'NONE', #57, 9.759999999999989129 ) ;
#281 = ORIENTED_EDGE ( 'NONE', *, *, #24, .T. ) ;
#282 = ADVANCED_FACE ( 'NONE', ( #109 ), #262, .F. ) ;
#283 = CC_DESIGN_APPROVAL ( #179, ( #334 ) ) ;
#284 = CIRCLE ( 'NONE', #195, 8.599999999999997868 ) ;
#285 = LOCAL_TIME ( 7, 56, 1.000000000000000000, #321 ) ;
#286 = CARTESIAN_POINT ( 'NONE',  ( 9.375741183018205254E-16, 3.029223324568341980, 0.000000000000000000 ) ) ;
#287 = EDGE_CURVE ( 'NONE', #153, #127, #265, .T. ) ;
#288 = PRODUCT_DEFINITION_SHAPE ( 'NONE', 'NONE',  #220 ) ;
#289 = CARTESIAN_POINT ( 'NONE',  ( 6.032610132599846519E-15, -4.760000000000000675, 0.000000000000000000 ) ) ;
#290 = CARTESIAN_POINT ( 'NONE',  ( 6.032610132599846519E-15, -4.760000000000000675, 0.000000000000000000 ) ) ;
#291 = DIRECTION ( 'NONE',  ( -1.000000000000000000, 0.000000000000000000, 0.000000000000000000 ) ) ;
#292 = CARTESIAN_POINT ( 'NONE',  ( 6.032610132599846519E-15, -4.760000000000000675, 0.000000000000000000 ) ) ;
#293 = COORDINATED_UNIVERSAL_TIME_OFFSET ( 1, 0, .AHEAD. ) ;
#294 = ADVANCED_FACE ( 'NONE', ( #225 ), #34, .F. ) ;
#295 = CIRCLE ( 'NONE', #228, 8.599999999999997868 ) ;
#296 = PERSON_AND_ORGANIZATION ( #43, #217 ) ;
#297 = SPHERICAL_SURFACE ( 'NONE', #71, 9.759999999999989129 ) ;
#298 = CALENDAR_DATE ( 2024, 16, 7 ) ;
#299 = MECHANICAL_CONTEXT ( 'NONE', #62, 'mechanical' ) ;
#300 = AXIS2_PLACEMENT_3D ( 'NONE', #4, #94, #318 ) ;
#301 = FACE_BOUND ( 'NONE', #307, .T. ) ;
#302 = DIRECTION ( 'NONE',  ( 4.596983092540343816E-18, 1.000000000000000000, -0.000000000000000000 ) ) ;
#303 = ORIENTED_EDGE ( 'NONE', *, *, #80, .T. ) ;
#304 = DIRECTION ( 'NONE',  ( 4.596983092540343816E-18, 1.000000000000000000, -0.000000000000000000 ) ) ;
#305 = EDGE_LOOP ( 'NONE', ( #329, #53, #303, #213 ) ) ;
#306 = CARTESIAN_POINT ( 'NONE',  ( -8.599999999999996092, 3.029223324568341980, 0.000000000000000000 ) ) ;
#307 = EDGE_LOOP ( 'NONE', ( #221, #130 ) ) ;
#308 = ORIENTED_EDGE ( 'NONE', *, *, #24, .F. ) ;
#309 = CIRCLE ( 'NONE', #191, 0.5799999999999903011 ) ;
#310 = CARTESIAN_POINT ( 'NONE',  ( 9.348199783250489889E-16, 2.430104310787041921, 0.000000000000000000 ) ) ;
#311 = AXIS2_PLACEMENT_3D ( 'NONE', #66, #171, #229 ) ;
#312 = CARTESIAN_POINT ( 'NONE',  ( 6.600000000000012079, 2817.965330118411202, 8.082668874372529047E-16 ) ) ;
#313 = CYLINDRICAL_SURFACE ( 'NONE', #52, 6.599999999999997868 ) ;
#314 = DIRECTION ( 'NONE',  ( 4.596983092540343816E-18, 1.000000000000000000, -0.000000000000000000 ) ) ;
#315 = ADVANCED_FACE ( 'NONE', ( #231 ), #313, .F. ) ;
#316 = APPROVAL_DATE_TIME ( #96, #179 ) ;
#317 = APPROVAL_DATE_TIME ( #235, #29 ) ;
#318 = DIRECTION ( 'NONE',  ( 1.000000000000000000, 0.000000000000000000, 1.224646799147353207E-16 ) ) ;
#319 = COORDINATED_UNIVERSAL_TIME_OFFSET ( 1, 0, .AHEAD. ) ;
#320 = CIRCLE ( 'NONE', #107, 6.599999999999997868 ) ;
#321 = COORDINATED_UNIVERSAL_TIME_OFFSET ( 1, 0, .AHEAD. ) ;
#322 = EDGE_CURVE ( 'NONE', #333, #28, #1, .T. ) ;
#323 = DIRECTION ( 'NONE',  ( -1.000000000000000000, 0.000000000000000000, 0.000000000000000000 ) ) ;
#324 = CIRCLE ( 'NONE', #99, 0.5799999999999903011 ) ;
#325 = CARTESIAN_POINT ( 'NONE',  ( 5.479849049599132704E-15, 4.999999999999988454, 0.000000000000000000 ) ) ;
#326 = ORIENTED_EDGE ( 'NONE', *, *, #190, .F. ) ;
#327 = CC_DESIGN_DATE_AND_TIME_ASSIGNMENT ( #238, #121, ( #220 ) ) ;
#328 = FACE_OUTER_BOUND ( 'NONE', #241, .T. ) ;
#329 = ORIENTED_EDGE ( 'NONE', *, *, #125, .F. ) ;
#330 = APPROVAL_PERSON_ORGANIZATION ( #296, #266, #146 ) ;
#331 = CARTESIAN_POINT ( 'NONE',  ( 9.348199783250489889E-16, 2.430104310787041921, 0.000000000000000000 ) ) ;
#332 = CIRCLE ( 'NONE', #30, 6.599999999999997868 ) ;
#333 = VERTEX_POINT ( 'NONE', #347 ) ;
#334 = PRODUCT_DEFINITION_FORMATION_WITH_SPECIFIED_SOURCE ( 'ANY', '', #32, .NOT_KNOWN. ) ;
#335 = EDGE_LOOP ( 'NONE', ( #281, #72, #244, #161 ) ) ;
#336 = VERTEX_POINT ( 'NONE', #339 ) ;
#337 = EDGE_CURVE ( 'NONE', #132, #193, #223, .T. ) ;
#338 = FACE_OUTER_BOUND ( 'NONE', #48, .T. ) ;
#339 = CARTESIAN_POINT ( 'NONE',  ( 6.599999999999998757, 2.430104310787041921, 8.082668874372529047E-16 ) ) ;
#340 = CIRCLE ( 'NONE', #300, 11.75999999999998913 ) ;
#341 = ORIENTED_EDGE ( 'NONE', *, *, #108, .F. ) ;
#342 = DIRECTION ( 'NONE',  ( -1.224646799147353207E-16, 5.629680630014033300E-34, 1.000000000000000000 ) ) ;
#343 = ADVANCED_FACE ( 'NONE', ( #344 ), #297, .F. ) ;
#344 = FACE_OUTER_BOUND ( 'NONE', #16, .T. ) ;
#345 =( NAMED_UNIT ( * ) PLANE_ANGLE_UNIT ( ) SI_UNIT ( $, .RADIAN. ) );
#346 = APPROVAL_STATUS ( 'not_yet_approved' ) ;
#347 = CARTESIAN_POINT ( 'NONE',  ( -6.599999999999996980, 3.034008841076626179E-17, 0.000000000000000000 ) ) ;
#348 = LOCAL_TIME ( 7, 56, 1.000000000000000000, #319 ) ;
#349 = APPROVAL_DATE_TIME ( #237, #266 ) ;
#350 = CARTESIAN_POINT ( 'NONE',  ( -9.086869027833763655E-35, -1.976702729792347163E-17, 0.000000000000000000 ) ) ;
#351 = DIRECTION ( 'NONE',  ( 1.000000000000000000, 0.000000000000000000, 1.224646799147353700E-16 ) ) ;
#352 = EDGE_CURVE ( 'NONE', #132, #336, #320, .T. ) ;
#353 = ORIENTED_EDGE ( 'NONE', *, *, #275, .F. ) ;
#354 = CARTESIAN_POINT ( 'NONE',  ( 1.387778780781445676E-14, 2817.965330118411202, 0.000000000000000000 ) ) ;
#355 = ORIENTED_EDGE ( 'NONE', *, *, #92, .T. ) ;
#356 = CARTESIAN_POINT ( 'NONE',  ( -8.599999999999983658, 2817.965330118411202, 0.000000000000000000 ) ) ;
#357 = VERTEX_POINT ( 'NONE', #91 ) ;
#358 = AXIS2_PLACEMENT_3D ( 'NONE', #354, #124, #154 ) ;
#359 = ORIENTED_EDGE ( 'NONE', *, *, #287, .T. ) ;
ENDSEC;
END-ISO-10303-21;
