ISO-10303-21;
HEADER;
FILE_DESCRIPTION (( 'STEP AP203' ),
    '1' );
FILE_NAME ('3D_R245_114.3_17386160.STEP',
    '2024-08-06T09:34:50',
    ( '' ),
    ( '' ),
    'SwSTEP 2.0',
    'SolidWorks 2024',
    '' );
FILE_SCHEMA (( 'CONFIG_CONTROL_DESIGN' ));
ENDSEC;

DATA;
#1 = ADVANCED_FACE ( 'NONE', ( #171, #94 ), #78, .F. ) ;
#2 = ORIENTED_EDGE ( 'NONE', *, *, #101, .F. ) ;
#3 = AXIS2_PLACEMENT_3D ( 'NONE', #215, #116, #130 ) ;
#4 = CARTESIAN_POINT ( 'NONE',  ( 1.319556926081273272E-14, 0.000000000000000000, 107.7500000000000142 ) ) ;
#5 = DIRECTION ( 'NONE',  ( 0.000000000000000000, 0.000000000000000000, 1.000000000000000000 ) ) ;
#6 = EDGE_CURVE ( 'NONE', #147, #56, #233, .T. ) ;
#7 = LINE ( 'NONE', #63, #172 ) ;
#8 = CARTESIAN_POINT ( 'NONE',  ( 0.000000000000000000, 4.000000000000000000, -57.75000000000000000 ) ) ;
#9 = UNCERTAINTY_MEASURE_WITH_UNIT (LENGTH_MEASURE( 1.000000000000000082E-05 ), #177, 'distance_accuracy_value', 'NONE');
#10 = DIRECTION ( 'NONE',  ( 0.000000000000000000, 1.000000000000000000, 0.000000000000000000 ) ) ;
#11 = LOCAL_TIME ( 11, 34, 50.00000000000000000, #204 ) ;
#12 = APPROVAL_STATUS ( 'not_yet_approved' ) ;
#13 = APPROVAL_ROLE ( '' ) ;
#14 = EDGE_CURVE ( 'NONE', #147, #121, #115, .T. ) ;
#15 = ORIENTED_EDGE ( 'NONE', *, *, #6, .F. ) ;
#16 = LOCAL_TIME ( 11, 34, 50.00000000000000000, #86 ) ;
#17 = VERTEX_POINT ( 'NONE', #127 ) ;
#18 = DIRECTION ( 'NONE',  ( -0.000000000000000000, -1.000000000000000000, -0.000000000000000000 ) ) ;
#19 = ORIENTED_EDGE ( 'NONE', *, *, #186, .T. ) ;
#20 = FACE_OUTER_BOUND ( 'NONE', #230, .T. ) ;
#21 = AXIS2_PLACEMENT_3D ( 'NONE', #196, #25, #218 ) ;
#22 = CLOSED_SHELL ( 'NONE', ( #232, #157, #206, #1, #24, #137 ) ) ;
#23 = DIRECTION ( 'NONE',  ( 0.000000000000000000, 0.000000000000000000, -1.000000000000000000 ) ) ;
#24 = ADVANCED_FACE ( 'NONE', ( #20 ), #111, .T. ) ;
#25 = DIRECTION ( 'NONE',  ( -0.000000000000000000, -1.000000000000000000, -0.000000000000000000 ) ) ;
#26 = CARTESIAN_POINT ( 'NONE',  ( 1.319556926081273272E-14, 4.000000000000000000, 107.7500000000000142 ) ) ;
#27 = DATE_AND_TIME ( #32, #142 ) ;
#28 = AXIS2_PLACEMENT_3D ( 'NONE', #81, #45, #197 ) ;
#29 = AXIS2_PLACEMENT_3D ( 'NONE', #211, #248, #249 ) ;
#30 = APPROVAL_STATUS ( 'not_yet_approved' ) ;
#31 = APPROVAL_DATE_TIME ( #49, #70 ) ;
#32 = CALENDAR_DATE ( 2024, 6, 8 ) ;
#33 = AXIS2_PLACEMENT_3D ( 'NONE', #48, #158, #201 ) ;
#34 = EDGE_CURVE ( 'NONE', #17, #124, #53, .T. ) ;
#35 = ORIENTED_EDGE ( 'NONE', *, *, #46, .T. ) ;
#36 = ORIENTED_EDGE ( 'NONE', *, *, #34, .F. ) ;
#37 = CARTESIAN_POINT ( 'NONE',  ( 0.000000000000000000, 4.000000000000000000, 0.000000000000000000 ) ) ;
#38 = DIRECTION ( 'NONE',  ( 0.000000000000000000, 1.000000000000000000, 0.000000000000000000 ) ) ;
#39 = VERTEX_POINT ( 'NONE', #92 ) ;
#40 = AXIS2_PLACEMENT_3D ( 'NONE', #95, #132, #62 ) ;
#41 = VECTOR ( 'NONE', #229, 1000.000000000000000 ) ;
#42 = FACE_OUTER_BOUND ( 'NONE', #128, .T. ) ;
#43 = DIRECTION ( 'NONE',  ( 0.000000000000000000, -0.000000000000000000, 1.000000000000000000 ) ) ;
#44 = PERSON ( 'UNSPECIFIED', 'UNSPECIFIED', 'UNSPECIFIED', ('UNSPECIFIED'), ('UNSPECIFIED'), ('UNSPECIFIED') ) ;
#45 = DIRECTION ( 'NONE',  ( 0.000000000000000000, 1.000000000000000000, 0.000000000000000000 ) ) ;
#46 = EDGE_CURVE ( 'NONE', #56, #39, #226, .T. ) ;
#47 = CIRCLE ( 'NONE', #33, 57.75000000000000000 ) ;
#48 = CARTESIAN_POINT ( 'NONE',  ( 0.000000000000000000, 0.000000000000000000, 0.000000000000000000 ) ) ;
#49 = DATE_AND_TIME ( #242, #16 ) ;
#50 = EDGE_LOOP ( 'NONE', ( #36, #57 ) ) ;
#51 = CC_DESIGN_APPROVAL ( #165, ( #114 ) ) ;
#52 = PERSON_AND_ORGANIZATION ( #44, #231 ) ;
#53 = CIRCLE ( 'NONE', #60, 57.75000000000000000 ) ;
#54 = ORIENTED_EDGE ( 'NONE', *, *, #186, .F. ) ;
#55 = DIRECTION ( 'NONE',  ( 0.000000000000000000, 0.000000000000000000, 1.000000000000000000 ) ) ;
#56 = VERTEX_POINT ( 'NONE', #4 ) ;
#57 = ORIENTED_EDGE ( 'NONE', *, *, #210, .F. ) ;
#58 = CARTESIAN_POINT ( 'NONE',  ( 0.000000000000000000, 4.000000000000000000, 0.000000000000000000 ) ) ;
#59 = APPROVAL_PERSON_ORGANIZATION ( #85, #165, #244 ) ;
#60 = AXIS2_PLACEMENT_3D ( 'NONE', #37, #38, #91 ) ;
#61 = DIRECTION ( 'NONE',  ( -0.000000000000000000, -1.000000000000000000, -0.000000000000000000 ) ) ;
#62 = DIRECTION ( 'NONE',  ( 0.000000000000000000, 0.000000000000000000, 1.000000000000000000 ) ) ;
#63 = CARTESIAN_POINT ( 'NONE',  ( 0.000000000000000000, 4.000000000000000000, -107.7500000000000142 ) ) ;
#64 =( GEOMETRIC_REPRESENTATION_CONTEXT ( 3 ) GLOBAL_UNCERTAINTY_ASSIGNED_CONTEXT ( ( #9 ) ) GLOBAL_UNIT_ASSIGNED_CONTEXT ( ( #177, #134, #174 ) ) REPRESENTATION_CONTEXT ( 'NONE', 'WORKASPACE' ) );
#65 = CARTESIAN_POINT ( 'NONE',  ( 7.072335265075964272E-15, 4.000000000000000000, 57.75000000000000000 ) ) ;
#66 = PERSON_AND_ORGANIZATION_ROLE ( 'design_supplier' ) ;
#67 = EDGE_CURVE ( 'NONE', #39, #56, #203, .T. ) ;
#68 = PERSON_AND_ORGANIZATION ( #44, #231 ) ;
#69 = COORDINATED_UNIVERSAL_TIME_OFFSET ( 1, 0, .AHEAD. ) ;
#70 = APPROVAL ( #12, 'UNSPECIFIED' ) ;
#71 = SECURITY_CLASSIFICATION_LEVEL ( 'unclassified' ) ;
#72 = LOCAL_TIME ( 11, 34, 50.00000000000000000, #69 ) ;
#73 = VECTOR ( 'NONE', #236, 1000.000000000000000 ) ;
#74 = ORIENTED_EDGE ( 'NONE', *, *, #6, .T. ) ;
#75 = ORIENTED_EDGE ( 'NONE', *, *, #169, .T. ) ;
#76 = DIRECTION ( 'NONE',  ( 0.000000000000000000, 0.000000000000000000, 1.000000000000000000 ) ) ;
#77 = APPROVAL_PERSON_ORGANIZATION ( #122, #70, #13 ) ;
#78 = PLANE ( 'NONE',  #29 ) ;
#79 = CARTESIAN_POINT ( 'NONE',  ( 0.000000000000000000, 0.000000000000000000, 0.000000000000000000 ) ) ;
#80 = DIRECTION ( 'NONE',  ( 1.000000000000000000, 0.000000000000000000, 0.000000000000000000 ) ) ;
#81 = CARTESIAN_POINT ( 'NONE',  ( 0.000000000000000000, 4.000000000000000000, 0.000000000000000000 ) ) ;
#82 = CYLINDRICAL_SURFACE ( 'NONE', #21, 57.75000000000000000 ) ;
#83 = APPLICATION_CONTEXT ( 'configuration controlled 3d designs of mechanical parts and assemblies' ) ;
#84 = EDGE_LOOP ( 'NONE', ( #19, #241 ) ) ;
#85 = PERSON_AND_ORGANIZATION ( #44, #231 ) ;
#86 = COORDINATED_UNIVERSAL_TIME_OFFSET ( 1, 0, .AHEAD. ) ;
#87 = APPROVAL_DATE_TIME ( #27, #120 ) ;
#88 = VERTEX_POINT ( 'NONE', #234 ) ;
#89 = AXIS2_PLACEMENT_3D ( 'NONE', #58, #191, #55 ) ;
#90 = ORIENTED_EDGE ( 'NONE', *, *, #109, .T. ) ;
#91 = DIRECTION ( 'NONE',  ( 0.000000000000000000, 0.000000000000000000, 1.000000000000000000 ) ) ;
#92 = CARTESIAN_POINT ( 'NONE',  ( 0.000000000000000000, 0.000000000000000000, -107.7500000000000142 ) ) ;
#93 = PRODUCT_RELATED_PRODUCT_CATEGORY ( 'detail', '', ( #139 ) ) ;
#94 = FACE_BOUND ( 'NONE', #193, .T. ) ;
#95 = CARTESIAN_POINT ( 'NONE',  ( 0.000000000000000000, 4.000000000000000000, 0.000000000000000000 ) ) ;
#96 = CARTESIAN_POINT ( 'NONE',  ( 0.000000000000000000, 0.000000000000000000, 0.000000000000000000 ) ) ;
#97 = CYLINDRICAL_SURFACE ( 'NONE', #235, 107.7500000000000142 ) ;
#98 = AXIS2_PLACEMENT_3D ( 'NONE', #219, #10, #43 ) ;
#99 = FACE_OUTER_BOUND ( 'NONE', #84, .T. ) ;
#100 = FACE_BOUND ( 'NONE', #50, .T. ) ;
#101 = EDGE_CURVE ( 'NONE', #247, #88, #179, .T. ) ;
#102 = PERSON_AND_ORGANIZATION ( #44, #231 ) ;
#103 = AXIS2_PLACEMENT_3D ( 'NONE', #176, #61, #119 ) ;
#104 = PRODUCT_DEFINITION_SHAPE ( 'NONE', 'NONE',  #194 ) ;
#105 = PERSON_AND_ORGANIZATION_ROLE ( 'creator' ) ;
#106 = CC_DESIGN_DATE_AND_TIME_ASSIGNMENT ( #107, #208, ( #194 ) ) ;
#107 = DATE_AND_TIME ( #222, #154 ) ;
#108 = APPROVAL_DATE_TIME ( #223, #165 ) ;
#109 = EDGE_CURVE ( 'NONE', #124, #247, #155, .T. ) ;
#110 = ORIENTED_EDGE ( 'NONE', *, *, #214, .F. ) ;
#111 = CYLINDRICAL_SURFACE ( 'NONE', #195, 107.7500000000000142 ) ;
#112 = EDGE_LOOP ( 'NONE', ( #125, #166 ) ) ;
#113 = ORIENTED_EDGE ( 'NONE', *, *, #210, .T. ) ;
#114 = PRODUCT_DEFINITION_FORMATION_WITH_SPECIFIED_SOURCE ( 'ANY', '', #139, .NOT_KNOWN. ) ;
#115 = CIRCLE ( 'NONE', #89, 107.7500000000000142 ) ;
#116 = DIRECTION ( 'NONE',  ( 0.000000000000000000, 1.000000000000000000, 0.000000000000000000 ) ) ;
#117 = APPLICATION_PROTOCOL_DEFINITION ( 'international standard', 'config_control_design', 1994, #83 ) ;
#118 = CARTESIAN_POINT ( 'NONE',  ( 0.000000000000000000, 4.000000000000000000, -107.7500000000000142 ) ) ;
#119 = DIRECTION ( 'NONE',  ( 0.000000000000000000, 0.000000000000000000, -1.000000000000000000 ) ) ;
#120 = APPROVAL ( #123, 'UNSPECIFIED' ) ;
#121 = VERTEX_POINT ( 'NONE', #118 ) ;
#122 = PERSON_AND_ORGANIZATION ( #44, #231 ) ;
#123 = APPROVAL_STATUS ( 'not_yet_approved' ) ;
#124 = VERTEX_POINT ( 'NONE', #65 ) ;
#125 = ORIENTED_EDGE ( 'NONE', *, *, #67, .F. ) ;
#126 = CC_DESIGN_PERSON_AND_ORGANIZATION_ASSIGNMENT ( #102, #162, ( #139 ) ) ;
#127 = CARTESIAN_POINT ( 'NONE',  ( 0.000000000000000000, 4.000000000000000000, -57.75000000000000000 ) ) ;
#128 = EDGE_LOOP ( 'NONE', ( #212, #113, #209, #2 ) ) ;
#129 = CARTESIAN_POINT ( 'NONE',  ( 0.000000000000000000, 0.000000000000000000, 0.000000000000000000 ) ) ;
#130 = DIRECTION ( 'NONE',  ( 0.000000000000000000, 0.000000000000000000, 1.000000000000000000 ) ) ;
#131 = CC_DESIGN_PERSON_AND_ORGANIZATION_ASSIGNMENT ( #143, #66, ( #114 ) ) ;
#132 = DIRECTION ( 'NONE',  ( 0.000000000000000000, 1.000000000000000000, 0.000000000000000000 ) ) ;
#133 = CARTESIAN_POINT ( 'NONE',  ( 7.072335265075964272E-15, 4.000000000000000000, 57.75000000000000000 ) ) ;
#134 =( NAMED_UNIT ( * ) PLANE_ANGLE_UNIT ( ) SI_UNIT ( $, .RADIAN. ) );
#135 = CC_DESIGN_PERSON_AND_ORGANIZATION_ASSIGNMENT ( #182, #161, ( #145 ) ) ;
#136 = CARTESIAN_POINT ( 'NONE',  ( 0.000000000000000000, 4.000000000000000000, 0.000000000000000000 ) ) ;
#137 = ADVANCED_FACE ( 'NONE', ( #42 ), #240, .F. ) ;
#138 = PERSON_AND_ORGANIZATION_ROLE ( 'creator' ) ;
#139 = PRODUCT ( '3D_R245_114.3_17386160', '3D_R245_114.3_17386160', '', ( #202 ) ) ;
#140 = DATE_TIME_ROLE ( 'classification_date' ) ;
#141 = CALENDAR_DATE ( 2024, 6, 8 ) ;
#142 = LOCAL_TIME ( 11, 34, 50.00000000000000000, #224 ) ;
#143 = PERSON_AND_ORGANIZATION ( #44, #231 ) ;
#144 = CC_DESIGN_DATE_AND_TIME_ASSIGNMENT ( #187, #140, ( #145 ) ) ;
#145 = SECURITY_CLASSIFICATION ( '', '', #71 ) ;
#146 = AXIS2_PLACEMENT_3D ( 'NONE', #79, #153, #76 ) ;
#147 = VERTEX_POINT ( 'NONE', #26 ) ;
#148 = MANIFOLD_SOLID_BREP ( 'Aufsatz-Linear austragen1', #22 ) ;
#149 = CARTESIAN_POINT ( 'NONE',  ( 1.319556926081273272E-14, 4.000000000000000000, 107.7500000000000142 ) ) ;
#150 = EDGE_CURVE ( 'NONE', #121, #39, #7, .T. ) ;
#151 = ORIENTED_EDGE ( 'NONE', *, *, #150, .T. ) ;
#152 = ORIENTED_EDGE ( 'NONE', *, *, #14, .F. ) ;
#153 = DIRECTION ( 'NONE',  ( 0.000000000000000000, 1.000000000000000000, 0.000000000000000000 ) ) ;
#154 = LOCAL_TIME ( 11, 34, 50.00000000000000000, #163 ) ;
#155 = LINE ( 'NONE', #133, #73 ) ;
#156 = LINE ( 'NONE', #8, #198 ) ;
#157 = ADVANCED_FACE ( 'NONE', ( #178 ), #97, .T. ) ;
#158 = DIRECTION ( 'NONE',  ( 0.000000000000000000, 1.000000000000000000, 0.000000000000000000 ) ) ;
#159 = CC_DESIGN_APPROVAL ( #70, ( #194 ) ) ;
#160 = CARTESIAN_POINT ( 'NONE',  ( 7.072335265075964272E-15, 0.000000000000000000, 57.75000000000000000 ) ) ;
#161 = PERSON_AND_ORGANIZATION_ROLE ( 'classification_officer' ) ;
#162 = PERSON_AND_ORGANIZATION_ROLE ( 'design_owner' ) ;
#163 = COORDINATED_UNIVERSAL_TIME_OFFSET ( 1, 0, .AHEAD. ) ;
#164 = APPLICATION_PROTOCOL_DEFINITION ( 'international standard', 'config_control_design', 1994, #228 ) ;
#165 = APPROVAL ( #30, 'UNSPECIFIED' ) ;
#166 = ORIENTED_EDGE ( 'NONE', *, *, #46, .F. ) ;
#167 = ORIENTED_EDGE ( 'NONE', *, *, #169, .F. ) ;
#168 = ORIENTED_EDGE ( 'NONE', *, *, #101, .T. ) ;
#169 = EDGE_CURVE ( 'NONE', #88, #247, #47, .T. ) ;
#170 = DIRECTION ( 'NONE',  ( 0.000000000000000000, 0.000000000000000000, 1.000000000000000000 ) ) ;
#171 = FACE_OUTER_BOUND ( 'NONE', #112, .T. ) ;
#172 = VECTOR ( 'NONE', #175, 1000.000000000000000 ) ;
#173 = DIRECTION ( 'NONE',  ( 0.000000000000000000, 1.000000000000000000, 0.000000000000000000 ) ) ;
#174 =( NAMED_UNIT ( * ) SI_UNIT ( $, .STERADIAN. ) SOLID_ANGLE_UNIT ( ) );
#175 = DIRECTION ( 'NONE',  ( -0.000000000000000000, -1.000000000000000000, -0.000000000000000000 ) ) ;
#176 = CARTESIAN_POINT ( 'NONE',  ( 0.000000000000000000, 4.000000000000000000, 0.000000000000000000 ) ) ;
#177 =( LENGTH_UNIT ( ) NAMED_UNIT ( * ) SI_UNIT ( .MILLI., .METRE. ) );
#178 = FACE_OUTER_BOUND ( 'NONE', #188, .T. ) ;
#179 = CIRCLE ( 'NONE', #3, 57.75000000000000000 ) ;
#180 = PERSON_AND_ORGANIZATION ( #44, #231 ) ;
#181 = CC_DESIGN_PERSON_AND_ORGANIZATION_ASSIGNMENT ( #68, #138, ( #194 ) ) ;
#182 = PERSON_AND_ORGANIZATION ( #44, #231 ) ;
#183 = SHAPE_DEFINITION_REPRESENTATION ( #104, #192 ) ;
#184 = AXIS2_PLACEMENT_3D ( 'NONE', #96, #5, #80 ) ;
#185 = AXIS2_PLACEMENT_3D ( 'NONE', #129, #173, #170 ) ;
#186 = EDGE_CURVE ( 'NONE', #121, #147, #239, .T. ) ;
#187 = DATE_AND_TIME ( #141, #72 ) ;
#188 = EDGE_LOOP ( 'NONE', ( #152, #74, #35, #221 ) ) ;
#189 = EDGE_LOOP ( 'NONE', ( #227, #90, #167, #110 ) ) ;
#190 = CARTESIAN_POINT ( 'NONE',  ( 0.000000000000000000, 4.000000000000000000, 0.000000000000000000 ) ) ;
#191 = DIRECTION ( 'NONE',  ( 0.000000000000000000, 1.000000000000000000, 0.000000000000000000 ) ) ;
#192 = ADVANCED_BREP_SHAPE_REPRESENTATION ( '3D_R245_114.3_17386160', ( #148, #184 ), #64 ) ;
#193 = EDGE_LOOP ( 'NONE', ( #75, #168 ) ) ;
#194 = PRODUCT_DEFINITION ( 'UNKNOWN', '', #114, #200 ) ;
#195 = AXIS2_PLACEMENT_3D ( 'NONE', #190, #18, #213 ) ;
#196 = CARTESIAN_POINT ( 'NONE',  ( 0.000000000000000000, 4.000000000000000000, 0.000000000000000000 ) ) ;
#197 = DIRECTION ( 'NONE',  ( 0.000000000000000000, 0.000000000000000000, 1.000000000000000000 ) ) ;
#198 = VECTOR ( 'NONE', #237, 1000.000000000000000 ) ;
#199 = FACE_OUTER_BOUND ( 'NONE', #189, .T. ) ;
#200 = DESIGN_CONTEXT ( 'detailed design', #228, 'design' ) ;
#201 = DIRECTION ( 'NONE',  ( 0.000000000000000000, 0.000000000000000000, 1.000000000000000000 ) ) ;
#202 = MECHANICAL_CONTEXT ( 'NONE', #83, 'mechanical' ) ;
#203 = CIRCLE ( 'NONE', #146, 107.7500000000000142 ) ;
#204 = COORDINATED_UNIVERSAL_TIME_OFFSET ( 1, 0, .AHEAD. ) ;
#205 = APPROVAL_ROLE ( '' ) ;
#206 = ADVANCED_FACE ( 'NONE', ( #99, #100 ), #217, .T. ) ;
#207 = CC_DESIGN_APPROVAL ( #120, ( #145 ) ) ;
#208 = DATE_TIME_ROLE ( 'creation_date' ) ;
#209 = ORIENTED_EDGE ( 'NONE', *, *, #214, .T. ) ;
#210 = EDGE_CURVE ( 'NONE', #124, #17, #225, .T. ) ;
#211 = CARTESIAN_POINT ( 'NONE',  ( 0.000000000000000000, 0.000000000000000000, 0.000000000000000000 ) ) ;
#212 = ORIENTED_EDGE ( 'NONE', *, *, #109, .F. ) ;
#213 = DIRECTION ( 'NONE',  ( 0.000000000000000000, 0.000000000000000000, -1.000000000000000000 ) ) ;
#214 = EDGE_CURVE ( 'NONE', #17, #88, #156, .T. ) ;
#215 = CARTESIAN_POINT ( 'NONE',  ( 0.000000000000000000, 0.000000000000000000, 0.000000000000000000 ) ) ;
#216 = APPROVAL_PERSON_ORGANIZATION ( #52, #120, #205 ) ;
#217 = PLANE ( 'NONE',  #98 ) ;
#218 = DIRECTION ( 'NONE',  ( 0.000000000000000000, 0.000000000000000000, -1.000000000000000000 ) ) ;
#219 = CARTESIAN_POINT ( 'NONE',  ( 0.000000000000000000, 4.000000000000000000, 0.000000000000000000 ) ) ;
#220 = DIRECTION ( 'NONE',  ( -0.000000000000000000, -1.000000000000000000, -0.000000000000000000 ) ) ;
#221 = ORIENTED_EDGE ( 'NONE', *, *, #150, .F. ) ;
#222 = CALENDAR_DATE ( 2024, 6, 8 ) ;
#223 = DATE_AND_TIME ( #245, #11 ) ;
#224 = COORDINATED_UNIVERSAL_TIME_OFFSET ( 1, 0, .AHEAD. ) ;
#225 = CIRCLE ( 'NONE', #28, 57.75000000000000000 ) ;
#226 = CIRCLE ( 'NONE', #185, 107.7500000000000142 ) ;
#227 = ORIENTED_EDGE ( 'NONE', *, *, #34, .T. ) ;
#228 = APPLICATION_CONTEXT ( 'configuration controlled 3d designs of mechanical parts and assemblies' ) ;
#229 = DIRECTION ( 'NONE',  ( -0.000000000000000000, -1.000000000000000000, -0.000000000000000000 ) ) ;
#230 = EDGE_LOOP ( 'NONE', ( #15, #54, #151, #246 ) ) ;
#231 = ORGANIZATION ( 'UNSPECIFIED', 'UNSPECIFIED', '' ) ;
#232 = ADVANCED_FACE ( 'NONE', ( #199 ), #82, .F. ) ;
#233 = LINE ( 'NONE', #149, #41 ) ;
#234 = CARTESIAN_POINT ( 'NONE',  ( 0.000000000000000000, 0.000000000000000000, -57.75000000000000000 ) ) ;
#235 = AXIS2_PLACEMENT_3D ( 'NONE', #136, #220, #23 ) ;
#236 = DIRECTION ( 'NONE',  ( -0.000000000000000000, -1.000000000000000000, -0.000000000000000000 ) ) ;
#237 = DIRECTION ( 'NONE',  ( -0.000000000000000000, -1.000000000000000000, -0.000000000000000000 ) ) ;
#238 = CC_DESIGN_SECURITY_CLASSIFICATION ( #145, ( #114 ) ) ;
#239 = CIRCLE ( 'NONE', #40, 107.7500000000000142 ) ;
#240 = CYLINDRICAL_SURFACE ( 'NONE', #103, 57.75000000000000000 ) ;
#241 = ORIENTED_EDGE ( 'NONE', *, *, #14, .T. ) ;
#242 = CALENDAR_DATE ( 2024, 6, 8 ) ;
#243 = CC_DESIGN_PERSON_AND_ORGANIZATION_ASSIGNMENT ( #180, #105, ( #114 ) ) ;
#244 = APPROVAL_ROLE ( '' ) ;
#245 = CALENDAR_DATE ( 2024, 6, 8 ) ;
#246 = ORIENTED_EDGE ( 'NONE', *, *, #67, .T. ) ;
#247 = VERTEX_POINT ( 'NONE', #160 ) ;
#248 = DIRECTION ( 'NONE',  ( 0.000000000000000000, 1.000000000000000000, 0.000000000000000000 ) ) ;
#249 = DIRECTION ( 'NONE',  ( 0.000000000000000000, -0.000000000000000000, 1.000000000000000000 ) ) ;
ENDSEC;
END-ISO-10303-21;
