ISO-10303-21;
HEADER;
FILE_DESCRIPTION (( 'STEP AP203' ),
    '1' );
FILE_NAME ('12-0201-09_outokumpu.step',
    '2015-08-12T08:14:42',
    ( '' ),
    ( '' ),
    'SwSTEP 2.0',
    'SolidWorks 2008',
    '' );
FILE_SCHEMA (( 'CONFIG_CONTROL_DESIGN' ));
ENDSEC;

DATA;
#1 = ORIENTED_EDGE ( 'NONE', *, *, #67, .F. ) ;
#2 = EDGE_CURVE ( 'NONE', #44, #38, #212, .T. ) ;
#3 = EDGE_CURVE ( 'NONE', #20, #23, #235, .T. ) ;
#4 = ORIENTED_EDGE ( 'NONE', *, *, #2, .F. ) ;
#5 = ORIENTED_EDGE ( 'NONE', *, *, #3, .T. ) ;
#6 = CLOSED_SHELL ( 'NONE', ( #18, #80, #37, #61, #69, #33, #228, #90, #27, #97, #194, #214 ) ) ;
#7 = EDGE_CURVE ( 'NONE', #78, #19, #226, .T. ) ;
#8 = ORIENTED_EDGE ( 'NONE', *, *, #192, .T. ) ;
#9 = ORIENTED_EDGE ( 'NONE', *, *, #40, .F. ) ;
#10 = ORIENTED_EDGE ( 'NONE', *, *, #7, .F. ) ;
#11 = EDGE_LOOP ( 'NONE', ( #229, #89 ) ) ;
#12 = EDGE_LOOP ( 'NONE', ( #9, #10, #230, #231 ) ) ;
#13 = ORIENTED_EDGE ( 'NONE', *, *, #16, .T. ) ;
#14 = EDGE_LOOP ( 'NONE', ( #5, #13 ) ) ;
#15 = ORIENTED_EDGE ( 'NONE', *, *, #87, .T. ) ;
#16 = EDGE_CURVE ( 'NONE', #23, #20, #221, .T. ) ;
#17 = ORIENTED_EDGE ( 'NONE', *, *, #16, .F. ) ;
#18 = ADVANCED_FACE ( 'NONE', ( #222 ), #187, .F. ) ;
#19 = VERTEX_POINT ( 'NONE', #189 ) ;
#20 = VERTEX_POINT ( 'NONE', #188 ) ;
#21 = EDGE_CURVE ( 'NONE', #20, #83, #205, .T. ) ;
#22 = MANIFOLD_SOLID_BREP ( 'NONE', #6 ) ;
#23 = VERTEX_POINT ( 'NONE', #201 ) ;
#24 = EDGE_LOOP ( 'NONE', ( #17, #15, #85, #86 ) ) ;
#25 = ORIENTED_EDGE ( 'NONE', *, *, #59, .T. ) ;
#26 = ORIENTED_EDGE ( 'NONE', *, *, #238, .T. ) ;
#27 = ADVANCED_FACE ( 'NONE', ( #200, #199 ), #196, .F. ) ;
#28 = EDGE_LOOP ( 'NONE', ( #29, #31 ) ) ;
#29 = ORIENTED_EDGE ( 'NONE', *, *, #30, .F. ) ;
#30 = EDGE_CURVE ( 'NONE', #75, #49, #197, .T. ) ;
#31 = ORIENTED_EDGE ( 'NONE', *, *, #41, .F. ) ;
#32 = EDGE_CURVE ( 'NONE', #52, #55, #122, .T. ) ;
#33 = ADVANCED_FACE ( 'NONE', ( #117, #116 ), #115, .F. ) ;
#34 = ORIENTED_EDGE ( 'NONE', *, *, #68, .T. ) ;
#35 = ORIENTED_EDGE ( 'NONE', *, *, #32, .F. ) ;
#36 = EDGE_LOOP ( 'NONE', ( #93, #242 ) ) ;
#37 = ADVANCED_FACE ( 'NONE', ( #109 ), #108, .F. ) ;
#38 = VERTEX_POINT ( 'NONE', #107 ) ;
#39 = ORIENTED_EDGE ( 'NONE', *, *, #41, .T. ) ;
#40 = EDGE_CURVE ( 'NONE', #19, #49, #103, .T. ) ;
#41 = EDGE_CURVE ( 'NONE', #49, #75, #99, .T. ) ;
#42 = ORIENTED_EDGE ( 'NONE', *, *, #43, .F. ) ;
#43 = EDGE_CURVE ( 'NONE', #38, #44, #159, .T. ) ;
#44 = VERTEX_POINT ( 'NONE', #154 ) ;
#45 = VERTEX_POINT ( 'NONE', #153 ) ;
#46 = ORIENTED_EDGE ( 'NONE', *, *, #47, .T. ) ;
#47 = EDGE_CURVE ( 'NONE', #45, #48, #152, .T. ) ;
#48 = VERTEX_POINT ( 'NONE', #147 ) ;
#49 = VERTEX_POINT ( 'NONE', #146 ) ;
#50 = ORIENTED_EDGE ( 'NONE', *, *, #51, .T. ) ;
#51 = EDGE_CURVE ( 'NONE', #65, #52, #145, .T. ) ;
#52 = VERTEX_POINT ( 'NONE', #141 ) ;
#53 = ORIENTED_EDGE ( 'NONE', *, *, #54, .F. ) ;
#54 = EDGE_CURVE ( 'NONE', #55, #52, #140, .T. ) ;
#55 = VERTEX_POINT ( 'NONE', #135 ) ;
#56 = ORIENTED_EDGE ( 'NONE', *, *, #68, .F. ) ;
#57 = EDGE_LOOP ( 'NONE', ( #70, #71, #34, #35 ) ) ;
#58 = ORIENTED_EDGE ( 'NONE', *, *, #59, .F. ) ;
#59 = EDGE_CURVE ( 'NONE', #44, #48, #134, .T. ) ;
#60 = EDGE_LOOP ( 'NONE', ( #62, #50, #53, #56 ) ) ;
#61 = ADVANCED_FACE ( 'NONE', ( #183 ), #182, .T. ) ;
#62 = ORIENTED_EDGE ( 'NONE', *, *, #63, .T. ) ;
#63 = EDGE_CURVE ( 'NONE', #64, #65, #181, .T. ) ;
#64 = VERTEX_POINT ( 'NONE', #173 ) ;
#65 = VERTEX_POINT ( 'NONE', #172 ) ;
#66 = ORIENTED_EDGE ( 'NONE', *, *, #67, .T. ) ;
#67 = EDGE_CURVE ( 'NONE', #38, #45, #171, .T. ) ;
#68 = EDGE_CURVE ( 'NONE', #64, #55, #167, .T. ) ;
#69 = ADVANCED_FACE ( 'NONE', ( #163 ), #320, .T. ) ;
#70 = ORIENTED_EDGE ( 'NONE', *, *, #51, .F. ) ;
#71 = ORIENTED_EDGE ( 'NONE', *, *, #72, .T. ) ;
#72 = EDGE_CURVE ( 'NONE', #65, #64, #271, .T. ) ;
#73 = EDGE_CURVE ( 'NONE', #78, #75, #336, .T. ) ;
#74 = EDGE_LOOP ( 'NONE', ( #42, #66, #46, #58 ) ) ;
#75 = VERTEX_POINT ( 'NONE', #296 ) ;
#76 = ORIENTED_EDGE ( 'NONE', *, *, #73, .F. ) ;
#77 = ORIENTED_EDGE ( 'NONE', *, *, #40, .T. ) ;
#78 = VERTEX_POINT ( 'NONE', #306 ) ;
#79 = EDGE_LOOP ( 'NONE', ( #82, #77, #39, #76 ) ) ;
#80 = ADVANCED_FACE ( 'NONE', ( #257 ), #329, .F. ) ;
#81 = EDGE_CURVE ( 'NONE', #19, #78, #325, .T. ) ;
#82 = ORIENTED_EDGE ( 'NONE', *, *, #81, .F. ) ;
#83 = VERTEX_POINT ( 'NONE', #297 ) ;
#84 = EDGE_CURVE ( 'NONE', #88, #83, #278, .T. ) ;
#85 = ORIENTED_EDGE ( 'NONE', *, *, #84, .T. ) ;
#86 = ORIENTED_EDGE ( 'NONE', *, *, #21, .F. ) ;
#87 = EDGE_CURVE ( 'NONE', #23, #88, #273, .T. ) ;
#88 = VERTEX_POINT ( 'NONE', #245 ) ;
#89 = ORIENTED_EDGE ( 'NONE', *, *, #32, .T. ) ;
#90 = ADVANCED_FACE ( 'NONE', ( #244 ), #243, .F. ) ;
#91 = EDGE_LOOP ( 'NONE', ( #1, #4, #25, #26 ) ) ;
#92 = EDGE_LOOP ( 'NONE', ( #207, #206 ) ) ;
#93 = ORIENTED_EDGE ( 'NONE', *, *, #238, .F. ) ;
#94 = EDGE_LOOP ( 'NONE', ( #215, #216, #217, #8 ) ) ;
#95 = ORIENTED_EDGE ( 'NONE', *, *, #2, .T. ) ;
#96 = ORIENTED_EDGE ( 'NONE', *, *, #43, .T. ) ;
#97 = ADVANCED_FACE ( 'NONE', ( #288 ), #282, .F. ) ;
#98 = AXIS2_PLACEMENT_3D ( 'NONE', #162, #161, #160 ) ;
#99 = CIRCLE ( 'NONE', #98, 11.90000000000000000 ) ;
#100 = DIRECTION ( 'NONE',  ( -0.0000000000000000000, 1.341169643171706100E-016, -1.000000000000000000 ) ) ;
#101 = VECTOR ( 'NONE', #100, 1000.000000000000000 ) ;
#102 = CARTESIAN_POINT ( 'NONE',  ( 1.457281561048629100E-015, -11.89999999999999900, -35.00000000000004300 ) ) ;
#103 = LINE ( 'NONE', #102, #101 ) ;
#104 = DIRECTION ( 'NONE',  ( 0.0000000000000000000, 1.000000000000000000, 0.0000000000000000000 ) ) ;
#105 = DIRECTION ( 'NONE',  ( -0.0000000000000000000, 1.341169643171706100E-016, -1.000000000000000000 ) ) ;
#106 = AXIS2_PLACEMENT_3D ( 'NONE', #113, #105, #104 ) ;
#107 = CARTESIAN_POINT ( 'NONE',  ( 1.665464641198432400E-015, -13.59999999999999300, -22.30000000000001100 ) ) ;
#108 = CYLINDRICAL_SURFACE ( 'NONE', #106, 13.59999999999999400 ) ;
#109 = FACE_OUTER_BOUND ( 'NONE', #74, .T. ) ;
#110 = DIRECTION ( 'NONE',  ( 1.000000000000000000, 0.0000000000000000000, 0.0000000000000000000 ) ) ;
#111 = DIRECTION ( 'NONE',  ( 0.0000000000000000000, -0.0000000000000000000, 1.000000000000000000 ) ) ;
#112 = AXIS2_PLACEMENT_3D ( 'NONE', #114, #111, #110 ) ;
#113 = CARTESIAN_POINT ( 'NONE',  ( 0.0000000000000000000, 1.224646799147362900E-015, -35.00000000000004300 ) ) ;
#114 = CARTESIAN_POINT ( 'NONE',  ( 0.0000000000000000000, 16.00000000000000000, -35.00000000000000000 ) ) ;
#115 = PLANE ( 'NONE',  #112 ) ;
#116 = FACE_OUTER_BOUND ( 'NONE', #92, .T. ) ;
#117 = FACE_BOUND ( 'NONE', #36, .T. ) ;
#118 = DIRECTION ( 'NONE',  ( 1.000000000000000000, 0.0000000000000000000, 0.0000000000000000000 ) ) ;
#119 = DIRECTION ( 'NONE',  ( -0.0000000000000000000, -0.0000000000000000000, 1.000000000000000000 ) ) ;
#120 = CARTESIAN_POINT ( 'NONE',  ( 0.0000000000000000000, 0.0000000000000000000, 0.0000000000000000000 ) ) ;
#121 = AXIS2_PLACEMENT_3D ( 'NONE', #120, #119, #118 ) ;
#122 = CIRCLE ( 'NONE', #121, 16.00000000000000000 ) ;
#123 = DIRECTION ( 'NONE',  ( 0.0000000000000000000, 1.000000000000000000, 0.0000000000000000000 ) ) ;
#124 = DIRECTION ( 'NONE',  ( -0.0000000000000000000, 1.341169643171706100E-016, -1.000000000000000000 ) ) ;
#125 = CARTESIAN_POINT ( 'NONE',  ( 0.0000000000000000000, -4.786386476807090700E-016, -22.30000000000000800 ) ) ;
#126 = AXIS2_PLACEMENT_3D ( 'NONE', #125, #124, #123 ) ;
#127 = DIRECTION ( 'NONE',  ( 0.0000000000000000000, -1.000000000000000000, -1.341169643171706100E-016 ) ) ;
#128 = DIRECTION ( 'NONE',  ( 0.0000000000000000000, -1.341169643171706100E-016, 1.000000000000000000 ) ) ;
#129 = CARTESIAN_POINT ( 'NONE',  ( 0.0000000000000000000, 11.90000000000000000, -22.30000000000000400 ) ) ;
#130 = CARTESIAN_POINT ( 'NONE',  ( 0.0000000000000000000, 0.0000000000000000000, -4.336808689942017700E-016 ) ) ;
#131 = DIRECTION ( 'NONE',  ( -0.0000000000000000000, 1.341169643171706100E-016, -1.000000000000000000 ) ) ;
#132 = VECTOR ( 'NONE', #131, 1000.000000000000000 ) ;
#133 = CARTESIAN_POINT ( 'NONE',  ( 0.0000000000000000000, 13.59999999999999600, -35.00000000000004300 ) ) ;
#134 = LINE ( 'NONE', #133, #132 ) ;
#135 = CARTESIAN_POINT ( 'NONE',  ( 16.00000000000000000, 0.0000000000000000000, 0.0000000000000000000 ) ) ;
#136 = DIRECTION ( 'NONE',  ( 1.000000000000000000, 0.0000000000000000000, 0.0000000000000000000 ) ) ;
#137 = DIRECTION ( 'NONE',  ( -0.0000000000000000000, -0.0000000000000000000, 1.000000000000000000 ) ) ;
#138 = CARTESIAN_POINT ( 'NONE',  ( 0.0000000000000000000, 0.0000000000000000000, 0.0000000000000000000 ) ) ;
#139 = AXIS2_PLACEMENT_3D ( 'NONE', #138, #137, #136 ) ;
#140 = CIRCLE ( 'NONE', #139, 16.00000000000000000 ) ;
#141 = CARTESIAN_POINT ( 'NONE',  ( -16.00000000000000000, 1.959370166115803600E-015, 0.0000000000000000000 ) ) ;
#142 = DIRECTION ( 'NONE',  ( -0.0000000000000000000, -0.0000000000000000000, 1.000000000000000000 ) ) ;
#143 = VECTOR ( 'NONE', #142, 1000.000000000000000 ) ;
#144 = CARTESIAN_POINT ( 'NONE',  ( -16.00000000000000000, 1.959370166115803600E-015, -4.336808689942017700E-016 ) ) ;
#145 = LINE ( 'NONE', #144, #143 ) ;
#146 = CARTESIAN_POINT ( 'NONE',  ( 1.457281561048629100E-015, -11.90000000000000000, -22.30000000000000800 ) ) ;
#147 = CARTESIAN_POINT ( 'NONE',  ( 0.0000000000000000000, 13.60000000000000000, -35.00000000000000000 ) ) ;
#148 = DIRECTION ( 'NONE',  ( 0.0000000000000000000, 1.000000000000000000, 0.0000000000000000000 ) ) ;
#149 = DIRECTION ( 'NONE',  ( -0.0000000000000000000, 1.341169643171706100E-016, -1.000000000000000000 ) ) ;
#150 = CARTESIAN_POINT ( 'NONE',  ( 0.0000000000000000000, 1.224646799147357400E-015, -35.00000000000000000 ) ) ;
#151 = AXIS2_PLACEMENT_3D ( 'NONE', #150, #149, #148 ) ;
#152 = CIRCLE ( 'NONE', #151, 13.59999999999999800 ) ;
#153 = CARTESIAN_POINT ( 'NONE',  ( 1.665464641198432800E-015, -13.59999999999999800, -35.00000000000000000 ) ) ;
#154 = CARTESIAN_POINT ( 'NONE',  ( 0.0000000000000000000, 13.59999999999999300, -22.30000000000000400 ) ) ;
#155 = DIRECTION ( 'NONE',  ( 0.0000000000000000000, 1.000000000000000000, 2.551063935260012000E-016 ) ) ;
#156 = DIRECTION ( 'NONE',  ( -0.0000000000000000000, 1.341169643171706100E-016, -1.000000000000000000 ) ) ;
#157 = CARTESIAN_POINT ( 'NONE',  ( 0.0000000000000000000, -4.786386476807090700E-016, -22.30000000000000800 ) ) ;
#158 = AXIS2_PLACEMENT_3D ( 'NONE', #157, #156, #155 ) ;
#159 = CIRCLE ( 'NONE', #158, 13.59999999999999300 ) ;
#160 = DIRECTION ( 'NONE',  ( 0.0000000000000000000, 1.000000000000000000, 0.0000000000000000000 ) ) ;
#161 = DIRECTION ( 'NONE',  ( -0.0000000000000000000, 1.341169643171706100E-016, -1.000000000000000000 ) ) ;
#162 = CARTESIAN_POINT ( 'NONE',  ( 0.0000000000000000000, -4.786386476807090700E-016, -22.30000000000000800 ) ) ;
#163 = FACE_OUTER_BOUND ( 'NONE', #57, .T. ) ;
#164 = DIRECTION ( 'NONE',  ( -0.0000000000000000000, -0.0000000000000000000, 1.000000000000000000 ) ) ;
#165 = VECTOR ( 'NONE', #164, 1000.000000000000000 ) ;
#166 = CARTESIAN_POINT ( 'NONE',  ( 16.00000000000000000, 0.0000000000000000000, -4.336808689942017700E-016 ) ) ;
#167 = LINE ( 'NONE', #166, #165 ) ;
#168 = DIRECTION ( 'NONE',  ( -0.0000000000000000000, 1.341169643171706100E-016, -1.000000000000000000 ) ) ;
#169 = VECTOR ( 'NONE', #168, 1000.000000000000000 ) ;
#170 = CARTESIAN_POINT ( 'NONE',  ( 1.665464641198432400E-015, -13.59999999999999300, -35.00000000000004300 ) ) ;
#171 = LINE ( 'NONE', #170, #169 ) ;
#172 = CARTESIAN_POINT ( 'NONE',  ( -16.00000000000000000, 1.959370166115803600E-015, -35.00000000000000000 ) ) ;
#173 = CARTESIAN_POINT ( 'NONE',  ( 16.00000000000000000, 0.0000000000000000000, -35.00000000000000000 ) ) ;
#174 = DIRECTION ( 'NONE',  ( 1.000000000000000000, 0.0000000000000000000, 0.0000000000000000000 ) ) ;
#175 = DIRECTION ( 'NONE',  ( -0.0000000000000000000, -0.0000000000000000000, 1.000000000000000000 ) ) ;
#176 = CARTESIAN_POINT ( 'NONE',  ( 0.0000000000000000000, 0.0000000000000000000, -35.00000000000000000 ) ) ;
#177 = AXIS2_PLACEMENT_3D ( 'NONE', #176, #175, #174 ) ;
#178 = DIRECTION ( 'NONE',  ( 1.000000000000000000, 0.0000000000000000000, 0.0000000000000000000 ) ) ;
#179 = DIRECTION ( 'NONE',  ( -0.0000000000000000000, -0.0000000000000000000, 1.000000000000000000 ) ) ;
#180 = AXIS2_PLACEMENT_3D ( 'NONE', #130, #179, #178 ) ;
#181 = CIRCLE ( 'NONE', #177, 16.00000000000000000 ) ;
#182 = CYLINDRICAL_SURFACE ( 'NONE', #180, 16.00000000000000000 ) ;
#183 = FACE_OUTER_BOUND ( 'NONE', #60, .T. ) ;
#184 = DIRECTION ( 'NONE',  ( 0.0000000000000000000, 1.000000000000000000, 0.0000000000000000000 ) ) ;
#185 = DIRECTION ( 'NONE',  ( -0.0000000000000000000, 1.341169643171706100E-016, -1.000000000000000000 ) ) ;
#186 = AXIS2_PLACEMENT_3D ( 'NONE', #190, #185, #184 ) ;
#187 = CYLINDRICAL_SURFACE ( 'NONE', #186, 13.59999999999999800 ) ;
#188 = CARTESIAN_POINT ( 'NONE',  ( 0.0000000000000000000, 13.60000000000000000, 1.823990714713520600E-015 ) ) ;
#189 = CARTESIAN_POINT ( 'NONE',  ( 1.457281561048629500E-015, -11.90000000000000400, -12.70000000000000100 ) ) ;
#190 = CARTESIAN_POINT ( 'NONE',  ( 0.0000000000000000000, 1.224646799147362900E-015, -35.00000000000004300 ) ) ;
#191 = ORIENTED_EDGE ( 'NONE', *, *, #192, .F. ) ;
#192 = EDGE_CURVE ( 'NONE', #83, #88, #253, .T. ) ;
#193 = ORIENTED_EDGE ( 'NONE', *, *, #84, .F. ) ;
#194 = ADVANCED_FACE ( 'NONE', ( #267, #266 ), #265, .F. ) ;
#195 = EDGE_LOOP ( 'NONE', ( #191, #193 ) ) ;
#196 = PLANE ( 'NONE',  #198 ) ;
#197 = CIRCLE ( 'NONE', #126, 11.90000000000000000 ) ;
#198 = AXIS2_PLACEMENT_3D ( 'NONE', #129, #128, #127 ) ;
#199 = FACE_OUTER_BOUND ( 'NONE', #237, .T. ) ;
#200 = FACE_BOUND ( 'NONE', #28, .T. ) ;
#201 = CARTESIAN_POINT ( 'NONE',  ( 1.665464641198433500E-015, -13.60000000000000700, -1.823990714713520600E-015 ) ) ;
#202 = DIRECTION ( 'NONE',  ( -0.0000000000000000000, 1.341169643171706100E-016, -1.000000000000000000 ) ) ;
#203 = VECTOR ( 'NONE', #202, 1000.000000000000000 ) ;
#204 = CARTESIAN_POINT ( 'NONE',  ( 0.0000000000000000000, 13.60000000000000000, -35.00000000000004300 ) ) ;
#205 = LINE ( 'NONE', #204, #203 ) ;
#206 = ORIENTED_EDGE ( 'NONE', *, *, #72, .F. ) ;
#207 = ORIENTED_EDGE ( 'NONE', *, *, #63, .F. ) ;
#208 = DIRECTION ( 'NONE',  ( 0.0000000000000000000, 1.000000000000000000, 2.551063935260012000E-016 ) ) ;
#209 = DIRECTION ( 'NONE',  ( -0.0000000000000000000, 1.341169643171706100E-016, -1.000000000000000000 ) ) ;
#210 = CARTESIAN_POINT ( 'NONE',  ( 0.0000000000000000000, -4.786386476807090700E-016, -22.30000000000000800 ) ) ;
#211 = AXIS2_PLACEMENT_3D ( 'NONE', #210, #209, #208 ) ;
#212 = CIRCLE ( 'NONE', #211, 13.59999999999999300 ) ;
#213 = CARTESIAN_POINT ( 'NONE',  ( 0.0000000000000000000, -3.469446951953614200E-015, 0.0000000000000000000 ) ) ;
#214 = ADVANCED_FACE ( 'NONE', ( #263 ), #259, .F. ) ;
#215 = ORIENTED_EDGE ( 'NONE', *, *, #87, .F. ) ;
#216 = ORIENTED_EDGE ( 'NONE', *, *, #3, .F. ) ;
#217 = ORIENTED_EDGE ( 'NONE', *, *, #21, .T. ) ;
#218 = DIRECTION ( 'NONE',  ( 0.0000000000000000000, 1.000000000000000000, 1.341169643171706100E-016 ) ) ;
#219 = DIRECTION ( 'NONE',  ( -0.0000000000000000000, 1.341169643171706100E-016, -1.000000000000000000 ) ) ;
#220 = AXIS2_PLACEMENT_3D ( 'NONE', #227, #219, #218 ) ;
#221 = CIRCLE ( 'NONE', #220, 13.60000000000000300 ) ;
#222 = FACE_OUTER_BOUND ( 'NONE', #24, .T. ) ;
#223 = DIRECTION ( 'NONE',  ( 0.0000000000000000000, 1.000000000000000000, 1.457750820148577100E-016 ) ) ;
#224 = DIRECTION ( 'NONE',  ( -0.0000000000000000000, 1.341169643171706100E-016, -1.000000000000000000 ) ) ;
#225 = AXIS2_PLACEMENT_3D ( 'NONE', #236, #224, #223 ) ;
#226 = CIRCLE ( 'NONE', #225, 11.90000000000000200 ) ;
#227 = CARTESIAN_POINT ( 'NONE',  ( 0.0000000000000000000, -3.469446951953614200E-015, 0.0000000000000000000 ) ) ;
#228 = ADVANCED_FACE ( 'NONE', ( #330, #335 ), #334, .F. ) ;
#229 = ORIENTED_EDGE ( 'NONE', *, *, #54, .T. ) ;
#230 = ORIENTED_EDGE ( 'NONE', *, *, #73, .T. ) ;
#231 = ORIENTED_EDGE ( 'NONE', *, *, #30, .T. ) ;
#232 = DIRECTION ( 'NONE',  ( 0.0000000000000000000, 1.000000000000000000, 1.341169643171706100E-016 ) ) ;
#233 = DIRECTION ( 'NONE',  ( -0.0000000000000000000, 1.341169643171706100E-016, -1.000000000000000000 ) ) ;
#234 = AXIS2_PLACEMENT_3D ( 'NONE', #213, #233, #232 ) ;
#235 = CIRCLE ( 'NONE', #234, 13.60000000000000300 ) ;
#236 = CARTESIAN_POINT ( 'NONE',  ( 0.0000000000000000000, -1.766161505125547600E-015, -12.69999999999999900 ) ) ;
#237 = EDGE_LOOP ( 'NONE', ( #95, #96 ) ) ;
#238 = EDGE_CURVE ( 'NONE', #48, #45, #311, .T. ) ;
#239 = EDGE_LOOP ( 'NONE', ( #240, #241 ) ) ;
#240 = ORIENTED_EDGE ( 'NONE', *, *, #7, .T. ) ;
#241 = ORIENTED_EDGE ( 'NONE', *, *, #81, .T. ) ;
#242 = ORIENTED_EDGE ( 'NONE', *, *, #47, .F. ) ;
#243 = CYLINDRICAL_SURFACE ( 'NONE', #286, 13.59999999999999400 ) ;
#244 = FACE_OUTER_BOUND ( 'NONE', #91, .T. ) ;
#245 = CARTESIAN_POINT ( 'NONE',  ( 1.665464641198432600E-015, -13.59999999999999600, -12.70000000000000500 ) ) ;
#246 = DIRECTION ( 'NONE',  ( -0.0000000000000000000, 1.341169643171706100E-016, -1.000000000000000000 ) ) ;
#247 = VECTOR ( 'NONE', #246, 1000.000000000000000 ) ;
#248 = CARTESIAN_POINT ( 'NONE',  ( 1.665464641198432800E-015, -13.59999999999999600, -35.00000000000004300 ) ) ;
#249 = DIRECTION ( 'NONE',  ( 0.0000000000000000000, 1.000000000000000000, 1.275531967630005700E-016 ) ) ;
#250 = DIRECTION ( 'NONE',  ( -0.0000000000000000000, 1.341169643171706100E-016, -1.000000000000000000 ) ) ;
#251 = CARTESIAN_POINT ( 'NONE',  ( 0.0000000000000000000, -1.766161505125547200E-015, -12.70000000000000300 ) ) ;
#252 = AXIS2_PLACEMENT_3D ( 'NONE', #251, #250, #249 ) ;
#253 = CIRCLE ( 'NONE', #252, 13.59999999999999400 ) ;
#254 = DIRECTION ( 'NONE',  ( 0.0000000000000000000, 1.000000000000000000, 0.0000000000000000000 ) ) ;
#255 = DIRECTION ( 'NONE',  ( -0.0000000000000000000, 1.341169643171706100E-016, -1.000000000000000000 ) ) ;
#256 = CARTESIAN_POINT ( 'NONE',  ( 0.0000000000000000000, 1.224646799147362900E-015, -35.00000000000004300 ) ) ;
#257 = FACE_OUTER_BOUND ( 'NONE', #79, .T. ) ;
#258 = AXIS2_PLACEMENT_3D ( 'NONE', #333, #332, #331 ) ;
#259 = CYLINDRICAL_SURFACE ( 'NONE', #258, 13.59999999999999800 ) ;
#260 = DIRECTION ( 'NONE',  ( 0.0000000000000000000, 1.000000000000000000, 1.341169643171706100E-016 ) ) ;
#261 = DIRECTION ( 'NONE',  ( -0.0000000000000000000, 1.341169643171706100E-016, -1.000000000000000000 ) ) ;
#262 = AXIS2_PLACEMENT_3D ( 'NONE', #264, #261, #260 ) ;
#263 = FACE_OUTER_BOUND ( 'NONE', #94, .T. ) ;
#264 = CARTESIAN_POINT ( 'NONE',  ( 0.0000000000000000000, 11.90000000000000000, -12.69999999999999900 ) ) ;
#265 = PLANE ( 'NONE',  #262 ) ;
#266 = FACE_BOUND ( 'NONE', #239, .T. ) ;
#267 = FACE_OUTER_BOUND ( 'NONE', #195, .T. ) ;
#268 = DIRECTION ( 'NONE',  ( 1.000000000000000000, 0.0000000000000000000, 0.0000000000000000000 ) ) ;
#269 = DIRECTION ( 'NONE',  ( 0.0000000000000000000, 0.0000000000000000000, 1.000000000000000000 ) ) ;
#270 = CARTESIAN_POINT ( 'NONE',  ( 0.0000000000000000000, 0.0000000000000000000, 0.0000000000000000000 ) ) ;
#271 = CIRCLE ( 'NONE', #299, 16.00000000000000000 ) ;
#272 = DIRECTION ( 'NONE',  ( 1.000000000000000000, 0.0000000000000000000, 0.0000000000000000000 ) ) ;
#273 = LINE ( 'NONE', #248, #247 ) ;
#274 = DIRECTION ( 'NONE',  ( 0.0000000000000000000, 1.000000000000000000, 1.275531967630005700E-016 ) ) ;
#275 = DIRECTION ( 'NONE',  ( -0.0000000000000000000, 1.341169643171706100E-016, -1.000000000000000000 ) ) ;
#276 = CARTESIAN_POINT ( 'NONE',  ( 0.0000000000000000000, -1.766161505125547200E-015, -12.70000000000000300 ) ) ;
#277 = AXIS2_PLACEMENT_3D ( 'NONE', #276, #275, #274 ) ;
#278 = CIRCLE ( 'NONE', #277, 13.59999999999999400 ) ;
#279 = CARTESIAN_POINT ( 'NONE',  ( 0.0000000000000000000, 0.0000000000000000000, -4.336808689942017700E-016 ) ) ;
#280 = AXIS2_PLACEMENT_3D ( 'NONE', #279, #337, #272 ) ;
#281 = AXIS2_PLACEMENT_3D ( 'NONE', #287, #255, #254 ) ;
#282 = CYLINDRICAL_SURFACE ( 'NONE', #281, 11.90000000000000000 ) ;
#283 = DIRECTION ( 'NONE',  ( 0.0000000000000000000, 1.000000000000000000, 0.0000000000000000000 ) ) ;
#284 = DIRECTION ( 'NONE',  ( -0.0000000000000000000, 1.341169643171706100E-016, -1.000000000000000000 ) ) ;
#285 = CARTESIAN_POINT ( 'NONE',  ( 0.0000000000000000000, 1.224646799147362900E-015, -35.00000000000004300 ) ) ;
#286 = AXIS2_PLACEMENT_3D ( 'NONE', #285, #284, #283 ) ;
#287 = CARTESIAN_POINT ( 'NONE',  ( 0.0000000000000000000, 1.224646799147362900E-015, -35.00000000000004300 ) ) ;
#288 = FACE_OUTER_BOUND ( 'NONE', #12, .T. ) ;
#289 = PERSON ( 'UNSPECIFIED', 'UNSPECIFIED', 'UNSPECIFIED', ('UNSPECIFIED'), ('UNSPECIFIED'), ('UNSPECIFIED') ) ;
#290 = PRODUCT ( '12-0201-09_outokumpu', '12-0201-09_outokumpu', '', ( #291 ) ) ;
#291 = MECHANICAL_CONTEXT ( 'NONE', #295, 'mechanical' ) ;
#292 = APPLICATION_PROTOCOL_DEFINITION ( 'international standard', 'config_control_design', 1994, #295 ) ;
#293 = DIRECTION ( 'NONE',  ( 1.000000000000000000, 0.0000000000000000000, 0.0000000000000000000 ) ) ;
#294 = DIRECTION ( 'NONE',  ( -0.0000000000000000000, -0.0000000000000000000, 1.000000000000000000 ) ) ;
#295 = APPLICATION_CONTEXT ( 'configuration controlled 3d designs of mechanical parts and assemblies' ) ;
#296 = CARTESIAN_POINT ( 'NONE',  ( 0.0000000000000000000, 11.90000000000000000, -22.30000000000000800 ) ) ;
#297 = CARTESIAN_POINT ( 'NONE',  ( 0.0000000000000000000, 13.59999999999999300, -12.70000000000000100 ) ) ;
#298 = CARTESIAN_POINT ( 'NONE',  ( 0.0000000000000000000, 0.0000000000000000000, -35.00000000000000000 ) ) ;
#299 = AXIS2_PLACEMENT_3D ( 'NONE', #298, #294, #293 ) ;
#300 = DIRECTION ( 'NONE',  ( -0.0000000000000000000, 1.341169643171706100E-016, -1.000000000000000000 ) ) ;
#301 = ADVANCED_BREP_SHAPE_REPRESENTATION ( '12-0201-09_outokumpu', ( #22, #307 ), #302 ) ;
#302 =( GEOMETRIC_REPRESENTATION_CONTEXT ( 3 ) GLOBAL_UNCERTAINTY_ASSIGNED_CONTEXT ( ( #303 ) ) GLOBAL_UNIT_ASSIGNED_CONTEXT ( ( #319, #318, #317 ) ) REPRESENTATION_CONTEXT ( 'NONE', 'WORKASPACE' ) );
#303 = UNCERTAINTY_MEASURE_WITH_UNIT (LENGTH_MEASURE( 1.000000000000000100E-005 ), #319, 'distance_accuracy_value', 'NONE');
#304 = VECTOR ( 'NONE', #300, 1000.000000000000000 ) ;
#305 = CARTESIAN_POINT ( 'NONE',  ( 0.0000000000000000000, 11.90000000000000200, -35.00000000000004300 ) ) ;
#306 = CARTESIAN_POINT ( 'NONE',  ( 0.0000000000000000000, 11.90000000000000000, -12.69999999999999800 ) ) ;
#307 = AXIS2_PLACEMENT_3D ( 'NONE', #270, #269, #268 ) ;
#308 = DIRECTION ( 'NONE',  ( 0.0000000000000000000, 1.000000000000000000, 0.0000000000000000000 ) ) ;
#309 = DIRECTION ( 'NONE',  ( -0.0000000000000000000, 1.341169643171706100E-016, -1.000000000000000000 ) ) ;
#310 = AXIS2_PLACEMENT_3D ( 'NONE', #316, #309, #308 ) ;
#311 = CIRCLE ( 'NONE', #310, 13.59999999999999800 ) ;
#312 = DIRECTION ( 'NONE',  ( -1.000000000000000000, 0.0000000000000000000, -0.0000000000000000000 ) ) ;
#313 = DIRECTION ( 'NONE',  ( 0.0000000000000000000, 0.0000000000000000000, -1.000000000000000000 ) ) ;
#314 = CARTESIAN_POINT ( 'NONE',  ( 0.0000000000000000000, 16.00000000000000000, -2.168404344971008900E-016 ) ) ;
#315 = AXIS2_PLACEMENT_3D ( 'NONE', #314, #313, #312 ) ;
#316 = CARTESIAN_POINT ( 'NONE',  ( 0.0000000000000000000, 1.224646799147357400E-015, -35.00000000000000000 ) ) ;
#317 =( NAMED_UNIT ( * ) SI_UNIT ( $, .STERADIAN. ) SOLID_ANGLE_UNIT ( ) );
#318 =( NAMED_UNIT ( * ) PLANE_ANGLE_UNIT ( ) SI_UNIT ( $, .RADIAN. ) );
#319 =( LENGTH_UNIT ( ) NAMED_UNIT ( * ) SI_UNIT ( .MILLI., .METRE. ) );
#320 = CYLINDRICAL_SURFACE ( 'NONE', #280, 16.00000000000000000 ) ;
#321 = DIRECTION ( 'NONE',  ( 0.0000000000000000000, 1.000000000000000000, 1.457750820148577100E-016 ) ) ;
#322 = DIRECTION ( 'NONE',  ( -0.0000000000000000000, 1.341169643171706100E-016, -1.000000000000000000 ) ) ;
#323 = CARTESIAN_POINT ( 'NONE',  ( 0.0000000000000000000, -1.766161505125547600E-015, -12.69999999999999900 ) ) ;
#324 = AXIS2_PLACEMENT_3D ( 'NONE', #323, #322, #321 ) ;
#325 = CIRCLE ( 'NONE', #324, 11.90000000000000200 ) ;
#326 = DIRECTION ( 'NONE',  ( 0.0000000000000000000, 1.000000000000000000, 0.0000000000000000000 ) ) ;
#327 = DIRECTION ( 'NONE',  ( -0.0000000000000000000, 1.341169643171706100E-016, -1.000000000000000000 ) ) ;
#328 = AXIS2_PLACEMENT_3D ( 'NONE', #256, #327, #326 ) ;
#329 = CYLINDRICAL_SURFACE ( 'NONE', #328, 11.90000000000000000 ) ;
#330 = FACE_BOUND ( 'NONE', #14, .T. ) ;
#331 = DIRECTION ( 'NONE',  ( 0.0000000000000000000, 1.000000000000000000, 0.0000000000000000000 ) ) ;
#332 = DIRECTION ( 'NONE',  ( -0.0000000000000000000, 1.341169643171706100E-016, -1.000000000000000000 ) ) ;
#333 = CARTESIAN_POINT ( 'NONE',  ( 0.0000000000000000000, 1.224646799147362900E-015, -35.00000000000004300 ) ) ;
#334 = PLANE ( 'NONE',  #315 ) ;
#335 = FACE_OUTER_BOUND ( 'NONE', #11, .T. ) ;
#336 = LINE ( 'NONE', #305, #304 ) ;
#337 = DIRECTION ( 'NONE',  ( -0.0000000000000000000, -0.0000000000000000000, 1.000000000000000000 ) ) ;
#338 = APPROVAL_PERSON_ORGANIZATION ( #342, #340, #339 ) ;
#339 = APPROVAL_ROLE ( '' ) ;
#340 = APPROVAL ( #341, 'UNSPECIFIED' ) ;
#341 = APPROVAL_STATUS ( 'not_yet_approved' ) ;
#342 = PERSON_AND_ORGANIZATION ( #289, #383 ) ;
#343 = PRODUCT_DEFINITION_FORMATION_WITH_SPECIFIED_SOURCE ( 'ANY', '', #290, .NOT_KNOWN. ) ;
#344 = CC_DESIGN_DATE_AND_TIME_ASSIGNMENT ( #378, #377, ( #364 ) ) ;
#345 = CC_DESIGN_PERSON_AND_ORGANIZATION_ASSIGNMENT ( #347, #346, ( #290 ) ) ;
#346 = PERSON_AND_ORGANIZATION_ROLE ( 'design_owner' ) ;
#347 = PERSON_AND_ORGANIZATION ( #289, #383 ) ;
#348 = DATE_AND_TIME ( #388, #349 ) ;
#349 = LOCAL_TIME ( 10, 14, 42.00000000000000000, #350 ) ;
#350 = COORDINATED_UNIVERSAL_TIME_OFFSET ( 1, 0, .AHEAD. ) ;
#351 = APPROVAL_PERSON_ORGANIZATION ( #363, #353, #352 ) ;
#352 = APPROVAL_ROLE ( '' ) ;
#353 = APPROVAL ( #362, 'UNSPECIFIED' ) ;
#354 = COORDINATED_UNIVERSAL_TIME_OFFSET ( 1, 0, .AHEAD. ) ;
#355 = CC_DESIGN_PERSON_AND_ORGANIZATION_ASSIGNMENT ( #357, #356, ( #358 ) ) ;
#356 = PERSON_AND_ORGANIZATION_ROLE ( 'classification_officer' ) ;
#357 = PERSON_AND_ORGANIZATION ( #289, #383 ) ;
#358 = SECURITY_CLASSIFICATION ( '', '', #359 ) ;
#359 = SECURITY_CLASSIFICATION_LEVEL ( 'unclassified' ) ;
#360 = CC_DESIGN_PERSON_AND_ORGANIZATION_ASSIGNMENT ( #367, #361, ( #343 ) ) ;
#361 = PERSON_AND_ORGANIZATION_ROLE ( 'design_supplier' ) ;
#362 = APPROVAL_STATUS ( 'not_yet_approved' ) ;
#363 = PERSON_AND_ORGANIZATION ( #289, #383 ) ;
#364 = PRODUCT_DEFINITION ( 'UNKNOWN', '', #343, #365 ) ;
#365 = DESIGN_CONTEXT ( 'detailed design', #409, 'design' ) ;
#366 = APPLICATION_PROTOCOL_DEFINITION ( 'international standard', 'config_control_design', 1994, #409 ) ;
#367 = PERSON_AND_ORGANIZATION ( #289, #383 ) ;
#368 = CC_DESIGN_PERSON_AND_ORGANIZATION_ASSIGNMENT ( #370, #369, ( #343 ) ) ;
#369 = PERSON_AND_ORGANIZATION_ROLE ( 'creator' ) ;
#370 = PERSON_AND_ORGANIZATION ( #289, #383 ) ;
#371 = CC_DESIGN_APPROVAL ( #340, ( #343 ) ) ;
#372 = APPROVAL_DATE_TIME ( #373, #340 ) ;
#373 = DATE_AND_TIME ( #374, #375 ) ;
#374 = CALENDAR_DATE ( 2015, 12, 8 ) ;
#375 = LOCAL_TIME ( 10, 14, 42.00000000000000000, #376 ) ;
#376 = COORDINATED_UNIVERSAL_TIME_OFFSET ( 1, 0, .AHEAD. ) ;
#377 = DATE_TIME_ROLE ( 'creation_date' ) ;
#378 = DATE_AND_TIME ( #379, #380 ) ;
#379 = CALENDAR_DATE ( 2015, 12, 8 ) ;
#380 = LOCAL_TIME ( 10, 14, 42.00000000000000000, #381 ) ;
#381 = COORDINATED_UNIVERSAL_TIME_OFFSET ( 1, 0, .AHEAD. ) ;
#382 = CC_DESIGN_PERSON_AND_ORGANIZATION_ASSIGNMENT ( #385, #384, ( #364 ) ) ;
#383 = ORGANIZATION ( 'UNSPECIFIED', 'UNSPECIFIED', '' ) ;
#384 = PERSON_AND_ORGANIZATION_ROLE ( 'creator' ) ;
#385 = PERSON_AND_ORGANIZATION ( #289, #383 ) ;
#386 = CC_DESIGN_APPROVAL ( #353, ( #364 ) ) ;
#387 = APPROVAL_DATE_TIME ( #348, #353 ) ;
#388 = CALENDAR_DATE ( 2015, 12, 8 ) ;
#389 = DATE_AND_TIME ( #390, #391 ) ;
#390 = CALENDAR_DATE ( 2015, 12, 8 ) ;
#391 = LOCAL_TIME ( 10, 14, 42.00000000000000000, #392 ) ;
#392 = COORDINATED_UNIVERSAL_TIME_OFFSET ( 1, 0, .AHEAD. ) ;
#393 = APPROVAL_PERSON_ORGANIZATION ( #397, #395, #394 ) ;
#394 = APPROVAL_ROLE ( '' ) ;
#395 = APPROVAL ( #396, 'UNSPECIFIED' ) ;
#396 = APPROVAL_STATUS ( 'not_yet_approved' ) ;
#397 = PERSON_AND_ORGANIZATION ( #289, #383 ) ;
#398 = CC_DESIGN_DATE_AND_TIME_ASSIGNMENT ( #400, #399, ( #358 ) ) ;
#399 = DATE_TIME_ROLE ( 'classification_date' ) ;
#400 = DATE_AND_TIME ( #401, #402 ) ;
#401 = CALENDAR_DATE ( 2015, 12, 8 ) ;
#402 = LOCAL_TIME ( 10, 14, 42.00000000000000000, #354 ) ;
#403 = SHAPE_DEFINITION_REPRESENTATION ( #404, #301 ) ;
#404 = PRODUCT_DEFINITION_SHAPE ( 'NONE', 'NONE',  #364 ) ;
#405 = PRODUCT_RELATED_PRODUCT_CATEGORY ( 'detail', '', ( #290 ) ) ;
#406 = CC_DESIGN_SECURITY_CLASSIFICATION ( #358, ( #343 ) ) ;
#407 = CC_DESIGN_APPROVAL ( #395, ( #358 ) ) ;
#408 = APPROVAL_DATE_TIME ( #389, #395 ) ;
#409 = APPLICATION_CONTEXT ( 'configuration controlled 3d designs of mechanical parts and assemblies' ) ;
ENDSEC;
END-ISO-10303-21;
