ISO-10303-21;
HEADER;
FILE_DESCRIPTION (( 'STEP AP203' ),
    '1' );
FILE_NAME ('3D_M2060_40-20_174121055.STEP',
    '2024-09-05T10:17:50',
    ( '' ),
    ( '' ),
    'SwSTEP 2.0',
    'SolidWorks 2024',
    '' );
FILE_SCHEMA (( 'CONFIG_CONTROL_DESIGN' ));
ENDSEC;

DATA;
#1 = FACE_OUTER_BOUND ( 'NONE', #143, .T. ) ;
#2 = EDGE_CURVE ( 'NONE', #82, #152, #192, .T. ) ;
#3 = LOCAL_TIME ( 12, 17, 50.00000000000000000, #151 ) ;
#4 = DIRECTION ( 'NONE',  ( 0.000000000000000000, 0.000000000000000000, -1.000000000000000000 ) ) ;
#5 = ORIENTED_EDGE ( 'NONE', *, *, #176, .T. ) ;
#6 = DIRECTION ( 'NONE',  ( 0.000000000000000000, 0.000000000000000000, -1.000000000000000000 ) ) ;
#7 = CARTESIAN_POINT ( 'NONE',  ( 33.00000000000000000, 1.585331651743552960E-15, -8.445215329410265426 ) ) ;
#8 = CIRCLE ( 'NONE', #164, 8.445215329410265426 ) ;
#9 = FACE_OUTER_BOUND ( 'NONE', #111, .T. ) ;
#10 = AXIS2_PLACEMENT_3D ( 'NONE', #127, #28, #168 ) ;
#11 = CC_DESIGN_PERSON_AND_ORGANIZATION_ASSIGNMENT ( #71, #245, ( #49 ) ) ;
#12 = LOCAL_TIME ( 12, 17, 50.00000000000000000, #52 ) ;
#13 = CARTESIAN_POINT ( 'NONE',  ( 0.000000000000000000, 0.000000000000000000, 0.000000000000000000 ) ) ;
#14 = LOCAL_TIME ( 12, 17, 50.00000000000000000, #211 ) ;
#15 = PERSON_AND_ORGANIZATION ( #103, #64 ) ;
#16 = ORIENTED_EDGE ( 'NONE', *, *, #205, .T. ) ;
#17 = EDGE_CURVE ( 'NONE', #18, #55, #117, .T. ) ;
#18 = VERTEX_POINT ( 'NONE', #116 ) ;
#19 = COORDINATED_UNIVERSAL_TIME_OFFSET ( 1, 0, .AHEAD. ) ;
#20 = ORIENTED_EDGE ( 'NONE', *, *, #129, .F. ) ;
#21 = DATE_AND_TIME ( #41, #14 ) ;
#22 = ORIENTED_EDGE ( 'NONE', *, *, #90, .F. ) ;
#23 = APPROVAL_ROLE ( '' ) ;
#24 = CARTESIAN_POINT ( 'NONE',  ( 33.00000000000000000, 0.000000000000000000, 0.000000000000000000 ) ) ;
#25 = LINE ( 'NONE', #50, #210 ) ;
#26 = FACE_BOUND ( 'NONE', #131, .T. ) ;
#27 = DIRECTION ( 'NONE',  ( 0.000000000000000000, 0.000000000000000000, 1.000000000000000000 ) ) ;
#28 = DIRECTION ( 'NONE',  ( 1.000000000000000000, 0.000000000000000000, 0.000000000000000000 ) ) ;
#29 = CONICAL_SURFACE ( 'NONE', #200, 10.00000000000000000, 0.2662520491509253739 ) ;
#30 = CALENDAR_DATE ( 2024, 5, 9 ) ;
#31 = ORIENTED_EDGE ( 'NONE', *, *, #108, .T. ) ;
#32 = VECTOR ( 'NONE', #39, 1000.000000000000114 ) ;
#33 = PERSON_AND_ORGANIZATION_ROLE ( 'design_owner' ) ;
#34 = ORIENTED_EDGE ( 'NONE', *, *, #225, .T. ) ;
#35 = EDGE_LOOP ( 'NONE', ( #20, #16, #31, #113 ) ) ;
#36 = AXIS2_PLACEMENT_3D ( 'NONE', #57, #136, #86 ) ;
#37 = CC_DESIGN_DATE_AND_TIME_ASSIGNMENT ( #204, #173, ( #49 ) ) ;
#38 = VERTEX_POINT ( 'NONE', #7 ) ;
#39 = DIRECTION ( 'NONE',  ( -0.9647638212377321887, 3.222258888032611890E-17, -0.2631174057921087939 ) ) ;
#40 = CC_DESIGN_APPROVAL ( #104, ( #201 ) ) ;
#41 = CALENDAR_DATE ( 2024, 5, 9 ) ;
#42 = ORIENTED_EDGE ( 'NONE', *, *, #209, .T. ) ;
#43 = FACE_BOUND ( 'NONE', #54, .T. ) ;
#44 = CARTESIAN_POINT ( 'NONE',  ( 33.00000000000000000, 6.123233995736766282E-16, -10.00000000000000000 ) ) ;
#45 = EDGE_CURVE ( 'NONE', #38, #18, #190, .T. ) ;
#46 = LINE ( 'NONE', #243, #59 ) ;
#47 = CARTESIAN_POINT ( 'NONE',  ( 0.000000000000000000, 0.000000000000000000, 0.000000000000000000 ) ) ;
#48 = DIRECTION ( 'NONE',  ( 0.000000000000000000, 0.000000000000000000, 1.000000000000000000 ) ) ;
#49 = PRODUCT_DEFINITION ( 'UNKNOWN', '', #201, #167 ) ;
#50 = CARTESIAN_POINT ( 'NONE',  ( 32.60532389131183351, 0.000000000000000000, 8.552854268143402550 ) ) ;
#51 = CONICAL_SURFACE ( 'NONE', #83, 10.00000000000000000, 0.2662520491509253739 ) ;
#52 = COORDINATED_UNIVERSAL_TIME_OFFSET ( 1, 0, .AHEAD. ) ;
#53 = ADVANCED_FACE ( 'NONE', ( #99 ), #51, .T. ) ;
#54 = EDGE_LOOP ( 'NONE', ( #22, #139 ) ) ;
#55 = VERTEX_POINT ( 'NONE', #238 ) ;
#56 = CC_DESIGN_PERSON_AND_ORGANIZATION_ASSIGNMENT ( #148, #33, ( #75 ) ) ;
#57 = CARTESIAN_POINT ( 'NONE',  ( 32.60532389131183351, 0.000000000000000000, 0.000000000000000000 ) ) ;
#58 = APPROVAL_DATE_TIME ( #193, #104 ) ;
#59 = VECTOR ( 'NONE', #106, 1000.000000000000114 ) ;
#60 = DIRECTION ( 'NONE',  ( 0.000000000000000000, 0.000000000000000000, 1.000000000000000000 ) ) ;
#61 = APPROVAL_DATE_TIME ( #21, #124 ) ;
#62 = VERTEX_POINT ( 'NONE', #44 ) ;
#63 = AXIS2_PLACEMENT_3D ( 'NONE', #84, #196, #174 ) ;
#64 = ORGANIZATION ( 'UNSPECIFIED', 'UNSPECIFIED', '' ) ;
#65 = PERSON_AND_ORGANIZATION_ROLE ( 'design_supplier' ) ;
#66 = CARTESIAN_POINT ( 'NONE',  ( 33.00000000000000000, 0.000000000000000000, 0.000000000000000000 ) ) ;
#67 = CARTESIAN_POINT ( 'NONE',  ( 33.00000000000000000, 0.000000000000000000, 0.000000000000000000 ) ) ;
#68 = UNCERTAINTY_MEASURE_WITH_UNIT (LENGTH_MEASURE( 1.000000000000000082E-05 ), #224, 'distance_accuracy_value', 'NONE');
#69 = AXIS2_PLACEMENT_3D ( 'NONE', #126, #87, #70 ) ;
#70 = DIRECTION ( 'NONE',  ( 0.000000000000000000, 0.000000000000000000, -1.000000000000000000 ) ) ;
#71 = PERSON_AND_ORGANIZATION ( #103, #64 ) ;
#72 = CC_DESIGN_PERSON_AND_ORGANIZATION_ASSIGNMENT ( #191, #95, ( #74 ) ) ;
#73 = ORIENTED_EDGE ( 'NONE', *, *, #129, .T. ) ;
#74 = SECURITY_CLASSIFICATION ( '', '', #240 ) ;
#75 = PRODUCT ( '3D_M2060_40-20_174121055', '3D_M2060_40-20_174121055', '', ( #169 ) ) ;
#76 = ORIENTED_EDGE ( 'NONE', *, *, #209, .F. ) ;
#77 = CARTESIAN_POINT ( 'NONE',  ( 33.00000000000000000, 6.123233995736766282E-16, 10.00000000000000000 ) ) ;
#78 = CIRCLE ( 'NONE', #63, 19.00000000000000000 ) ;
#79 = ORIENTED_EDGE ( 'NONE', *, *, #45, .T. ) ;
#80 = DIRECTION ( 'NONE',  ( 0.000000000000000000, 0.000000000000000000, 1.000000000000000000 ) ) ;
#81 = COORDINATED_UNIVERSAL_TIME_OFFSET ( 1, 0, .AHEAD. ) ;
#82 = VERTEX_POINT ( 'NONE', #77 ) ;
#83 = AXIS2_PLACEMENT_3D ( 'NONE', #219, #138, #60 ) ;
#84 = CARTESIAN_POINT ( 'NONE',  ( 0.000000000000000000, 0.000000000000000000, 0.000000000000000000 ) ) ;
#85 = CLOSED_SHELL ( 'NONE', ( #161, #135, #144, #218, #53, #170 ) ) ;
#86 = DIRECTION ( 'NONE',  ( 0.000000000000000000, 0.000000000000000000, 1.000000000000000000 ) ) ;
#87 = DIRECTION ( 'NONE',  ( 1.000000000000000000, 0.000000000000000000, 0.000000000000000000 ) ) ;
#88 = EDGE_CURVE ( 'NONE', #82, #62, #182, .T. ) ;
#89 = CIRCLE ( 'NONE', #69, 8.445215329410265426 ) ;
#90 = EDGE_CURVE ( 'NONE', #186, #38, #8, .T. ) ;
#91 = AXIS2_PLACEMENT_3D ( 'NONE', #217, #119, #4 ) ;
#92 = EDGE_LOOP ( 'NONE', ( #206, #165 ) ) ;
#93 = CALENDAR_DATE ( 2024, 5, 9 ) ;
#94 = DIRECTION ( 'NONE',  ( 0.000000000000000000, 0.000000000000000000, -1.000000000000000000 ) ) ;
#95 = PERSON_AND_ORGANIZATION_ROLE ( 'classification_officer' ) ;
#96 = CARTESIAN_POINT ( 'NONE',  ( 33.00000000000000000, 0.000000000000000000, 0.000000000000000000 ) ) ;
#97 = LOCAL_TIME ( 12, 17, 50.00000000000000000, #81 ) ;
#98 = PERSON_AND_ORGANIZATION ( #103, #64 ) ;
#99 = FACE_OUTER_BOUND ( 'NONE', #236, .T. ) ;
#100 = CARTESIAN_POINT ( 'NONE',  ( 0.000000000000000000, 0.000000000000000000, 0.000000000000000000 ) ) ;
#101 = DIRECTION ( 'NONE',  ( 0.000000000000000000, 0.000000000000000000, -1.000000000000000000 ) ) ;
#102 = AXIS2_PLACEMENT_3D ( 'NONE', #145, #123, #48 ) ;
#103 = PERSON ( 'UNSPECIFIED', 'UNSPECIFIED', 'UNSPECIFIED', ('UNSPECIFIED'), ('UNSPECIFIED'), ('UNSPECIFIED') ) ;
#104 = APPROVAL ( #237, 'UNSPECIFIED' ) ;
#105 = CIRCLE ( 'NONE', #248, 10.00000000000000000 ) ;
#106 = DIRECTION ( 'NONE',  ( -0.9647638212377321887, 3.222258888032611890E-17, -0.2631174057921087939 ) ) ;
#107 = DATE_AND_TIME ( #30, #12 ) ;
#108 = EDGE_CURVE ( 'NONE', #249, #152, #215, .T. ) ;
#109 = CONICAL_SURFACE ( 'NONE', #102, 8.552854268143402550, 0.2662520491509253739 ) ;
#110 = CC_DESIGN_SECURITY_CLASSIFICATION ( #74, ( #201 ) ) ;
#111 = EDGE_LOOP ( 'NONE', ( #179, #34, #5, #246 ) ) ;
#112 = DATE_AND_TIME ( #93, #97 ) ;
#113 = ORIENTED_EDGE ( 'NONE', *, *, #2, .F. ) ;
#114 = CARTESIAN_POINT ( 'NONE',  ( 33.00000000000000000, 0.000000000000000000, 10.00000000000000000 ) ) ;
#115 = CC_DESIGN_PERSON_AND_ORGANIZATION_ASSIGNMENT ( #216, #187, ( #201 ) ) ;
#116 = CARTESIAN_POINT ( 'NONE',  ( 0.000000000000000000, 2.136422711359862507E-15, -17.44521532941026720 ) ) ;
#117 = CIRCLE ( 'NONE', #122, 17.44521532941026720 ) ;
#118 = APPROVAL_ROLE ( '' ) ;
#119 = DIRECTION ( 'NONE',  ( 1.000000000000000000, 0.000000000000000000, 0.000000000000000000 ) ) ;
#120 = PLANE ( 'NONE',  #140 ) ;
#121 = DIRECTION ( 'NONE',  ( 1.000000000000000000, 0.000000000000000000, 0.000000000000000000 ) ) ;
#122 = AXIS2_PLACEMENT_3D ( 'NONE', #100, #214, #6 ) ;
#123 = DIRECTION ( 'NONE',  ( -1.000000000000000000, -0.000000000000000000, -0.000000000000000000 ) ) ;
#124 = APPROVAL ( #134, 'UNSPECIFIED' ) ;
#125 = APPLICATION_CONTEXT ( 'configuration controlled 3d designs of mechanical parts and assemblies' ) ;
#126 = CARTESIAN_POINT ( 'NONE',  ( 33.00000000000000000, 0.000000000000000000, 0.000000000000000000 ) ) ;
#127 = CARTESIAN_POINT ( 'NONE',  ( 0.000000000000000000, 0.000000000000000000, 0.000000000000000000 ) ) ;
#128 = PLANE ( 'NONE',  #185 ) ;
#129 = EDGE_CURVE ( 'NONE', #62, #82, #105, .T. ) ;
#130 = APPROVAL_STATUS ( 'not_yet_approved' ) ;
#131 = EDGE_LOOP ( 'NONE', ( #42, #212 ) ) ;
#132 = APPROVAL_PERSON_ORGANIZATION ( #98, #124, #23 ) ;
#133 = ORIENTED_EDGE ( 'NONE', *, *, #205, .F. ) ;
#134 = APPROVAL_STATUS ( 'not_yet_approved' ) ;
#135 = ADVANCED_FACE ( 'NONE', ( #233 ), #29, .T. ) ;
#136 = DIRECTION ( 'NONE',  ( -1.000000000000000000, -0.000000000000000000, -0.000000000000000000 ) ) ;
#137 = APPLICATION_CONTEXT ( 'configuration controlled 3d designs of mechanical parts and assemblies' ) ;
#138 = DIRECTION ( 'NONE',  ( -1.000000000000000000, -0.000000000000000000, -0.000000000000000000 ) ) ;
#139 = ORIENTED_EDGE ( 'NONE', *, *, #225, .F. ) ;
#140 = AXIS2_PLACEMENT_3D ( 'NONE', #24, #121, #101 ) ;
#141 = APPROVAL_PERSON_ORGANIZATION ( #189, #104, #118 ) ;
#142 = DIRECTION ( 'NONE',  ( 1.000000000000000000, 0.000000000000000000, 0.000000000000000000 ) ) ;
#143 = EDGE_LOOP ( 'NONE', ( #154, #79, #76, #208 ) ) ;
#144 = ADVANCED_FACE ( 'NONE', ( #43, #162 ), #120, .T. ) ;
#145 = CARTESIAN_POINT ( 'NONE',  ( 32.60532389131183351, 0.000000000000000000, 0.000000000000000000 ) ) ;
#146 = APPROVAL_PERSON_ORGANIZATION ( #203, #239, #228 ) ;
#147 = CARTESIAN_POINT ( 'NONE',  ( 0.000000000000000000, 3.490243377569956456E-15, -19.00000000000000000 ) ) ;
#148 = PERSON_AND_ORGANIZATION ( #103, #64 ) ;
#149 = CC_DESIGN_APPROVAL ( #239, ( #49 ) ) ;
#150 = FACE_OUTER_BOUND ( 'NONE', #92, .T. ) ;
#151 = COORDINATED_UNIVERSAL_TIME_OFFSET ( 1, 0, .AHEAD. ) ;
#152 = VERTEX_POINT ( 'NONE', #180 ) ;
#153 = PRODUCT_RELATED_PRODUCT_CATEGORY ( 'detail', '', ( #75 ) ) ;
#154 = ORIENTED_EDGE ( 'NONE', *, *, #90, .T. ) ;
#155 = AXIS2_PLACEMENT_3D ( 'NONE', #47, #27, #181 ) ;
#156 = EDGE_CURVE ( 'NONE', #152, #249, #78, .T. ) ;
#157 = DIRECTION ( 'NONE',  ( -0.9647638212377321887, 0.000000000000000000, 0.2631174057921087939 ) ) ;
#158 = ADVANCED_BREP_SHAPE_REPRESENTATION ( '3D_M2060_40-20_174121055', ( #166, #155 ), #244 ) ;
#159 = CALENDAR_DATE ( 2024, 5, 9 ) ;
#160 = DIRECTION ( 'NONE',  ( 1.000000000000000000, 0.000000000000000000, 0.000000000000000000 ) ) ;
#161 = ADVANCED_FACE ( 'NONE', ( #1 ), #220, .F. ) ;
#162 = FACE_OUTER_BOUND ( 'NONE', #207, .T. ) ;
#163 = CARTESIAN_POINT ( 'NONE',  ( 32.60532389131183351, 1.047422560305559652E-15, -8.552854268143402550 ) ) ;
#164 = AXIS2_PLACEMENT_3D ( 'NONE', #67, #213, #194 ) ;
#165 = ORIENTED_EDGE ( 'NONE', *, *, #108, .F. ) ;
#166 = MANIFOLD_SOLID_BREP ( 'Wandung2', #85 ) ;
#167 = DESIGN_CONTEXT ( 'detailed design', #137, 'design' ) ;
#168 = DIRECTION ( 'NONE',  ( 0.000000000000000000, 0.000000000000000000, -1.000000000000000000 ) ) ;
#169 = MECHANICAL_CONTEXT ( 'NONE', #125, 'mechanical' ) ;
#170 = ADVANCED_FACE ( 'NONE', ( #9 ), #109, .F. ) ;
#171 = LOCAL_TIME ( 12, 17, 50.00000000000000000, #19 ) ;
#172 = CC_DESIGN_DATE_AND_TIME_ASSIGNMENT ( #112, #234, ( #74 ) ) ;
#173 = DATE_TIME_ROLE ( 'creation_date' ) ;
#174 = DIRECTION ( 'NONE',  ( 0.000000000000000000, 0.000000000000000000, -1.000000000000000000 ) ) ;
#175 = ORIENTED_EDGE ( 'NONE', *, *, #88, .F. ) ;
#176 = EDGE_CURVE ( 'NONE', #186, #55, #25, .T. ) ;
#177 = SHAPE_DEFINITION_REPRESENTATION ( #229, #158 ) ;
#178 = DIRECTION ( 'NONE',  ( -1.000000000000000000, -0.000000000000000000, -0.000000000000000000 ) ) ;
#179 = ORIENTED_EDGE ( 'NONE', *, *, #45, .F. ) ;
#180 = CARTESIAN_POINT ( 'NONE',  ( 0.000000000000000000, -1.163414459189985485E-15, 19.00000000000000000 ) ) ;
#181 = DIRECTION ( 'NONE',  ( 1.000000000000000000, 0.000000000000000000, 0.000000000000000000 ) ) ;
#182 = CIRCLE ( 'NONE', #223, 10.00000000000000000 ) ;
#183 = APPLICATION_PROTOCOL_DEFINITION ( 'international standard', 'config_control_design', 1994, #125 ) ;
#184 = APPROVAL_DATE_TIME ( #107, #239 ) ;
#185 = AXIS2_PLACEMENT_3D ( 'NONE', #13, #222, #242 ) ;
#186 = VERTEX_POINT ( 'NONE', #202 ) ;
#187 = PERSON_AND_ORGANIZATION_ROLE ( 'creator' ) ;
#188 = DIRECTION ( 'NONE',  ( 0.000000000000000000, 0.000000000000000000, -1.000000000000000000 ) ) ;
#189 = PERSON_AND_ORGANIZATION ( #103, #64 ) ;
#190 = LINE ( 'NONE', #163, #32 ) ;
#191 = PERSON_AND_ORGANIZATION ( #103, #64 ) ;
#192 = LINE ( 'NONE', #114, #230 ) ;
#193 = DATE_AND_TIME ( #159, #171 ) ;
#194 = DIRECTION ( 'NONE',  ( 0.000000000000000000, 0.000000000000000000, -1.000000000000000000 ) ) ;
#195 = CC_DESIGN_PERSON_AND_ORGANIZATION_ASSIGNMENT ( #15, #65, ( #201 ) ) ;
#196 = DIRECTION ( 'NONE',  ( 1.000000000000000000, 0.000000000000000000, 0.000000000000000000 ) ) ;
#197 = CIRCLE ( 'NONE', #10, 17.44521532941026720 ) ;
#198 =( NAMED_UNIT ( * ) SI_UNIT ( $, .STERADIAN. ) SOLID_ANGLE_UNIT ( ) );
#199 = DIRECTION ( 'NONE',  ( -0.9647638212377321887, 0.000000000000000000, 0.2631174057921087939 ) ) ;
#200 = AXIS2_PLACEMENT_3D ( 'NONE', #235, #178, #80 ) ;
#201 = PRODUCT_DEFINITION_FORMATION_WITH_SPECIFIED_SOURCE ( 'ANY', '', #75, .NOT_KNOWN. ) ;
#202 = CARTESIAN_POINT ( 'NONE',  ( 33.00000000000000000, 0.000000000000000000, 8.445215329410265426 ) ) ;
#203 = PERSON_AND_ORGANIZATION ( #103, #64 ) ;
#204 = DATE_AND_TIME ( #226, #3 ) ;
#205 = EDGE_CURVE ( 'NONE', #62, #249, #46, .T. ) ;
#206 = ORIENTED_EDGE ( 'NONE', *, *, #156, .F. ) ;
#207 = EDGE_LOOP ( 'NONE', ( #227, #73 ) ) ;
#208 = ORIENTED_EDGE ( 'NONE', *, *, #176, .F. ) ;
#209 = EDGE_CURVE ( 'NONE', #55, #18, #197, .T. ) ;
#210 = VECTOR ( 'NONE', #199, 1000.000000000000114 ) ;
#211 = COORDINATED_UNIVERSAL_TIME_OFFSET ( 1, 0, .AHEAD. ) ;
#212 = ORIENTED_EDGE ( 'NONE', *, *, #17, .T. ) ;
#213 = DIRECTION ( 'NONE',  ( 1.000000000000000000, 0.000000000000000000, 0.000000000000000000 ) ) ;
#214 = DIRECTION ( 'NONE',  ( 1.000000000000000000, 0.000000000000000000, 0.000000000000000000 ) ) ;
#215 = CIRCLE ( 'NONE', #91, 19.00000000000000000 ) ;
#216 = PERSON_AND_ORGANIZATION ( #103, #64 ) ;
#217 = CARTESIAN_POINT ( 'NONE',  ( 0.000000000000000000, 0.000000000000000000, 0.000000000000000000 ) ) ;
#218 = ADVANCED_FACE ( 'NONE', ( #26, #150 ), #128, .F. ) ;
#219 = CARTESIAN_POINT ( 'NONE',  ( 33.00000000000000000, 0.000000000000000000, 0.000000000000000000 ) ) ;
#220 = CONICAL_SURFACE ( 'NONE', #36, 8.552854268143402550, 0.2662520491509253739 ) ;
#221 =( NAMED_UNIT ( * ) PLANE_ANGLE_UNIT ( ) SI_UNIT ( $, .RADIAN. ) );
#222 = DIRECTION ( 'NONE',  ( 1.000000000000000000, 0.000000000000000000, 0.000000000000000000 ) ) ;
#223 = AXIS2_PLACEMENT_3D ( 'NONE', #66, #142, #188 ) ;
#224 =( LENGTH_UNIT ( ) NAMED_UNIT ( * ) SI_UNIT ( .MILLI., .METRE. ) );
#225 = EDGE_CURVE ( 'NONE', #38, #186, #89, .T. ) ;
#226 = CALENDAR_DATE ( 2024, 5, 9 ) ;
#227 = ORIENTED_EDGE ( 'NONE', *, *, #88, .T. ) ;
#228 = APPROVAL_ROLE ( '' ) ;
#229 = PRODUCT_DEFINITION_SHAPE ( 'NONE', 'NONE',  #49 ) ;
#230 = VECTOR ( 'NONE', #157, 1000.000000000000114 ) ;
#231 = APPLICATION_PROTOCOL_DEFINITION ( 'international standard', 'config_control_design', 1994, #137 ) ;
#232 = CC_DESIGN_APPROVAL ( #124, ( #74 ) ) ;
#233 = FACE_OUTER_BOUND ( 'NONE', #35, .T. ) ;
#234 = DATE_TIME_ROLE ( 'classification_date' ) ;
#235 = CARTESIAN_POINT ( 'NONE',  ( 33.00000000000000000, 0.000000000000000000, 0.000000000000000000 ) ) ;
#236 = EDGE_LOOP ( 'NONE', ( #133, #175, #241, #247 ) ) ;
#237 = APPROVAL_STATUS ( 'not_yet_approved' ) ;
#238 = CARTESIAN_POINT ( 'NONE',  ( 0.000000000000000000, 0.000000000000000000, 17.44521532941026720 ) ) ;
#239 = APPROVAL ( #130, 'UNSPECIFIED' ) ;
#240 = SECURITY_CLASSIFICATION_LEVEL ( 'unclassified' ) ;
#241 = ORIENTED_EDGE ( 'NONE', *, *, #2, .T. ) ;
#242 = DIRECTION ( 'NONE',  ( 0.000000000000000000, 0.000000000000000000, -1.000000000000000000 ) ) ;
#243 = CARTESIAN_POINT ( 'NONE',  ( 33.00000000000000000, 1.224646799147353256E-15, -10.00000000000000000 ) ) ;
#244 =( GEOMETRIC_REPRESENTATION_CONTEXT ( 3 ) GLOBAL_UNCERTAINTY_ASSIGNED_CONTEXT ( ( #68 ) ) GLOBAL_UNIT_ASSIGNED_CONTEXT ( ( #224, #221, #198 ) ) REPRESENTATION_CONTEXT ( 'NONE', 'WORKASPACE' ) );
#245 = PERSON_AND_ORGANIZATION_ROLE ( 'creator' ) ;
#246 = ORIENTED_EDGE ( 'NONE', *, *, #17, .F. ) ;
#247 = ORIENTED_EDGE ( 'NONE', *, *, #156, .T. ) ;
#248 = AXIS2_PLACEMENT_3D ( 'NONE', #96, #160, #94 ) ;
#249 = VERTEX_POINT ( 'NONE', #147 ) ;
ENDSEC;
END-ISO-10303-21;
