ISO-10303-21;
HEADER;
FILE_DESCRIPTION (( 'STEP AP203' ),
    '1' );
FILE_NAME ('3D_R1655_26.9x2_17362125.STEP',
    '2024-08-05T08:43:16',
    ( '' ),
    ( '' ),
    'SwSTEP 2.0',
    'SolidWorks 2024',
    '' );
FILE_SCHEMA (( 'CONFIG_CONTROL_DESIGN' ));
ENDSEC;

DATA;
#1 = AXIS2_PLACEMENT_3D ( 'NONE', #75, #223, #116 ) ;
#2 = PERSON_AND_ORGANIZATION_ROLE ( 'design_supplier' ) ;
#3 = ORIENTED_EDGE ( 'NONE', *, *, #103, .T. ) ;
#4 = PRODUCT_DEFINITION_SHAPE ( 'NONE', 'NONE',  #105 ) ;
#5 = PERSON_AND_ORGANIZATION_ROLE ( 'classification_officer' ) ;
#6 = EDGE_LOOP ( 'NONE', ( #110, #218 ) ) ;
#7 = CC_DESIGN_DATE_AND_TIME_ASSIGNMENT ( #177, #217, ( #60 ) ) ;
#8 = COORDINATED_UNIVERSAL_TIME_OFFSET ( 1, 0, .AHEAD. ) ;
#9 = ORIENTED_EDGE ( 'NONE', *, *, #38, .F. ) ;
#10 = ORIENTED_EDGE ( 'NONE', *, *, #103, .F. ) ;
#11 = FACE_OUTER_BOUND ( 'NONE', #73, .T. ) ;
#12 = CC_DESIGN_PERSON_AND_ORGANIZATION_ASSIGNMENT ( #230, #141, ( #105 ) ) ;
#13 = CARTESIAN_POINT ( 'NONE',  ( -57.00000000000000000, 0.000000000000000000, -1.385951437259359111E-14 ) ) ;
#14 = FACE_BOUND ( 'NONE', #26, .T. ) ;
#15 = CARTESIAN_POINT ( 'NONE',  ( 0.000000000000000000, 0.000000000000000000, 0.000000000000000000 ) ) ;
#16 = DIRECTION ( 'NONE',  ( 0.000000000000000000, 1.000000000000000000, 0.000000000000000000 ) ) ;
#17 = DIRECTION ( 'NONE',  ( -2.431493749577822656E-16, 0.000000000000000000, 1.000000000000000000 ) ) ;
#18 = CIRCLE ( 'NONE', #53, 11.44999999999999574 ) ;
#19 = PERSON_AND_ORGANIZATION ( #117, #237 ) ;
#20 = DESIGN_CONTEXT ( 'detailed design', #115, 'design' ) ;
#21 = APPROVAL_DATE_TIME ( #66, #62 ) ;
#22 = SHAPE_DEFINITION_REPRESENTATION ( #4, #43 ) ;
#23 = PRODUCT ( '3D_R1655_26.9x2_17362125', '3D_R1655_26.9x2_17362125', '', ( #121 ) ) ;
#24 = PERSON_AND_ORGANIZATION ( #117, #237 ) ;
#25 = CALENDAR_DATE ( 2024, 5, 8 ) ;
#26 = EDGE_LOOP ( 'NONE', ( #224, #50 ) ) ;
#27 = PERSON_AND_ORGANIZATION ( #117, #237 ) ;
#28 = VERTEX_POINT ( 'NONE', #239 ) ;
#29 = ORIENTED_EDGE ( 'NONE', *, *, #168, .T. ) ;
#30 = EDGE_CURVE ( 'NONE', #125, #106, #220, .T. ) ;
#31 = DIRECTION ( 'NONE',  ( 0.000000000000000000, 0.000000000000000000, 1.000000000000000000 ) ) ;
#32 = APPROVAL_PERSON_ORGANIZATION ( #85, #62, #191 ) ;
#33 = DIRECTION ( 'NONE',  ( -2.431493749577822656E-16, 0.000000000000000000, 1.000000000000000000 ) ) ;
#34 = DIRECTION ( 'NONE',  ( 0.000000000000000000, 1.000000000000000000, 0.000000000000000000 ) ) ;
#35 = DIRECTION ( 'NONE',  ( 0.000000000000000000, 1.000000000000000000, 0.000000000000000000 ) ) ;
#36 = DIRECTION ( 'NONE',  ( -2.431493749577826600E-16, 0.000000000000000000, 1.000000000000000000 ) ) ;
#37 = PERSON_AND_ORGANIZATION ( #117, #237 ) ;
#38 = EDGE_CURVE ( 'NONE', #235, #28, #68, .T. ) ;
#39 = CARTESIAN_POINT ( 'NONE',  ( -1.668223237351513744E-13, 0.000000000000000000, -57.00000000000000000 ) ) ;
#40 = CIRCLE ( 'NONE', #80, 11.44999999999999574 ) ;
#41 = PERSON_AND_ORGANIZATION_ROLE ( 'design_owner' ) ;
#42 =( LENGTH_UNIT ( ) NAMED_UNIT ( * ) SI_UNIT ( .MILLI., .METRE. ) );
#43 = ADVANCED_BREP_SHAPE_REPRESENTATION ( '3D_R1655_26.9x2_17362125', ( #183, #71 ), #143 ) ;
#44 = DATE_AND_TIME ( #165, #124 ) ;
#45 = CIRCLE ( 'NONE', #204, 13.44999999999999751 ) ;
#46 = COORDINATED_UNIVERSAL_TIME_OFFSET ( 1, 0, .AHEAD. ) ;
#47 = ADVANCED_FACE ( 'NONE', ( #57 ), #65, .F. ) ;
#48 = ORIENTED_EDGE ( 'NONE', *, *, #157, .F. ) ;
#49 = APPROVAL_STATUS ( 'not_yet_approved' ) ;
#50 = ORIENTED_EDGE ( 'NONE', *, *, #195, .F. ) ;
#51 = ADVANCED_FACE ( 'NONE', ( #154, #225 ), #136, .F. ) ;
#52 = DIRECTION ( 'NONE',  ( -1.000000000000000000, 0.000000000000000000, 2.926707433950024016E-15 ) ) ;
#53 = AXIS2_PLACEMENT_3D ( 'NONE', #182, #167, #100 ) ;
#54 = DIRECTION ( 'NONE',  ( 1.000000000000000000, 0.000000000000000000, 2.431493749577827094E-16 ) ) ;
#55 = AXIS2_PLACEMENT_3D ( 'NONE', #181, #197, #170 ) ;
#56 = DIRECTION ( 'NONE',  ( 1.000000000000000000, 0.000000000000000000, 2.431493749577826600E-16 ) ) ;
#57 = FACE_OUTER_BOUND ( 'NONE', #59, .T. ) ;
#58 = EDGE_CURVE ( 'NONE', #163, #28, #208, .T. ) ;
#59 = EDGE_LOOP ( 'NONE', ( #9, #10, #29, #127 ) ) ;
#60 = SECURITY_CLASSIFICATION ( '', '', #161 ) ;
#61 = COORDINATED_UNIVERSAL_TIME_OFFSET ( 1, 0, .AHEAD. ) ;
#62 = APPROVAL ( #160, 'UNSPECIFIED' ) ;
#63 = CARTESIAN_POINT ( 'NONE',  ( -1.702111079750350804E-13, 0.000000000000000000, -57.00000000000000000 ) ) ;
#64 = CARTESIAN_POINT ( 'NONE',  ( 0.000000000000000000, 0.000000000000000000, 0.000000000000000000 ) ) ;
#65 = TOROIDAL_SURFACE ( 'NONE', #88, 57.00000000000000000, 11.44999999999999751 ) ;
#66 = DATE_AND_TIME ( #249, #138 ) ;
#67 = CALENDAR_DATE ( 2024, 5, 8 ) ;
#68 = CIRCLE ( 'NONE', #77, 68.45000000000000284 ) ;
#69 = VERTEX_POINT ( 'NONE', #203 ) ;
#70 = APPROVAL_DATE_TIME ( #44, #211 ) ;
#71 = AXIS2_PLACEMENT_3D ( 'NONE', #64, #193, #245 ) ;
#72 = CC_DESIGN_PERSON_AND_ORGANIZATION_ASSIGNMENT ( #37, #126, ( #95 ) ) ;
#73 = EDGE_LOOP ( 'NONE', ( #232, #109, #179, #93 ) ) ;
#74 = ORIENTED_EDGE ( 'NONE', *, *, #205, .T. ) ;
#75 = CARTESIAN_POINT ( 'NONE',  ( -57.00000000000000000, 0.000000000000000000, -1.385951437259359111E-14 ) ) ;
#76 = DIRECTION ( 'NONE',  ( 0.000000000000000000, 0.000000000000000000, 1.000000000000000000 ) ) ;
#77 = AXIS2_PLACEMENT_3D ( 'NONE', #200, #133, #76 ) ;
#78 = TOROIDAL_SURFACE ( 'NONE', #153, 57.00000000000000000, 13.44999999999999751 ) ;
#79 = CARTESIAN_POINT ( 'NONE',  ( 0.000000000000000000, 0.000000000000000000, 0.000000000000000000 ) ) ;
#80 = AXIS2_PLACEMENT_3D ( 'NONE', #13, #156, #122 ) ;
#81 = CARTESIAN_POINT ( 'NONE',  ( -45.55000000000000426, 0.000000000000000000, -1.107545402932698470E-14 ) ) ;
#82 = FACE_OUTER_BOUND ( 'NONE', #234, .T. ) ;
#83 = PERSON_AND_ORGANIZATION ( #117, #237 ) ;
#84 = CC_DESIGN_APPROVAL ( #62, ( #105 ) ) ;
#85 = PERSON_AND_ORGANIZATION ( #117, #237 ) ;
#86 = DIRECTION ( 'NONE',  ( 0.000000000000000000, 0.000000000000000000, 1.000000000000000000 ) ) ;
#87 = DIRECTION ( 'NONE',  ( 2.926707433950024016E-15, 0.000000000000000000, 1.000000000000000000 ) ) ;
#88 = AXIS2_PLACEMENT_3D ( 'NONE', #79, #34, #222 ) ;
#89 = ADVANCED_FACE ( 'NONE', ( #14, #135 ), #130, .T. ) ;
#90 = CIRCLE ( 'NONE', #107, 45.55000000000000426 ) ;
#91 = APPROVAL_ROLE ( '' ) ;
#92 = CIRCLE ( 'NONE', #243, 11.44999999999999574 ) ;
#93 = ORIENTED_EDGE ( 'NONE', *, *, #168, .F. ) ;
#94 = ORIENTED_EDGE ( 'NONE', *, *, #252, .F. ) ;
#95 = PRODUCT_DEFINITION_FORMATION_WITH_SPECIFIED_SOURCE ( 'ANY', '', #23, .NOT_KNOWN. ) ;
#96 = CARTESIAN_POINT ( 'NONE',  ( -1.702111079750350804E-13, 0.000000000000000000, -57.00000000000000000 ) ) ;
#97 = DIRECTION ( 'NONE',  ( 0.000000000000000000, 1.000000000000000000, 0.000000000000000000 ) ) ;
#98 = EDGE_CURVE ( 'NONE', #69, #152, #240, .T. ) ;
#99 = CIRCLE ( 'NONE', #228, 13.44999999999999751 ) ;
#100 = DIRECTION ( 'NONE',  ( 2.926707433950024016E-15, 0.000000000000000000, 1.000000000000000000 ) ) ;
#101 = DIRECTION ( 'NONE',  ( 0.000000000000000000, 0.000000000000000000, 1.000000000000000000 ) ) ;
#102 = DIRECTION ( 'NONE',  ( -1.000000000000000000, 0.000000000000000000, 2.926707433950024016E-15 ) ) ;
#103 = EDGE_CURVE ( 'NONE', #178, #235, #18, .T. ) ;
#104 = DATE_TIME_ROLE ( 'creation_date' ) ;
#105 = PRODUCT_DEFINITION ( 'UNKNOWN', '', #95, #20 ) ;
#106 = VERTEX_POINT ( 'NONE', #180 ) ;
#107 = AXIS2_PLACEMENT_3D ( 'NONE', #219, #35, #185 ) ;
#108 = ORIENTED_EDGE ( 'NONE', *, *, #252, .T. ) ;
#109 = ORIENTED_EDGE ( 'NONE', *, *, #38, .T. ) ;
#110 = ORIENTED_EDGE ( 'NONE', *, *, #205, .F. ) ;
#111 = CARTESIAN_POINT ( 'NONE',  ( -1.333115236164236097E-13, 0.000000000000000000, -45.55000000000000426 ) ) ;
#112 = CC_DESIGN_APPROVAL ( #211, ( #60 ) ) ;
#113 = DIRECTION ( 'NONE',  ( 0.000000000000000000, 0.000000000000000000, 1.000000000000000000 ) ) ;
#114 = CARTESIAN_POINT ( 'NONE',  ( -57.00000000000000000, 0.000000000000000000, -1.047073013270991512E-14 ) ) ;
#115 = APPLICATION_CONTEXT ( 'configuration controlled 3d designs of mechanical parts and assemblies' ) ;
#116 = DIRECTION ( 'NONE',  ( 1.000000000000000000, 0.000000000000000000, 2.431493749577822656E-16 ) ) ;
#117 = PERSON ( 'UNSPECIFIED', 'UNSPECIFIED', 'UNSPECIFIED', ('UNSPECIFIED'), ('UNSPECIFIED'), ('UNSPECIFIED') ) ;
#118 = DIRECTION ( 'NONE',  ( 1.000000000000000000, 0.000000000000000000, 2.431493749577827094E-16 ) ) ;
#119 = CIRCLE ( 'NONE', #134, 70.45000000000000284 ) ;
#120 = AXIS2_PLACEMENT_3D ( 'NONE', #15, #97, #101 ) ;
#121 = MECHANICAL_CONTEXT ( 'NONE', #158, 'mechanical' ) ;
#122 = DIRECTION ( 'NONE',  ( 1.000000000000000000, 0.000000000000000000, 2.431493749577822656E-16 ) ) ;
#123 = EDGE_CURVE ( 'NONE', #125, #69, #119, .T. ) ;
#124 = LOCAL_TIME ( 10, 43, 16.00000000000000000, #8 ) ;
#125 = VERTEX_POINT ( 'NONE', #202 ) ;
#126 = PERSON_AND_ORGANIZATION_ROLE ( 'creator' ) ;
#127 = ORIENTED_EDGE ( 'NONE', *, *, #58, .T. ) ;
#128 = ORIENTED_EDGE ( 'NONE', *, *, #123, .F. ) ;
#129 = AXIS2_PLACEMENT_3D ( 'NONE', #96, #52, #173 ) ;
#130 = PLANE ( 'NONE',  #131 ) ;
#131 = AXIS2_PLACEMENT_3D ( 'NONE', #149, #36, #56 ) ;
#132 = APPROVAL ( #206, 'UNSPECIFIED' ) ;
#133 = DIRECTION ( 'NONE',  ( 0.000000000000000000, 1.000000000000000000, 0.000000000000000000 ) ) ;
#134 = AXIS2_PLACEMENT_3D ( 'NONE', #242, #16, #113 ) ;
#135 = FACE_OUTER_BOUND ( 'NONE', #145, .T. ) ;
#136 = PLANE ( 'NONE',  #221 ) ;
#137 = DIRECTION ( 'NONE',  ( 2.926707433950024016E-15, 0.000000000000000000, 1.000000000000000000 ) ) ;
#138 = LOCAL_TIME ( 10, 43, 16.00000000000000000, #61 ) ;
#139 = DATE_AND_TIME ( #192, #246 ) ;
#140 = CARTESIAN_POINT ( 'NONE',  ( -2.003331238538790886E-13, 0.000000000000000000, -68.45000000000000284 ) ) ;
#141 = PERSON_AND_ORGANIZATION_ROLE ( 'creator' ) ;
#142 = DIRECTION ( 'NONE',  ( 2.926707433950024016E-15, 0.000000000000000000, 1.000000000000000000 ) ) ;
#143 =( GEOMETRIC_REPRESENTATION_CONTEXT ( 3 ) GLOBAL_UNCERTAINTY_ASSIGNED_CONTEXT ( ( #251 ) ) GLOBAL_UNIT_ASSIGNED_CONTEXT ( ( #42, #229, #189 ) ) REPRESENTATION_CONTEXT ( 'NONE', 'WORKASPACE' ) );
#144 = ORIENTED_EDGE ( 'NONE', *, *, #30, .T. ) ;
#145 = EDGE_LOOP ( 'NONE', ( #108, #253 ) ) ;
#146 = ADVANCED_FACE ( 'NONE', ( #82 ), #162, .T. ) ;
#147 = EDGE_LOOP ( 'NONE', ( #3, #214 ) ) ;
#148 = ORIENTED_EDGE ( 'NONE', *, *, #123, .T. ) ;
#149 = CARTESIAN_POINT ( 'NONE',  ( -57.00000000000000000, 0.000000000000000000, -1.047073013270991512E-14 ) ) ;
#150 = CC_DESIGN_PERSON_AND_ORGANIZATION_ASSIGNMENT ( #19, #41, ( #23 ) ) ;
#151 = DIRECTION ( 'NONE',  ( -1.000000000000000000, 0.000000000000000000, 2.926707433950024016E-15 ) ) ;
#152 = VERTEX_POINT ( 'NONE', #238 ) ;
#153 = AXIS2_PLACEMENT_3D ( 'NONE', #247, #244, #86 ) ;
#154 = FACE_BOUND ( 'NONE', #147, .T. ) ;
#155 = APPROVAL_DATE_TIME ( #212, #132 ) ;
#156 = DIRECTION ( 'NONE',  ( -2.431493749577822656E-16, 0.000000000000000000, 1.000000000000000000 ) ) ;
#157 = EDGE_CURVE ( 'NONE', #106, #152, #190, .T. ) ;
#158 = APPLICATION_CONTEXT ( 'configuration controlled 3d designs of mechanical parts and assemblies' ) ;
#159 = DIRECTION ( 'NONE',  ( -1.000000000000000000, 0.000000000000000000, 2.926707433950024016E-15 ) ) ;
#160 = APPROVAL_STATUS ( 'not_yet_approved' ) ;
#161 = SECURITY_CLASSIFICATION_LEVEL ( 'unclassified' ) ;
#162 = TOROIDAL_SURFACE ( 'NONE', #55, 57.00000000000000000, 13.44999999999999751 ) ;
#163 = VERTEX_POINT ( 'NONE', #81 ) ;
#164 = CC_DESIGN_PERSON_AND_ORGANIZATION_ASSIGNMENT ( #27, #2, ( #95 ) ) ;
#165 = CALENDAR_DATE ( 2024, 5, 8 ) ;
#166 = LOCAL_TIME ( 10, 43, 16.00000000000000000, #250 ) ;
#167 = DIRECTION ( 'NONE',  ( -1.000000000000000000, 0.000000000000000000, 2.926707433950024016E-15 ) ) ;
#168 = EDGE_CURVE ( 'NONE', #178, #163, #90, .T. ) ;
#169 = ORIENTED_EDGE ( 'NONE', *, *, #98, .F. ) ;
#170 = DIRECTION ( 'NONE',  ( 0.000000000000000000, 0.000000000000000000, 1.000000000000000000 ) ) ;
#171 = TOROIDAL_SURFACE ( 'NONE', #120, 57.00000000000000000, 11.44999999999999751 ) ;
#172 = PRODUCT_RELATED_PRODUCT_CATEGORY ( 'detail', '', ( #23 ) ) ;
#173 = DIRECTION ( 'NONE',  ( 2.926707433950024016E-15, 0.000000000000000000, 1.000000000000000000 ) ) ;
#174 = APPLICATION_PROTOCOL_DEFINITION ( 'international standard', 'config_control_design', 1994, #158 ) ;
#175 = APPROVAL_PERSON_ORGANIZATION ( #83, #132, #176 ) ;
#176 = APPROVAL_ROLE ( '' ) ;
#177 = DATE_AND_TIME ( #25, #213 ) ;
#178 = VERTEX_POINT ( 'NONE', #111 ) ;
#179 = ORIENTED_EDGE ( 'NONE', *, *, #195, .T. ) ;
#180 = CARTESIAN_POINT ( 'NONE',  ( -1.308468929884072693E-13, 0.000000000000000000, -43.55000000000000426 ) ) ;
#181 = CARTESIAN_POINT ( 'NONE',  ( 0.000000000000000000, 0.000000000000000000, 0.000000000000000000 ) ) ;
#182 = CARTESIAN_POINT ( 'NONE',  ( -1.668223237351513744E-13, 0.000000000000000000, -57.00000000000000000 ) ) ;
#183 = MANIFOLD_SOLID_BREP ( 'Wandung1', #231 ) ;
#184 = CC_DESIGN_PERSON_AND_ORGANIZATION_ASSIGNMENT ( #215, #5, ( #60 ) ) ;
#185 = DIRECTION ( 'NONE',  ( 0.000000000000000000, 0.000000000000000000, 1.000000000000000000 ) ) ;
#186 = DIRECTION ( 'NONE',  ( 0.000000000000000000, 1.000000000000000000, 0.000000000000000000 ) ) ;
#187 = ADVANCED_FACE ( 'NONE', ( #11 ), #171, .F. ) ;
#188 = FACE_OUTER_BOUND ( 'NONE', #236, .T. ) ;
#189 =( NAMED_UNIT ( * ) SI_UNIT ( $, .STERADIAN. ) SOLID_ANGLE_UNIT ( ) );
#190 = CIRCLE ( 'NONE', #209, 43.55000000000000426 ) ;
#191 = APPROVAL_ROLE ( '' ) ;
#192 = CALENDAR_DATE ( 2024, 5, 8 ) ;
#193 = DIRECTION ( 'NONE',  ( 0.000000000000000000, 0.000000000000000000, 1.000000000000000000 ) ) ;
#194 = CC_DESIGN_SECURITY_CLASSIFICATION ( #60, ( #95 ) ) ;
#195 = EDGE_CURVE ( 'NONE', #28, #163, #40, .T. ) ;
#196 = AXIS2_PLACEMENT_3D ( 'NONE', #114, #33, #54 ) ;
#197 = DIRECTION ( 'NONE',  ( 0.000000000000000000, 1.000000000000000000, 0.000000000000000000 ) ) ;
#198 = CC_DESIGN_APPROVAL ( #132, ( #95 ) ) ;
#199 = CARTESIAN_POINT ( 'NONE',  ( -1.702111079750350804E-13, 0.000000000000000000, -57.00000000000000000 ) ) ;
#200 = CARTESIAN_POINT ( 'NONE',  ( 0.000000000000000000, 0.000000000000000000, 0.000000000000000000 ) ) ;
#201 = CC_DESIGN_DATE_AND_TIME_ASSIGNMENT ( #139, #104, ( #105 ) ) ;
#202 = CARTESIAN_POINT ( 'NONE',  ( -2.095753229616628916E-13, 0.000000000000000000, -70.45000000000000284 ) ) ;
#203 = CARTESIAN_POINT ( 'NONE',  ( -70.45000000000000284, 0.000000000000000000, -1.374108922589208843E-14 ) ) ;
#204 = AXIS2_PLACEMENT_3D ( 'NONE', #207, #17, #118 ) ;
#205 = EDGE_CURVE ( 'NONE', #106, #125, #99, .T. ) ;
#206 = APPROVAL_STATUS ( 'not_yet_approved' ) ;
#207 = CARTESIAN_POINT ( 'NONE',  ( -57.00000000000000000, 0.000000000000000000, -1.047073013270991512E-14 ) ) ;
#208 = CIRCLE ( 'NONE', #1, 11.44999999999999574 ) ;
#209 = AXIS2_PLACEMENT_3D ( 'NONE', #241, #186, #31 ) ;
#210 = COORDINATED_UNIVERSAL_TIME_OFFSET ( 1, 0, .AHEAD. ) ;
#211 = APPROVAL ( #49, 'UNSPECIFIED' ) ;
#212 = DATE_AND_TIME ( #67, #166 ) ;
#213 = LOCAL_TIME ( 10, 43, 16.00000000000000000, #46 ) ;
#214 = ORIENTED_EDGE ( 'NONE', *, *, #248, .T. ) ;
#215 = PERSON_AND_ORGANIZATION ( #117, #237 ) ;
#216 = ORIENTED_EDGE ( 'NONE', *, *, #157, .T. ) ;
#217 = DATE_TIME_ROLE ( 'classification_date' ) ;
#218 = ORIENTED_EDGE ( 'NONE', *, *, #30, .F. ) ;
#219 = CARTESIAN_POINT ( 'NONE',  ( 0.000000000000000000, -1.402220585023718906E-15, 0.000000000000000000 ) ) ;
#220 = CIRCLE ( 'NONE', #129, 13.44999999999999751 ) ;
#221 = AXIS2_PLACEMENT_3D ( 'NONE', #199, #151, #137 ) ;
#222 = DIRECTION ( 'NONE',  ( 0.000000000000000000, 0.000000000000000000, 1.000000000000000000 ) ) ;
#223 = DIRECTION ( 'NONE',  ( -2.431493749577822656E-16, 0.000000000000000000, 1.000000000000000000 ) ) ;
#224 = ORIENTED_EDGE ( 'NONE', *, *, #58, .F. ) ;
#225 = FACE_OUTER_BOUND ( 'NONE', #6, .T. ) ;
#226 = APPROVAL_PERSON_ORGANIZATION ( #24, #211, #91 ) ;
#227 = APPLICATION_PROTOCOL_DEFINITION ( 'international standard', 'config_control_design', 1994, #115 ) ;
#228 = AXIS2_PLACEMENT_3D ( 'NONE', #63, #159, #142 ) ;
#229 =( NAMED_UNIT ( * ) PLANE_ANGLE_UNIT ( ) SI_UNIT ( $, .RADIAN. ) );
#230 = PERSON_AND_ORGANIZATION ( #117, #237 ) ;
#231 = CLOSED_SHELL ( 'NONE', ( #187, #146, #233, #89, #51, #47 ) ) ;
#232 = ORIENTED_EDGE ( 'NONE', *, *, #248, .F. ) ;
#233 = ADVANCED_FACE ( 'NONE', ( #188 ), #78, .T. ) ;
#234 = EDGE_LOOP ( 'NONE', ( #74, #148, #94, #48 ) ) ;
#235 = VERTEX_POINT ( 'NONE', #140 ) ;
#236 = EDGE_LOOP ( 'NONE', ( #128, #144, #216, #169 ) ) ;
#237 = ORGANIZATION ( 'UNSPECIFIED', 'UNSPECIFIED', '' ) ;
#238 = CARTESIAN_POINT ( 'NONE',  ( -43.55000000000000426, 0.000000000000000000, -7.200371039527737081E-15 ) ) ;
#239 = CARTESIAN_POINT ( 'NONE',  ( -68.45000000000000284, 0.000000000000000000, -1.664357471586019910E-14 ) ) ;
#240 = CIRCLE ( 'NONE', #196, 13.44999999999999751 ) ;
#241 = CARTESIAN_POINT ( 'NONE',  ( 0.000000000000000000, -1.647149944853189596E-15, 0.000000000000000000 ) ) ;
#242 = CARTESIAN_POINT ( 'NONE',  ( 0.000000000000000000, 0.000000000000000000, 0.000000000000000000 ) ) ;
#243 = AXIS2_PLACEMENT_3D ( 'NONE', #39, #102, #87 ) ;
#244 = DIRECTION ( 'NONE',  ( 0.000000000000000000, 1.000000000000000000, 0.000000000000000000 ) ) ;
#245 = DIRECTION ( 'NONE',  ( 1.000000000000000000, 0.000000000000000000, 0.000000000000000000 ) ) ;
#246 = LOCAL_TIME ( 10, 43, 16.00000000000000000, #210 ) ;
#247 = CARTESIAN_POINT ( 'NONE',  ( 0.000000000000000000, 0.000000000000000000, 0.000000000000000000 ) ) ;
#248 = EDGE_CURVE ( 'NONE', #235, #178, #92, .T. ) ;
#249 = CALENDAR_DATE ( 2024, 5, 8 ) ;
#250 = COORDINATED_UNIVERSAL_TIME_OFFSET ( 1, 0, .AHEAD. ) ;
#251 = UNCERTAINTY_MEASURE_WITH_UNIT (LENGTH_MEASURE( 1.000000000000000082E-05 ), #42, 'distance_accuracy_value', 'NONE');
#252 = EDGE_CURVE ( 'NONE', #152, #69, #45, .T. ) ;
#253 = ORIENTED_EDGE ( 'NONE', *, *, #98, .T. ) ;
ENDSEC;
END-ISO-10303-21;
