ISO-10303-21;
HEADER;
/* Generated by software containing ST-Developer
 * from STEP Tools, Inc. (www.steptools.com) 
 */

FILE_DESCRIPTION(
/* description */ (''),
/* implementation_level */ '2;1');

FILE_NAME(
/* name */ 
'C:\\Users\\cad\\Desktop\\Zeichnungen neu von Ralph\\Grundplatten\\R-1
73-4L\\3D_R173-4L-DN25_17331440.stp',
/* time_stamp */ '2021-07-27T09:26:06+02:00',
/* author */ ('cad'),
/* organization */ (''),
/* preprocessor_version */ 'ST-DEVELOPER v18.1',
/* originating_system */ 'Autodesk Inventor 2022',
/* authorisation */ '');

FILE_SCHEMA (('AUTOMOTIVE_DESIGN { 1 0 10303 214 3 1 1 }'));
ENDSEC;

DATA;
#10=MECHANICAL_DESIGN_GEOMETRIC_PRESENTATION_REPRESENTATION('',(#13),#535);
#11=SHAPE_REPRESENTATION_RELATIONSHIP('SRR','None',#542,#12);
#12=ADVANCED_BREP_SHAPE_REPRESENTATION('',(#14),#534);
#13=STYLED_ITEM('',(#551),#14);
#14=MANIFOLD_SOLID_BREP('Volumenk\X\F6rper1',#303);
#15=CONICAL_SURFACE('',#336,18.,0.785398163397448);
#16=CONICAL_SURFACE('',#340,15.6455,0.785398163397446);
#17=FACE_BOUND('',#100,.T.);
#18=FACE_BOUND('',#101,.T.);
#19=FACE_BOUND('',#102,.T.);
#20=FACE_BOUND('',#103,.T.);
#21=FACE_BOUND('',#104,.T.);
#22=FACE_BOUND('',#107,.T.);
#23=FACE_BOUND('',#119,.T.);
#24=FACE_BOUND('',#120,.T.);
#25=FACE_BOUND('',#121,.T.);
#26=FACE_BOUND('',#122,.T.);
#27=FACE_BOUND('',#123,.T.);
#28=PLANE('',#331);
#29=PLANE('',#338);
#30=PLANE('',#353);
#31=PLANE('',#354);
#32=PLANE('',#355);
#33=PLANE('',#356);
#34=PLANE('',#357);
#35=LINE('',#464,#55);
#36=LINE('',#468,#56);
#37=LINE('',#470,#57);
#38=LINE('',#472,#58);
#39=LINE('',#473,#59);
#40=LINE('',#485,#60);
#41=LINE('',#491,#61);
#42=LINE('',#497,#62);
#43=LINE('',#501,#63);
#44=LINE('',#505,#64);
#45=LINE('',#509,#65);
#46=LINE('',#513,#66);
#47=LINE('',#517,#67);
#48=LINE('',#519,#68);
#49=LINE('',#520,#69);
#50=LINE('',#523,#70);
#51=LINE('',#524,#71);
#52=LINE('',#527,#72);
#53=LINE('',#528,#73);
#54=LINE('',#530,#74);
#55=VECTOR('',#376,18.5);
#56=VECTOR('',#379,10.);
#57=VECTOR('',#380,10.);
#58=VECTOR('',#381,10.);
#59=VECTOR('',#382,10.);
#60=VECTOR('',#395,18.);
#61=VECTOR('',#402,15.6455);
#62=VECTOR('',#409,15.1455);
#63=VECTOR('',#414,5.5);
#64=VECTOR('',#419,5.5);
#65=VECTOR('',#424,5.5);
#66=VECTOR('',#429,5.5);
#67=VECTOR('',#434,10.);
#68=VECTOR('',#435,10.);
#69=VECTOR('',#436,10.);
#70=VECTOR('',#439,10.);
#71=VECTOR('',#440,10.);
#72=VECTOR('',#443,10.);
#73=VECTOR('',#444,10.);
#74=VECTOR('',#447,10.);
#75=CYLINDRICAL_SURFACE('',#328,18.5);
#76=CYLINDRICAL_SURFACE('',#343,15.1455);
#77=CYLINDRICAL_SURFACE('',#345,5.5);
#78=CYLINDRICAL_SURFACE('',#347,5.5);
#79=CYLINDRICAL_SURFACE('',#349,5.5);
#80=CYLINDRICAL_SURFACE('',#351,5.5);
#81=FACE_OUTER_BOUND('',#97,.T.);
#82=FACE_OUTER_BOUND('',#98,.T.);
#83=FACE_OUTER_BOUND('',#99,.T.);
#84=FACE_OUTER_BOUND('',#105,.T.);
#85=FACE_OUTER_BOUND('',#106,.T.);
#86=FACE_OUTER_BOUND('',#108,.T.);
#87=FACE_OUTER_BOUND('',#109,.T.);
#88=FACE_OUTER_BOUND('',#110,.T.);
#89=FACE_OUTER_BOUND('',#111,.T.);
#90=FACE_OUTER_BOUND('',#112,.T.);
#91=FACE_OUTER_BOUND('',#113,.T.);
#92=FACE_OUTER_BOUND('',#114,.T.);
#93=FACE_OUTER_BOUND('',#115,.T.);
#94=FACE_OUTER_BOUND('',#116,.T.);
#95=FACE_OUTER_BOUND('',#117,.T.);
#96=FACE_OUTER_BOUND('',#118,.T.);
#97=EDGE_LOOP('',(#208,#209,#210,#211,#212));
#98=EDGE_LOOP('',(#213,#214,#215,#216,#217,#218));
#99=EDGE_LOOP('',(#219,#220,#221,#222));
#100=EDGE_LOOP('',(#223));
#101=EDGE_LOOP('',(#224));
#102=EDGE_LOOP('',(#225));
#103=EDGE_LOOP('',(#226));
#104=EDGE_LOOP('',(#227));
#105=EDGE_LOOP('',(#228,#229,#230,#231,#232));
#106=EDGE_LOOP('',(#233));
#107=EDGE_LOOP('',(#234));
#108=EDGE_LOOP('',(#235,#236,#237,#238,#239));
#109=EDGE_LOOP('',(#240,#241,#242,#243,#244));
#110=EDGE_LOOP('',(#245,#246,#247,#248));
#111=EDGE_LOOP('',(#249,#250,#251,#252));
#112=EDGE_LOOP('',(#253,#254,#255,#256));
#113=EDGE_LOOP('',(#257,#258,#259,#260));
#114=EDGE_LOOP('',(#261,#262,#263,#264));
#115=EDGE_LOOP('',(#265,#266,#267,#268));
#116=EDGE_LOOP('',(#269,#270,#271,#272));
#117=EDGE_LOOP('',(#273,#274,#275,#276));
#118=EDGE_LOOP('',(#277,#278,#279,#280));
#119=EDGE_LOOP('',(#281));
#120=EDGE_LOOP('',(#282));
#121=EDGE_LOOP('',(#283));
#122=EDGE_LOOP('',(#284));
#123=EDGE_LOOP('',(#285));
#124=CIRCLE('',#324,18.5);
#125=CIRCLE('',#325,1.);
#126=CIRCLE('',#326,19.5);
#127=CIRCLE('',#327,18.5);
#128=CIRCLE('',#329,18.5);
#129=CIRCLE('',#330,18.5);
#130=CIRCLE('',#332,5.5);
#131=CIRCLE('',#333,5.5);
#132=CIRCLE('',#334,5.5);
#133=CIRCLE('',#335,5.5);
#134=CIRCLE('',#337,17.5);
#135=CIRCLE('',#339,16.1455);
#136=CIRCLE('',#341,15.1455);
#137=CIRCLE('',#342,15.1455);
#138=CIRCLE('',#344,15.1455);
#139=CIRCLE('',#346,5.5);
#140=CIRCLE('',#348,5.5);
#141=CIRCLE('',#350,5.5);
#142=CIRCLE('',#352,5.5);
#143=VERTEX_POINT('',#452);
#144=VERTEX_POINT('',#453);
#145=VERTEX_POINT('',#455);
#146=VERTEX_POINT('',#460);
#147=VERTEX_POINT('',#461);
#148=VERTEX_POINT('',#466);
#149=VERTEX_POINT('',#467);
#150=VERTEX_POINT('',#469);
#151=VERTEX_POINT('',#471);
#152=VERTEX_POINT('',#474);
#153=VERTEX_POINT('',#476);
#154=VERTEX_POINT('',#478);
#155=VERTEX_POINT('',#480);
#156=VERTEX_POINT('',#483);
#157=VERTEX_POINT('',#487);
#158=VERTEX_POINT('',#490);
#159=VERTEX_POINT('',#492);
#160=VERTEX_POINT('',#496);
#161=VERTEX_POINT('',#500);
#162=VERTEX_POINT('',#504);
#163=VERTEX_POINT('',#508);
#164=VERTEX_POINT('',#512);
#165=VERTEX_POINT('',#516);
#166=VERTEX_POINT('',#518);
#167=VERTEX_POINT('',#522);
#168=VERTEX_POINT('',#526);
#169=EDGE_CURVE('',#143,#144,#124,.T.);
#170=EDGE_CURVE('',#144,#145,#125,.T.);
#171=EDGE_CURVE('',#145,#145,#126,.T.);
#172=EDGE_CURVE('',#144,#143,#127,.T.);
#173=EDGE_CURVE('',#146,#147,#128,.T.);
#174=EDGE_CURVE('',#147,#146,#129,.T.);
#175=EDGE_CURVE('',#147,#143,#35,.T.);
#176=EDGE_CURVE('',#148,#149,#36,.T.);
#177=EDGE_CURVE('',#149,#150,#37,.T.);
#178=EDGE_CURVE('',#150,#151,#38,.T.);
#179=EDGE_CURVE('',#151,#148,#39,.T.);
#180=EDGE_CURVE('',#152,#152,#130,.T.);
#181=EDGE_CURVE('',#153,#153,#131,.T.);
#182=EDGE_CURVE('',#154,#154,#132,.T.);
#183=EDGE_CURVE('',#155,#155,#133,.T.);
#184=EDGE_CURVE('',#156,#156,#134,.T.);
#185=EDGE_CURVE('',#156,#146,#40,.T.);
#186=EDGE_CURVE('',#157,#157,#135,.T.);
#187=EDGE_CURVE('',#157,#158,#41,.T.);
#188=EDGE_CURVE('',#158,#159,#136,.T.);
#189=EDGE_CURVE('',#159,#158,#137,.T.);
#190=EDGE_CURVE('',#159,#160,#42,.T.);
#191=EDGE_CURVE('',#160,#160,#138,.T.);
#192=EDGE_CURVE('',#155,#161,#43,.T.);
#193=EDGE_CURVE('',#161,#161,#139,.T.);
#194=EDGE_CURVE('',#154,#162,#44,.T.);
#195=EDGE_CURVE('',#162,#162,#140,.T.);
#196=EDGE_CURVE('',#153,#163,#45,.T.);
#197=EDGE_CURVE('',#163,#163,#141,.T.);
#198=EDGE_CURVE('',#152,#164,#46,.T.);
#199=EDGE_CURVE('',#164,#164,#142,.T.);
#200=EDGE_CURVE('',#149,#165,#47,.T.);
#201=EDGE_CURVE('',#166,#165,#48,.T.);
#202=EDGE_CURVE('',#150,#166,#49,.T.);
#203=EDGE_CURVE('',#167,#166,#50,.T.);
#204=EDGE_CURVE('',#151,#167,#51,.T.);
#205=EDGE_CURVE('',#168,#167,#52,.T.);
#206=EDGE_CURVE('',#148,#168,#53,.T.);
#207=EDGE_CURVE('',#165,#168,#54,.T.);
#208=ORIENTED_EDGE('',*,*,#169,.T.);
#209=ORIENTED_EDGE('',*,*,#170,.T.);
#210=ORIENTED_EDGE('',*,*,#171,.T.);
#211=ORIENTED_EDGE('',*,*,#170,.F.);
#212=ORIENTED_EDGE('',*,*,#172,.T.);
#213=ORIENTED_EDGE('',*,*,#173,.F.);
#214=ORIENTED_EDGE('',*,*,#174,.F.);
#215=ORIENTED_EDGE('',*,*,#175,.T.);
#216=ORIENTED_EDGE('',*,*,#172,.F.);
#217=ORIENTED_EDGE('',*,*,#169,.F.);
#218=ORIENTED_EDGE('',*,*,#175,.F.);
#219=ORIENTED_EDGE('',*,*,#176,.T.);
#220=ORIENTED_EDGE('',*,*,#177,.T.);
#221=ORIENTED_EDGE('',*,*,#178,.T.);
#222=ORIENTED_EDGE('',*,*,#179,.T.);
#223=ORIENTED_EDGE('',*,*,#180,.T.);
#224=ORIENTED_EDGE('',*,*,#181,.T.);
#225=ORIENTED_EDGE('',*,*,#182,.T.);
#226=ORIENTED_EDGE('',*,*,#183,.T.);
#227=ORIENTED_EDGE('',*,*,#171,.F.);
#228=ORIENTED_EDGE('',*,*,#184,.T.);
#229=ORIENTED_EDGE('',*,*,#185,.T.);
#230=ORIENTED_EDGE('',*,*,#173,.T.);
#231=ORIENTED_EDGE('',*,*,#174,.T.);
#232=ORIENTED_EDGE('',*,*,#185,.F.);
#233=ORIENTED_EDGE('',*,*,#184,.F.);
#234=ORIENTED_EDGE('',*,*,#186,.F.);
#235=ORIENTED_EDGE('',*,*,#186,.T.);
#236=ORIENTED_EDGE('',*,*,#187,.T.);
#237=ORIENTED_EDGE('',*,*,#188,.T.);
#238=ORIENTED_EDGE('',*,*,#189,.T.);
#239=ORIENTED_EDGE('',*,*,#187,.F.);
#240=ORIENTED_EDGE('',*,*,#188,.F.);
#241=ORIENTED_EDGE('',*,*,#189,.F.);
#242=ORIENTED_EDGE('',*,*,#190,.T.);
#243=ORIENTED_EDGE('',*,*,#191,.F.);
#244=ORIENTED_EDGE('',*,*,#190,.F.);
#245=ORIENTED_EDGE('',*,*,#183,.F.);
#246=ORIENTED_EDGE('',*,*,#192,.T.);
#247=ORIENTED_EDGE('',*,*,#193,.F.);
#248=ORIENTED_EDGE('',*,*,#192,.F.);
#249=ORIENTED_EDGE('',*,*,#182,.F.);
#250=ORIENTED_EDGE('',*,*,#194,.T.);
#251=ORIENTED_EDGE('',*,*,#195,.F.);
#252=ORIENTED_EDGE('',*,*,#194,.F.);
#253=ORIENTED_EDGE('',*,*,#181,.F.);
#254=ORIENTED_EDGE('',*,*,#196,.T.);
#255=ORIENTED_EDGE('',*,*,#197,.F.);
#256=ORIENTED_EDGE('',*,*,#196,.F.);
#257=ORIENTED_EDGE('',*,*,#180,.F.);
#258=ORIENTED_EDGE('',*,*,#198,.T.);
#259=ORIENTED_EDGE('',*,*,#199,.F.);
#260=ORIENTED_EDGE('',*,*,#198,.F.);
#261=ORIENTED_EDGE('',*,*,#177,.F.);
#262=ORIENTED_EDGE('',*,*,#200,.T.);
#263=ORIENTED_EDGE('',*,*,#201,.F.);
#264=ORIENTED_EDGE('',*,*,#202,.F.);
#265=ORIENTED_EDGE('',*,*,#178,.F.);
#266=ORIENTED_EDGE('',*,*,#202,.T.);
#267=ORIENTED_EDGE('',*,*,#203,.F.);
#268=ORIENTED_EDGE('',*,*,#204,.F.);
#269=ORIENTED_EDGE('',*,*,#179,.F.);
#270=ORIENTED_EDGE('',*,*,#204,.T.);
#271=ORIENTED_EDGE('',*,*,#205,.F.);
#272=ORIENTED_EDGE('',*,*,#206,.F.);
#273=ORIENTED_EDGE('',*,*,#176,.F.);
#274=ORIENTED_EDGE('',*,*,#206,.T.);
#275=ORIENTED_EDGE('',*,*,#207,.F.);
#276=ORIENTED_EDGE('',*,*,#200,.F.);
#277=ORIENTED_EDGE('',*,*,#207,.T.);
#278=ORIENTED_EDGE('',*,*,#205,.T.);
#279=ORIENTED_EDGE('',*,*,#203,.T.);
#280=ORIENTED_EDGE('',*,*,#201,.T.);
#281=ORIENTED_EDGE('',*,*,#191,.T.);
#282=ORIENTED_EDGE('',*,*,#193,.T.);
#283=ORIENTED_EDGE('',*,*,#195,.T.);
#284=ORIENTED_EDGE('',*,*,#197,.T.);
#285=ORIENTED_EDGE('',*,*,#199,.T.);
#286=TOROIDAL_SURFACE('',#323,19.5,1.);
#287=ADVANCED_FACE('',(#81),#286,.F.);
#288=ADVANCED_FACE('',(#82),#75,.T.);
#289=ADVANCED_FACE('',(#83,#17,#18,#19,#20,#21),#28,.T.);
#290=ADVANCED_FACE('',(#84),#15,.T.);
#291=ADVANCED_FACE('',(#85,#22),#29,.T.);
#292=ADVANCED_FACE('',(#86),#16,.F.);
#293=ADVANCED_FACE('',(#87),#76,.F.);
#294=ADVANCED_FACE('',(#88),#77,.F.);
#295=ADVANCED_FACE('',(#89),#78,.F.);
#296=ADVANCED_FACE('',(#90),#79,.F.);
#297=ADVANCED_FACE('',(#91),#80,.F.);
#298=ADVANCED_FACE('',(#92),#30,.T.);
#299=ADVANCED_FACE('',(#93),#31,.T.);
#300=ADVANCED_FACE('',(#94),#32,.T.);
#301=ADVANCED_FACE('',(#95),#33,.T.);
#302=ADVANCED_FACE('',(#96,#23,#24,#25,#26,#27),#34,.T.);
#303=CLOSED_SHELL('',(#287,#288,#289,#290,#291,#292,#293,#294,#295,#296,
#297,#298,#299,#300,#301,#302));
#304=DERIVED_UNIT_ELEMENT(#306,1.);
#305=DERIVED_UNIT_ELEMENT(#537,-3.);
#306=(
MASS_UNIT()
NAMED_UNIT(*)
SI_UNIT($,.GRAM.)
);
#307=DERIVED_UNIT((#304,#305));
#308=MEASURE_REPRESENTATION_ITEM('density measure',
POSITIVE_RATIO_MEASURE(1.),#307);
#309=PROPERTY_DEFINITION_REPRESENTATION(#314,#311);
#310=PROPERTY_DEFINITION_REPRESENTATION(#315,#312);
#311=REPRESENTATION('material name',(#313),#534);
#312=REPRESENTATION('density',(#308),#534);
#313=DESCRIPTIVE_REPRESENTATION_ITEM('Generisch','Generisch');
#314=PROPERTY_DEFINITION('material property','material name',#544);
#315=PROPERTY_DEFINITION('material property','density of part',#544);
#316=DATE_TIME_ROLE('creation_date');
#317=APPLIED_DATE_AND_TIME_ASSIGNMENT(#318,#316,(#544));
#318=DATE_AND_TIME(#319,#320);
#319=CALENDAR_DATE(2021,27,7);
#320=LOCAL_TIME(0,0,0.,#321);
#321=COORDINATED_UNIVERSAL_TIME_OFFSET(0,0,.BEHIND.);
#322=AXIS2_PLACEMENT_3D('placement',#450,#358,#359);
#323=AXIS2_PLACEMENT_3D('',#451,#360,#361);
#324=AXIS2_PLACEMENT_3D('',#454,#362,#363);
#325=AXIS2_PLACEMENT_3D('',#456,#364,#365);
#326=AXIS2_PLACEMENT_3D('',#457,#366,#367);
#327=AXIS2_PLACEMENT_3D('',#458,#368,#369);
#328=AXIS2_PLACEMENT_3D('',#459,#370,#371);
#329=AXIS2_PLACEMENT_3D('',#462,#372,#373);
#330=AXIS2_PLACEMENT_3D('',#463,#374,#375);
#331=AXIS2_PLACEMENT_3D('',#465,#377,#378);
#332=AXIS2_PLACEMENT_3D('',#475,#383,#384);
#333=AXIS2_PLACEMENT_3D('',#477,#385,#386);
#334=AXIS2_PLACEMENT_3D('',#479,#387,#388);
#335=AXIS2_PLACEMENT_3D('',#481,#389,#390);
#336=AXIS2_PLACEMENT_3D('',#482,#391,#392);
#337=AXIS2_PLACEMENT_3D('',#484,#393,#394);
#338=AXIS2_PLACEMENT_3D('',#486,#396,#397);
#339=AXIS2_PLACEMENT_3D('',#488,#398,#399);
#340=AXIS2_PLACEMENT_3D('',#489,#400,#401);
#341=AXIS2_PLACEMENT_3D('',#493,#403,#404);
#342=AXIS2_PLACEMENT_3D('',#494,#405,#406);
#343=AXIS2_PLACEMENT_3D('',#495,#407,#408);
#344=AXIS2_PLACEMENT_3D('',#498,#410,#411);
#345=AXIS2_PLACEMENT_3D('',#499,#412,#413);
#346=AXIS2_PLACEMENT_3D('',#502,#415,#416);
#347=AXIS2_PLACEMENT_3D('',#503,#417,#418);
#348=AXIS2_PLACEMENT_3D('',#506,#420,#421);
#349=AXIS2_PLACEMENT_3D('',#507,#422,#423);
#350=AXIS2_PLACEMENT_3D('',#510,#425,#426);
#351=AXIS2_PLACEMENT_3D('',#511,#427,#428);
#352=AXIS2_PLACEMENT_3D('',#514,#430,#431);
#353=AXIS2_PLACEMENT_3D('',#515,#432,#433);
#354=AXIS2_PLACEMENT_3D('',#521,#437,#438);
#355=AXIS2_PLACEMENT_3D('',#525,#441,#442);
#356=AXIS2_PLACEMENT_3D('',#529,#445,#446);
#357=AXIS2_PLACEMENT_3D('',#531,#448,#449);
#358=DIRECTION('axis',(0.,0.,1.));
#359=DIRECTION('refdir',(1.,0.,0.));
#360=DIRECTION('center_axis',(0.,-1.,0.));
#361=DIRECTION('ref_axis',(0.,0.,-1.));
#362=DIRECTION('center_axis',(0.,-1.,0.));
#363=DIRECTION('ref_axis',(-1.,0.,1.22464679914735E-16));
#364=DIRECTION('center_axis',(-1.,0.,-1.22464679914735E-16));
#365=DIRECTION('ref_axis',(-1.22464679914735E-16,0.,1.));
#366=DIRECTION('center_axis',(0.,1.,0.));
#367=DIRECTION('ref_axis',(-1.,0.,1.22464679914735E-16));
#368=DIRECTION('center_axis',(0.,-1.,0.));
#369=DIRECTION('ref_axis',(-1.,0.,1.22464679914735E-16));
#370=DIRECTION('center_axis',(0.,1.,0.));
#371=DIRECTION('ref_axis',(1.,0.,0.));
#372=DIRECTION('center_axis',(0.,1.,0.));
#373=DIRECTION('ref_axis',(-1.,0.,0.));
#374=DIRECTION('center_axis',(0.,1.,0.));
#375=DIRECTION('ref_axis',(-1.,0.,0.));
#376=DIRECTION('',(0.,-1.,0.));
#377=DIRECTION('center_axis',(0.,1.,0.));
#378=DIRECTION('ref_axis',(0.,0.,1.));
#379=DIRECTION('',(-3.70074341541719E-17,0.,1.));
#380=DIRECTION('',(1.,0.,-1.48029736616688E-16));
#381=DIRECTION('',(1.48029736616688E-16,0.,-1.));
#382=DIRECTION('',(-1.,0.,0.));
#383=DIRECTION('center_axis',(0.,-1.,0.));
#384=DIRECTION('ref_axis',(1.,0.,0.));
#385=DIRECTION('center_axis',(0.,-1.,0.));
#386=DIRECTION('ref_axis',(1.,0.,0.));
#387=DIRECTION('center_axis',(0.,-1.,0.));
#388=DIRECTION('ref_axis',(1.,0.,0.));
#389=DIRECTION('center_axis',(0.,-1.,0.));
#390=DIRECTION('ref_axis',(1.,0.,0.));
#391=DIRECTION('center_axis',(0.,-1.,0.));
#392=DIRECTION('ref_axis',(-1.,0.,0.));
#393=DIRECTION('center_axis',(0.,-1.,0.));
#394=DIRECTION('ref_axis',(-1.,0.,0.));
#395=DIRECTION('',(0.707106781186547,-0.707106781186547,-8.65956056235493E-17));
#396=DIRECTION('center_axis',(0.,1.,0.));
#397=DIRECTION('ref_axis',(0.,0.,1.));
#398=DIRECTION('center_axis',(0.,1.,0.));
#399=DIRECTION('ref_axis',(-1.,0.,0.));
#400=DIRECTION('center_axis',(0.,1.,0.));
#401=DIRECTION('ref_axis',(-1.,0.,0.));
#402=DIRECTION('',(-0.707106781186546,-0.707106781186549,8.65956056235491E-17));
#403=DIRECTION('center_axis',(0.,-1.,0.));
#404=DIRECTION('ref_axis',(-1.,0.,0.));
#405=DIRECTION('center_axis',(0.,-1.,0.));
#406=DIRECTION('ref_axis',(-1.,0.,0.));
#407=DIRECTION('center_axis',(0.,1.,0.));
#408=DIRECTION('ref_axis',(1.,0.,0.));
#409=DIRECTION('',(0.,-1.,0.));
#410=DIRECTION('center_axis',(0.,1.,0.));
#411=DIRECTION('ref_axis',(1.,0.,0.));
#412=DIRECTION('center_axis',(0.,-1.,0.));
#413=DIRECTION('ref_axis',(1.,0.,0.));
#414=DIRECTION('',(0.,-1.,0.));
#415=DIRECTION('center_axis',(0.,1.,0.));
#416=DIRECTION('ref_axis',(1.,0.,0.));
#417=DIRECTION('center_axis',(0.,-1.,0.));
#418=DIRECTION('ref_axis',(1.,0.,0.));
#419=DIRECTION('',(0.,-1.,0.));
#420=DIRECTION('center_axis',(0.,1.,0.));
#421=DIRECTION('ref_axis',(1.,0.,0.));
#422=DIRECTION('center_axis',(0.,-1.,0.));
#423=DIRECTION('ref_axis',(1.,0.,0.));
#424=DIRECTION('',(0.,-1.,0.));
#425=DIRECTION('center_axis',(0.,1.,0.));
#426=DIRECTION('ref_axis',(1.,0.,0.));
#427=DIRECTION('center_axis',(0.,-1.,0.));
#428=DIRECTION('ref_axis',(1.,0.,0.));
#429=DIRECTION('',(0.,-1.,0.));
#430=DIRECTION('center_axis',(0.,1.,0.));
#431=DIRECTION('ref_axis',(1.,0.,0.));
#432=DIRECTION('center_axis',(1.48029736616688E-16,0.,1.));
#433=DIRECTION('ref_axis',(-1.,0.,1.48029736616688E-16));
#434=DIRECTION('',(0.,-1.,0.));
#435=DIRECTION('',(-1.,0.,1.48029736616688E-16));
#436=DIRECTION('',(0.,-1.,0.));
#437=DIRECTION('center_axis',(1.,0.,1.48029736616688E-16));
#438=DIRECTION('ref_axis',(-1.48029736616688E-16,0.,1.));
#439=DIRECTION('',(-1.48029736616688E-16,0.,1.));
#440=DIRECTION('',(0.,-1.,0.));
#441=DIRECTION('center_axis',(0.,0.,-1.));
#442=DIRECTION('ref_axis',(1.,0.,0.));
#443=DIRECTION('',(1.,0.,0.));
#444=DIRECTION('',(0.,-1.,0.));
#445=DIRECTION('center_axis',(-1.,0.,-3.70074341541719E-17));
#446=DIRECTION('ref_axis',(3.70074341541719E-17,0.,-1.));
#447=DIRECTION('',(3.70074341541719E-17,0.,-1.));
#448=DIRECTION('center_axis',(0.,-1.,0.));
#449=DIRECTION('ref_axis',(0.,0.,-1.));
#450=CARTESIAN_POINT('',(0.,0.,0.));
#451=CARTESIAN_POINT('Origin',(0.,1.,0.));
#452=CARTESIAN_POINT('',(-18.5,1.,2.2655965784226E-15));
#453=CARTESIAN_POINT('',(-2.2655965784226E-15,1.,18.5));
#454=CARTESIAN_POINT('Origin',(0.,1.,0.));
#455=CARTESIAN_POINT('',(-2.38806125833734E-15,0.,19.5));
#456=CARTESIAN_POINT('Origin',(-2.38806125833734E-15,1.,19.5));
#457=CARTESIAN_POINT('Origin',(0.,0.,0.));
#458=CARTESIAN_POINT('Origin',(0.,1.,0.));
#459=CARTESIAN_POINT('Origin',(0.,0.,0.));
#460=CARTESIAN_POINT('',(18.5,18.5,-2.2655965784226E-15));
#461=CARTESIAN_POINT('',(-18.5,18.5,2.2655965784226E-15));
#462=CARTESIAN_POINT('Origin',(0.,18.5,0.));
#463=CARTESIAN_POINT('Origin',(0.,18.5,0.));
#464=CARTESIAN_POINT('',(-18.5,0.,2.2655965784226E-15));
#465=CARTESIAN_POINT('Origin',(4.44089209850063E-15,0.,4.44089209850063E-15));
#466=CARTESIAN_POINT('',(-30.,0.,-60.));
#467=CARTESIAN_POINT('',(-30.,0.,60.));
#468=CARTESIAN_POINT('',(-30.,0.,-60.));
#469=CARTESIAN_POINT('',(30.,0.,60.));
#470=CARTESIAN_POINT('',(-30.,0.,60.));
#471=CARTESIAN_POINT('',(30.,0.,-60.));
#472=CARTESIAN_POINT('',(30.,0.,60.));
#473=CARTESIAN_POINT('',(30.,0.,-60.));
#474=CARTESIAN_POINT('',(-20.5,0.,45.));
#475=CARTESIAN_POINT('Origin',(-15.,0.,45.));
#476=CARTESIAN_POINT('',(9.49999999999999,0.,-45.));
#477=CARTESIAN_POINT('Origin',(15.,0.,-45.));
#478=CARTESIAN_POINT('',(9.50000000000001,0.,45.));
#479=CARTESIAN_POINT('Origin',(15.,0.,45.));
#480=CARTESIAN_POINT('',(-20.5,0.,-45.));
#481=CARTESIAN_POINT('Origin',(-15.,0.,-45.));
#482=CARTESIAN_POINT('Origin',(0.,19.,0.));
#483=CARTESIAN_POINT('',(17.5,19.5,2.14313189850787E-15));
#484=CARTESIAN_POINT('Origin',(0.,19.5,0.));
#485=CARTESIAN_POINT('',(18.,19.,-2.20436423846524E-15));
#486=CARTESIAN_POINT('Origin',(0.,19.5,0.));
#487=CARTESIAN_POINT('',(16.1455,19.5,-1.97725348956336E-15));
#488=CARTESIAN_POINT('Origin',(0.,19.5,0.));
#489=CARTESIAN_POINT('Origin',(0.,19.,0.));
#490=CARTESIAN_POINT('',(15.1455,18.5,1.85478880964862E-15));
#491=CARTESIAN_POINT('',(15.6455,19.,-1.91602114960599E-15));
#492=CARTESIAN_POINT('',(-15.1455,18.5,1.85478880964862E-15));
#493=CARTESIAN_POINT('Origin',(0.,18.5,0.));
#494=CARTESIAN_POINT('Origin',(0.,18.5,0.));
#495=CARTESIAN_POINT('Origin',(0.,-116.882733511248,0.));
#496=CARTESIAN_POINT('',(-15.1455,-5.,1.85478880964862E-15));
#497=CARTESIAN_POINT('',(-15.1455,-116.882733511248,1.85478880964862E-15));
#498=CARTESIAN_POINT('Origin',(0.,-5.,0.));
#499=CARTESIAN_POINT('Origin',(-15.,0.,-45.));
#500=CARTESIAN_POINT('',(-20.5,-5.,-45.));
#501=CARTESIAN_POINT('',(-20.5,0.,-45.));
#502=CARTESIAN_POINT('Origin',(-15.,-5.,-45.));
#503=CARTESIAN_POINT('Origin',(15.,0.,45.));
#504=CARTESIAN_POINT('',(9.50000000000001,-5.,45.));
#505=CARTESIAN_POINT('',(9.50000000000001,0.,45.));
#506=CARTESIAN_POINT('Origin',(15.,-5.,45.));
#507=CARTESIAN_POINT('Origin',(15.,0.,-45.));
#508=CARTESIAN_POINT('',(9.49999999999999,-5.,-45.));
#509=CARTESIAN_POINT('',(9.49999999999999,0.,-45.));
#510=CARTESIAN_POINT('Origin',(15.,-5.,-45.));
#511=CARTESIAN_POINT('Origin',(-15.,0.,45.));
#512=CARTESIAN_POINT('',(-20.5,-5.,45.));
#513=CARTESIAN_POINT('',(-20.5,0.,45.));
#514=CARTESIAN_POINT('Origin',(-15.,-5.,45.));
#515=CARTESIAN_POINT('Origin',(30.,0.,60.));
#516=CARTESIAN_POINT('',(-30.,-5.,60.));
#517=CARTESIAN_POINT('',(-30.,0.,60.));
#518=CARTESIAN_POINT('',(30.,-5.,60.));
#519=CARTESIAN_POINT('',(-30.,-5.,60.));
#520=CARTESIAN_POINT('',(30.,0.,60.));
#521=CARTESIAN_POINT('Origin',(30.,0.,-60.));
#522=CARTESIAN_POINT('',(30.,-5.,-60.));
#523=CARTESIAN_POINT('',(30.,-5.,60.));
#524=CARTESIAN_POINT('',(30.,0.,-60.));
#525=CARTESIAN_POINT('Origin',(-30.,0.,-60.));
#526=CARTESIAN_POINT('',(-30.,-5.,-60.));
#527=CARTESIAN_POINT('',(30.,-5.,-60.));
#528=CARTESIAN_POINT('',(-30.,0.,-60.));
#529=CARTESIAN_POINT('Origin',(-30.,0.,60.));
#530=CARTESIAN_POINT('',(-30.,-5.,-60.));
#531=CARTESIAN_POINT('Origin',(4.44089209850063E-15,-5.,0.));
#532=UNCERTAINTY_MEASURE_WITH_UNIT(LENGTH_MEASURE(0.01),#536,
'DISTANCE_ACCURACY_VALUE',
'Maximum model space distance between geometric entities at asserted c
onnectivities');
#533=UNCERTAINTY_MEASURE_WITH_UNIT(LENGTH_MEASURE(0.01),#536,
'DISTANCE_ACCURACY_VALUE',
'Maximum model space distance between geometric entities at asserted c
onnectivities');
#534=(
GEOMETRIC_REPRESENTATION_CONTEXT(3)
GLOBAL_UNCERTAINTY_ASSIGNED_CONTEXT((#532))
GLOBAL_UNIT_ASSIGNED_CONTEXT((#536,#538,#539))
REPRESENTATION_CONTEXT('','3D')
);
#535=(
GEOMETRIC_REPRESENTATION_CONTEXT(3)
GLOBAL_UNCERTAINTY_ASSIGNED_CONTEXT((#533))
GLOBAL_UNIT_ASSIGNED_CONTEXT((#536,#538,#539))
REPRESENTATION_CONTEXT('','3D')
);
#536=(
LENGTH_UNIT()
NAMED_UNIT(*)
SI_UNIT(.MILLI.,.METRE.)
);
#537=(
LENGTH_UNIT()
NAMED_UNIT(*)
SI_UNIT(.CENTI.,.METRE.)
);
#538=(
NAMED_UNIT(*)
PLANE_ANGLE_UNIT()
SI_UNIT($,.RADIAN.)
);
#539=(
NAMED_UNIT(*)
SI_UNIT($,.STERADIAN.)
SOLID_ANGLE_UNIT()
);
#540=SHAPE_DEFINITION_REPRESENTATION(#541,#542);
#541=PRODUCT_DEFINITION_SHAPE('',$,#544);
#542=SHAPE_REPRESENTATION('',(#322),#534);
#543=PRODUCT_DEFINITION_CONTEXT('part definition',#548,'design');
#544=PRODUCT_DEFINITION('3D_R173-4L-DN25_17331440',
'3D_R173-4L-DN25_17331440',#545,#543);
#545=PRODUCT_DEFINITION_FORMATION('',$,#550);
#546=PRODUCT_RELATED_PRODUCT_CATEGORY('3D_R173-4L-DN25_17331440',
'3D_R173-4L-DN25_17331440',(#550));
#547=APPLICATION_PROTOCOL_DEFINITION('international standard',
'automotive_design',2009,#548);
#548=APPLICATION_CONTEXT(
'Core Data for Automotive Mechanical Design Process');
#549=PRODUCT_CONTEXT('part definition',#548,'mechanical');
#550=PRODUCT('3D_R173-4L-DN25_17331440','3D_R173-4L-DN25_17331440',$,(#549));
#551=PRESENTATION_STYLE_ASSIGNMENT((#552));
#552=SURFACE_STYLE_USAGE(.BOTH.,#555);
#553=SURFACE_STYLE_RENDERING_WITH_PROPERTIES($,#559,(#554));
#554=SURFACE_STYLE_TRANSPARENT(0.);
#555=SURFACE_SIDE_STYLE('',(#556,#553));
#556=SURFACE_STYLE_FILL_AREA(#557);
#557=FILL_AREA_STYLE('',(#558));
#558=FILL_AREA_STYLE_COLOUR('',#559);
#559=COLOUR_RGB('',0.749019607843137,0.749019607843137,0.749019607843137);
ENDSEC;
END-ISO-10303-21;
