ISO-10303-21;
HEADER;
/* Generated by software containing ST-Developer
 * from STEP Tools, Inc. (www.steptools.com) 
 */

FILE_DESCRIPTION(
/* description */ (''),
/* implementation_level */ '2;1');

FILE_NAME(
/* name */ 
'C:\\Users\\cad\\Desktop\\Zeichnungen neu von Ralph\\3D_Kupplung_R134-
SE\\3D_R134-SE-21.3-26.9_171011216.stp',
/* time_stamp */ '2021-06-24T11:09:49+02:00',
/* author */ ('cad'),
/* organization */ (''),
/* preprocessor_version */ 'ST-DEVELOPER v18.1',
/* originating_system */ 'Autodesk Inventor 2022',
/* authorisation */ '');

FILE_SCHEMA (('AUTOMOTIVE_DESIGN { 1 0 10303 214 3 1 1 }'));
ENDSEC;

DATA;
#10=MECHANICAL_DESIGN_GEOMETRIC_PRESENTATION_REPRESENTATION('',(#13),#600);
#11=SHAPE_REPRESENTATION_RELATIONSHIP('SRR','None',#607,#12);
#12=ADVANCED_BREP_SHAPE_REPRESENTATION('',(#14),#599);
#13=STYLED_ITEM('',(#616),#14);
#14=MANIFOLD_SOLID_BREP('Volumenk\X\F6rper1',#316);
#15=TOROIDAL_SURFACE('',#366,11.65,1.);
#16=TOROIDAL_SURFACE('',#372,16.9,0.4);
#17=TOROIDAL_SURFACE('',#374,17.2090093457251,0.4);
#18=TOROIDAL_SURFACE('',#381,15.7806875021114,0.2);
#19=FACE_BOUND('',#56,.T.);
#20=FACE_BOUND('',#59,.T.);
#21=FACE_BOUND('',#64,.T.);
#22=FACE_BOUND('',#67,.T.);
#23=FACE_BOUND('',#75,.T.);
#24=PLANE('',#342);
#25=PLANE('',#348);
#26=PLANE('',#360);
#27=PLANE('',#364);
#28=PLANE('',#384);
#29=CYLINDRICAL_SURFACE('',#340,8.65);
#30=CYLINDRICAL_SURFACE('',#350,16.5);
#31=CYLINDRICAL_SURFACE('',#357,18.);
#32=CYLINDRICAL_SURFACE('',#370,10.65);
#33=FACE_OUTER_BOUND('',#53,.T.);
#34=FACE_OUTER_BOUND('',#54,.T.);
#35=FACE_OUTER_BOUND('',#55,.T.);
#36=FACE_OUTER_BOUND('',#57,.T.);
#37=FACE_OUTER_BOUND('',#58,.T.);
#38=FACE_OUTER_BOUND('',#60,.T.);
#39=FACE_OUTER_BOUND('',#61,.T.);
#40=FACE_OUTER_BOUND('',#62,.T.);
#41=FACE_OUTER_BOUND('',#63,.T.);
#42=FACE_OUTER_BOUND('',#65,.T.);
#43=FACE_OUTER_BOUND('',#66,.T.);
#44=FACE_OUTER_BOUND('',#68,.T.);
#45=FACE_OUTER_BOUND('',#69,.T.);
#46=FACE_OUTER_BOUND('',#70,.T.);
#47=FACE_OUTER_BOUND('',#71,.T.);
#48=FACE_OUTER_BOUND('',#72,.T.);
#49=FACE_OUTER_BOUND('',#73,.T.);
#50=FACE_OUTER_BOUND('',#74,.T.);
#51=FACE_OUTER_BOUND('',#76,.T.);
#52=FACE_OUTER_BOUND('',#77,.T.);
#53=EDGE_LOOP('',(#203,#204,#205,#206,#207));
#54=EDGE_LOOP('',(#208,#209,#210,#211,#212));
#55=EDGE_LOOP('',(#213));
#56=EDGE_LOOP('',(#214));
#57=EDGE_LOOP('',(#215,#216,#217,#218,#219));
#58=EDGE_LOOP('',(#220));
#59=EDGE_LOOP('',(#221));
#60=EDGE_LOOP('',(#222,#223,#224,#225,#226,#227));
#61=EDGE_LOOP('',(#228,#229,#230,#231,#232));
#62=EDGE_LOOP('',(#233,#234,#235,#236,#237,#238));
#63=EDGE_LOOP('',(#239));
#64=EDGE_LOOP('',(#240));
#65=EDGE_LOOP('',(#241,#242,#243,#244,#245));
#66=EDGE_LOOP('',(#246));
#67=EDGE_LOOP('',(#247));
#68=EDGE_LOOP('',(#248,#249,#250,#251,#252));
#69=EDGE_LOOP('',(#253,#254,#255,#256,#257));
#70=EDGE_LOOP('',(#258,#259,#260,#261,#262));
#71=EDGE_LOOP('',(#263,#264,#265,#266,#267));
#72=EDGE_LOOP('',(#268,#269,#270,#271,#272,#273));
#73=EDGE_LOOP('',(#274,#275,#276,#277,#278));
#74=EDGE_LOOP('',(#279));
#75=EDGE_LOOP('',(#280));
#76=EDGE_LOOP('',(#281,#282,#283,#284));
#77=EDGE_LOOP('',(#285,#286,#287,#288));
#78=LINE('',#510,#89);
#79=LINE('',#517,#90);
#80=LINE('',#527,#91);
#81=LINE('',#536,#92);
#82=LINE('',#544,#93);
#83=LINE('',#551,#94);
#84=LINE('',#558,#95);
#85=LINE('',#570,#96);
#86=LINE('',#584,#97);
#87=LINE('',#594,#98);
#88=LINE('',#596,#99);
#89=VECTOR('',#394,8.8);
#90=VECTOR('',#403,8.65);
#91=VECTOR('',#414,16.35);
#92=VECTOR('',#425,16.5);
#93=VECTOR('',#434,17.85);
#94=VECTOR('',#443,18.);
#95=VECTOR('',#452,17.85);
#96=VECTOR('',#467,10.65);
#97=VECTOR('',#486,16.4101921749739);
#98=VECTOR('',#501,9.825);
#99=VECTOR('',#504,10.05);
#100=CIRCLE('',#337,8.95);
#101=CIRCLE('',#338,8.65);
#102=CIRCLE('',#339,8.65);
#103=CIRCLE('',#341,8.65);
#104=CIRCLE('',#343,9.45);
#105=CIRCLE('',#345,16.5);
#106=CIRCLE('',#346,16.5);
#107=CIRCLE('',#347,16.2);
#108=CIRCLE('',#349,11.65);
#109=CIRCLE('',#351,16.5);
#110=CIRCLE('',#352,16.5);
#111=CIRCLE('',#354,18.);
#112=CIRCLE('',#355,18.);
#113=CIRCLE('',#356,17.7);
#114=CIRCLE('',#358,18.);
#115=CIRCLE('',#359,18.);
#116=CIRCLE('',#361,16.9);
#117=CIRCLE('',#363,17.7);
#118=CIRCLE('',#365,17.2090093457251);
#119=CIRCLE('',#367,10.65);
#120=CIRCLE('',#368,1.);
#121=CIRCLE('',#369,10.65);
#122=CIRCLE('',#371,10.65);
#123=CIRCLE('',#373,0.4);
#124=CIRCLE('',#375,0.4);
#125=CIRCLE('',#376,16.8144951051102);
#126=CIRCLE('',#377,16.8144951051102);
#127=CIRCLE('',#379,15.9779446224188);
#128=CIRCLE('',#380,15.9779446224188);
#129=CIRCLE('',#382,15.7806875021114);
#130=CIRCLE('',#383,0.2);
#131=CIRCLE('',#385,11.);
#132=VERTEX_POINT('',#507);
#133=VERTEX_POINT('',#509);
#134=VERTEX_POINT('',#511);
#135=VERTEX_POINT('',#515);
#136=VERTEX_POINT('',#519);
#137=VERTEX_POINT('',#522);
#138=VERTEX_POINT('',#523);
#139=VERTEX_POINT('',#526);
#140=VERTEX_POINT('',#530);
#141=VERTEX_POINT('',#533);
#142=VERTEX_POINT('',#534);
#143=VERTEX_POINT('',#539);
#144=VERTEX_POINT('',#540);
#145=VERTEX_POINT('',#543);
#146=VERTEX_POINT('',#547);
#147=VERTEX_POINT('',#548);
#148=VERTEX_POINT('',#553);
#149=VERTEX_POINT('',#556);
#150=VERTEX_POINT('',#560);
#151=VERTEX_POINT('',#563);
#152=VERTEX_POINT('',#564);
#153=VERTEX_POINT('',#569);
#154=VERTEX_POINT('',#575);
#155=VERTEX_POINT('',#577);
#156=VERTEX_POINT('',#581);
#157=VERTEX_POINT('',#582);
#158=VERTEX_POINT('',#587);
#159=VERTEX_POINT('',#591);
#160=EDGE_CURVE('',#132,#132,#100,.T.);
#161=EDGE_CURVE('',#132,#133,#78,.T.);
#162=EDGE_CURVE('',#133,#134,#101,.T.);
#163=EDGE_CURVE('',#134,#133,#102,.T.);
#164=EDGE_CURVE('',#135,#135,#103,.T.);
#165=EDGE_CURVE('',#135,#134,#79,.T.);
#166=EDGE_CURVE('',#136,#136,#104,.T.);
#167=EDGE_CURVE('',#137,#138,#105,.T.);
#168=EDGE_CURVE('',#138,#137,#106,.T.);
#169=EDGE_CURVE('',#137,#139,#80,.T.);
#170=EDGE_CURVE('',#139,#139,#107,.T.);
#171=EDGE_CURVE('',#140,#140,#108,.T.);
#172=EDGE_CURVE('',#141,#142,#109,.T.);
#173=EDGE_CURVE('',#141,#138,#81,.T.);
#174=EDGE_CURVE('',#142,#141,#110,.T.);
#175=EDGE_CURVE('',#143,#144,#111,.T.);
#176=EDGE_CURVE('',#144,#143,#112,.T.);
#177=EDGE_CURVE('',#143,#145,#82,.T.);
#178=EDGE_CURVE('',#145,#145,#113,.T.);
#179=EDGE_CURVE('',#146,#147,#114,.T.);
#180=EDGE_CURVE('',#147,#146,#115,.T.);
#181=EDGE_CURVE('',#147,#144,#83,.T.);
#182=EDGE_CURVE('',#148,#148,#116,.T.);
#183=EDGE_CURVE('',#149,#149,#117,.T.);
#184=EDGE_CURVE('',#149,#146,#84,.T.);
#185=EDGE_CURVE('',#150,#150,#118,.T.);
#186=EDGE_CURVE('',#151,#152,#119,.T.);
#187=EDGE_CURVE('',#152,#140,#120,.T.);
#188=EDGE_CURVE('',#152,#151,#121,.T.);
#189=EDGE_CURVE('',#151,#153,#85,.T.);
#190=EDGE_CURVE('',#153,#153,#122,.T.);
#191=EDGE_CURVE('',#142,#148,#123,.T.);
#192=EDGE_CURVE('',#150,#154,#124,.T.);
#193=EDGE_CURVE('',#154,#155,#125,.T.);
#194=EDGE_CURVE('',#155,#154,#126,.T.);
#195=EDGE_CURVE('',#156,#157,#127,.T.);
#196=EDGE_CURVE('',#156,#155,#86,.T.);
#197=EDGE_CURVE('',#157,#156,#128,.T.);
#198=EDGE_CURVE('',#158,#158,#129,.T.);
#199=EDGE_CURVE('',#158,#157,#130,.T.);
#200=EDGE_CURVE('',#159,#159,#131,.T.);
#201=EDGE_CURVE('',#159,#135,#87,.T.);
#202=EDGE_CURVE('',#153,#136,#88,.T.);
#203=ORIENTED_EDGE('',*,*,#160,.T.);
#204=ORIENTED_EDGE('',*,*,#161,.T.);
#205=ORIENTED_EDGE('',*,*,#162,.T.);
#206=ORIENTED_EDGE('',*,*,#163,.T.);
#207=ORIENTED_EDGE('',*,*,#161,.F.);
#208=ORIENTED_EDGE('',*,*,#164,.T.);
#209=ORIENTED_EDGE('',*,*,#165,.T.);
#210=ORIENTED_EDGE('',*,*,#162,.F.);
#211=ORIENTED_EDGE('',*,*,#163,.F.);
#212=ORIENTED_EDGE('',*,*,#165,.F.);
#213=ORIENTED_EDGE('',*,*,#166,.F.);
#214=ORIENTED_EDGE('',*,*,#160,.F.);
#215=ORIENTED_EDGE('',*,*,#167,.T.);
#216=ORIENTED_EDGE('',*,*,#168,.T.);
#217=ORIENTED_EDGE('',*,*,#169,.T.);
#218=ORIENTED_EDGE('',*,*,#170,.T.);
#219=ORIENTED_EDGE('',*,*,#169,.F.);
#220=ORIENTED_EDGE('',*,*,#170,.F.);
#221=ORIENTED_EDGE('',*,*,#171,.F.);
#222=ORIENTED_EDGE('',*,*,#172,.F.);
#223=ORIENTED_EDGE('',*,*,#173,.T.);
#224=ORIENTED_EDGE('',*,*,#167,.F.);
#225=ORIENTED_EDGE('',*,*,#168,.F.);
#226=ORIENTED_EDGE('',*,*,#173,.F.);
#227=ORIENTED_EDGE('',*,*,#174,.F.);
#228=ORIENTED_EDGE('',*,*,#175,.T.);
#229=ORIENTED_EDGE('',*,*,#176,.T.);
#230=ORIENTED_EDGE('',*,*,#177,.T.);
#231=ORIENTED_EDGE('',*,*,#178,.T.);
#232=ORIENTED_EDGE('',*,*,#177,.F.);
#233=ORIENTED_EDGE('',*,*,#179,.F.);
#234=ORIENTED_EDGE('',*,*,#180,.F.);
#235=ORIENTED_EDGE('',*,*,#181,.T.);
#236=ORIENTED_EDGE('',*,*,#175,.F.);
#237=ORIENTED_EDGE('',*,*,#176,.F.);
#238=ORIENTED_EDGE('',*,*,#181,.F.);
#239=ORIENTED_EDGE('',*,*,#178,.F.);
#240=ORIENTED_EDGE('',*,*,#182,.F.);
#241=ORIENTED_EDGE('',*,*,#183,.T.);
#242=ORIENTED_EDGE('',*,*,#184,.T.);
#243=ORIENTED_EDGE('',*,*,#179,.T.);
#244=ORIENTED_EDGE('',*,*,#180,.T.);
#245=ORIENTED_EDGE('',*,*,#184,.F.);
#246=ORIENTED_EDGE('',*,*,#183,.F.);
#247=ORIENTED_EDGE('',*,*,#185,.F.);
#248=ORIENTED_EDGE('',*,*,#186,.T.);
#249=ORIENTED_EDGE('',*,*,#187,.T.);
#250=ORIENTED_EDGE('',*,*,#171,.T.);
#251=ORIENTED_EDGE('',*,*,#187,.F.);
#252=ORIENTED_EDGE('',*,*,#188,.T.);
#253=ORIENTED_EDGE('',*,*,#186,.F.);
#254=ORIENTED_EDGE('',*,*,#189,.T.);
#255=ORIENTED_EDGE('',*,*,#190,.T.);
#256=ORIENTED_EDGE('',*,*,#189,.F.);
#257=ORIENTED_EDGE('',*,*,#188,.F.);
#258=ORIENTED_EDGE('',*,*,#172,.T.);
#259=ORIENTED_EDGE('',*,*,#191,.T.);
#260=ORIENTED_EDGE('',*,*,#182,.T.);
#261=ORIENTED_EDGE('',*,*,#191,.F.);
#262=ORIENTED_EDGE('',*,*,#174,.T.);
#263=ORIENTED_EDGE('',*,*,#185,.T.);
#264=ORIENTED_EDGE('',*,*,#192,.T.);
#265=ORIENTED_EDGE('',*,*,#193,.T.);
#266=ORIENTED_EDGE('',*,*,#194,.T.);
#267=ORIENTED_EDGE('',*,*,#192,.F.);
#268=ORIENTED_EDGE('',*,*,#195,.F.);
#269=ORIENTED_EDGE('',*,*,#196,.T.);
#270=ORIENTED_EDGE('',*,*,#193,.F.);
#271=ORIENTED_EDGE('',*,*,#194,.F.);
#272=ORIENTED_EDGE('',*,*,#196,.F.);
#273=ORIENTED_EDGE('',*,*,#197,.F.);
#274=ORIENTED_EDGE('',*,*,#198,.T.);
#275=ORIENTED_EDGE('',*,*,#199,.T.);
#276=ORIENTED_EDGE('',*,*,#197,.T.);
#277=ORIENTED_EDGE('',*,*,#195,.T.);
#278=ORIENTED_EDGE('',*,*,#199,.F.);
#279=ORIENTED_EDGE('',*,*,#198,.F.);
#280=ORIENTED_EDGE('',*,*,#200,.F.);
#281=ORIENTED_EDGE('',*,*,#200,.T.);
#282=ORIENTED_EDGE('',*,*,#201,.T.);
#283=ORIENTED_EDGE('',*,*,#164,.F.);
#284=ORIENTED_EDGE('',*,*,#201,.F.);
#285=ORIENTED_EDGE('',*,*,#190,.F.);
#286=ORIENTED_EDGE('',*,*,#202,.T.);
#287=ORIENTED_EDGE('',*,*,#166,.T.);
#288=ORIENTED_EDGE('',*,*,#202,.F.);
#289=CONICAL_SURFACE('',#336,8.8,0.785398163397452);
#290=CONICAL_SURFACE('',#344,16.35,0.785398163397448);
#291=CONICAL_SURFACE('',#353,17.85,0.78539816339745);
#292=CONICAL_SURFACE('',#362,17.85,0.785398163397445);
#293=CONICAL_SURFACE('',#378,16.4101921749739,0.165806278939461);
#294=CONICAL_SURFACE('',#386,9.825,0.785398163397449);
#295=CONICAL_SURFACE('',#387,10.05,1.0471975511966);
#296=ADVANCED_FACE('',(#33),#289,.F.);
#297=ADVANCED_FACE('',(#34),#29,.F.);
#298=ADVANCED_FACE('',(#35,#19),#24,.T.);
#299=ADVANCED_FACE('',(#36),#290,.T.);
#300=ADVANCED_FACE('',(#37,#20),#25,.T.);
#301=ADVANCED_FACE('',(#38),#30,.T.);
#302=ADVANCED_FACE('',(#39),#291,.T.);
#303=ADVANCED_FACE('',(#40),#31,.T.);
#304=ADVANCED_FACE('',(#41,#21),#26,.T.);
#305=ADVANCED_FACE('',(#42),#292,.T.);
#306=ADVANCED_FACE('',(#43,#22),#27,.T.);
#307=ADVANCED_FACE('',(#44),#15,.F.);
#308=ADVANCED_FACE('',(#45),#32,.T.);
#309=ADVANCED_FACE('',(#46),#16,.F.);
#310=ADVANCED_FACE('',(#47),#17,.F.);
#311=ADVANCED_FACE('',(#48),#293,.T.);
#312=ADVANCED_FACE('',(#49),#18,.T.);
#313=ADVANCED_FACE('',(#50,#23),#28,.T.);
#314=ADVANCED_FACE('',(#51),#294,.F.);
#315=ADVANCED_FACE('',(#52),#295,.T.);
#316=CLOSED_SHELL('',(#296,#297,#298,#299,#300,#301,#302,#303,#304,#305,
#306,#307,#308,#309,#310,#311,#312,#313,#314,#315));
#317=DERIVED_UNIT_ELEMENT(#319,1.);
#318=DERIVED_UNIT_ELEMENT(#602,-3.);
#319=(
MASS_UNIT()
NAMED_UNIT(*)
SI_UNIT($,.GRAM.)
);
#320=DERIVED_UNIT((#317,#318));
#321=MEASURE_REPRESENTATION_ITEM('density measure',
POSITIVE_RATIO_MEASURE(1.),#320);
#322=PROPERTY_DEFINITION_REPRESENTATION(#327,#324);
#323=PROPERTY_DEFINITION_REPRESENTATION(#328,#325);
#324=REPRESENTATION('material name',(#326),#599);
#325=REPRESENTATION('density',(#321),#599);
#326=DESCRIPTIVE_REPRESENTATION_ITEM('Generisch','Generisch');
#327=PROPERTY_DEFINITION('material property','material name',#609);
#328=PROPERTY_DEFINITION('material property','density of part',#609);
#329=DATE_TIME_ROLE('creation_date');
#330=APPLIED_DATE_AND_TIME_ASSIGNMENT(#331,#329,(#609));
#331=DATE_AND_TIME(#332,#333);
#332=CALENDAR_DATE(2021,24,6);
#333=LOCAL_TIME(0,0,0.,#334);
#334=COORDINATED_UNIVERSAL_TIME_OFFSET(0,0,.BEHIND.);
#335=AXIS2_PLACEMENT_3D('placement',#505,#388,#389);
#336=AXIS2_PLACEMENT_3D('',#506,#390,#391);
#337=AXIS2_PLACEMENT_3D('',#508,#392,#393);
#338=AXIS2_PLACEMENT_3D('',#512,#395,#396);
#339=AXIS2_PLACEMENT_3D('',#513,#397,#398);
#340=AXIS2_PLACEMENT_3D('',#514,#399,#400);
#341=AXIS2_PLACEMENT_3D('',#516,#401,#402);
#342=AXIS2_PLACEMENT_3D('',#518,#404,#405);
#343=AXIS2_PLACEMENT_3D('',#520,#406,#407);
#344=AXIS2_PLACEMENT_3D('',#521,#408,#409);
#345=AXIS2_PLACEMENT_3D('',#524,#410,#411);
#346=AXIS2_PLACEMENT_3D('',#525,#412,#413);
#347=AXIS2_PLACEMENT_3D('',#528,#415,#416);
#348=AXIS2_PLACEMENT_3D('',#529,#417,#418);
#349=AXIS2_PLACEMENT_3D('',#531,#419,#420);
#350=AXIS2_PLACEMENT_3D('',#532,#421,#422);
#351=AXIS2_PLACEMENT_3D('',#535,#423,#424);
#352=AXIS2_PLACEMENT_3D('',#537,#426,#427);
#353=AXIS2_PLACEMENT_3D('',#538,#428,#429);
#354=AXIS2_PLACEMENT_3D('',#541,#430,#431);
#355=AXIS2_PLACEMENT_3D('',#542,#432,#433);
#356=AXIS2_PLACEMENT_3D('',#545,#435,#436);
#357=AXIS2_PLACEMENT_3D('',#546,#437,#438);
#358=AXIS2_PLACEMENT_3D('',#549,#439,#440);
#359=AXIS2_PLACEMENT_3D('',#550,#441,#442);
#360=AXIS2_PLACEMENT_3D('',#552,#444,#445);
#361=AXIS2_PLACEMENT_3D('',#554,#446,#447);
#362=AXIS2_PLACEMENT_3D('',#555,#448,#449);
#363=AXIS2_PLACEMENT_3D('',#557,#450,#451);
#364=AXIS2_PLACEMENT_3D('',#559,#453,#454);
#365=AXIS2_PLACEMENT_3D('',#561,#455,#456);
#366=AXIS2_PLACEMENT_3D('',#562,#457,#458);
#367=AXIS2_PLACEMENT_3D('',#565,#459,#460);
#368=AXIS2_PLACEMENT_3D('',#566,#461,#462);
#369=AXIS2_PLACEMENT_3D('',#567,#463,#464);
#370=AXIS2_PLACEMENT_3D('',#568,#465,#466);
#371=AXIS2_PLACEMENT_3D('',#571,#468,#469);
#372=AXIS2_PLACEMENT_3D('',#572,#470,#471);
#373=AXIS2_PLACEMENT_3D('',#573,#472,#473);
#374=AXIS2_PLACEMENT_3D('',#574,#474,#475);
#375=AXIS2_PLACEMENT_3D('',#576,#476,#477);
#376=AXIS2_PLACEMENT_3D('',#578,#478,#479);
#377=AXIS2_PLACEMENT_3D('',#579,#480,#481);
#378=AXIS2_PLACEMENT_3D('',#580,#482,#483);
#379=AXIS2_PLACEMENT_3D('',#583,#484,#485);
#380=AXIS2_PLACEMENT_3D('',#585,#487,#488);
#381=AXIS2_PLACEMENT_3D('',#586,#489,#490);
#382=AXIS2_PLACEMENT_3D('',#588,#491,#492);
#383=AXIS2_PLACEMENT_3D('',#589,#493,#494);
#384=AXIS2_PLACEMENT_3D('',#590,#495,#496);
#385=AXIS2_PLACEMENT_3D('',#592,#497,#498);
#386=AXIS2_PLACEMENT_3D('',#593,#499,#500);
#387=AXIS2_PLACEMENT_3D('',#595,#502,#503);
#388=DIRECTION('axis',(0.,0.,1.));
#389=DIRECTION('refdir',(1.,0.,0.));
#390=DIRECTION('center_axis',(-1.,0.,0.));
#391=DIRECTION('ref_axis',(0.,-1.,0.));
#392=DIRECTION('center_axis',(-1.,0.,0.));
#393=DIRECTION('ref_axis',(0.,-1.,0.));
#394=DIRECTION('',(0.707106781186545,-0.70710678118655,8.65956056235496E-17));
#395=DIRECTION('center_axis',(1.,0.,0.));
#396=DIRECTION('ref_axis',(0.,-1.,0.));
#397=DIRECTION('center_axis',(1.,0.,0.));
#398=DIRECTION('ref_axis',(0.,-1.,0.));
#399=DIRECTION('center_axis',(1.,0.,0.));
#400=DIRECTION('ref_axis',(0.,1.,0.));
#401=DIRECTION('center_axis',(1.,0.,0.));
#402=DIRECTION('ref_axis',(0.,0.,-1.));
#403=DIRECTION('',(-1.,0.,0.));
#404=DIRECTION('center_axis',(-1.,0.,0.));
#405=DIRECTION('ref_axis',(0.,0.,1.));
#406=DIRECTION('center_axis',(1.,0.,0.));
#407=DIRECTION('ref_axis',(0.,0.,-1.));
#408=DIRECTION('center_axis',(1.,0.,0.));
#409=DIRECTION('ref_axis',(0.,-1.,0.));
#410=DIRECTION('center_axis',(-1.,0.,0.));
#411=DIRECTION('ref_axis',(0.,-1.,0.));
#412=DIRECTION('center_axis',(-1.,0.,0.));
#413=DIRECTION('ref_axis',(0.,-1.,0.));
#414=DIRECTION('',(-0.707106781186547,-0.707106781186547,-8.65956056235493E-17));
#415=DIRECTION('center_axis',(1.,0.,0.));
#416=DIRECTION('ref_axis',(0.,-1.,0.));
#417=DIRECTION('center_axis',(-1.,0.,0.));
#418=DIRECTION('ref_axis',(0.,0.,1.));
#419=DIRECTION('center_axis',(-1.,0.,0.));
#420=DIRECTION('ref_axis',(0.,-1.,1.83697019872103E-16));
#421=DIRECTION('center_axis',(1.,0.,0.));
#422=DIRECTION('ref_axis',(0.,1.,0.));
#423=DIRECTION('center_axis',(1.,0.,0.));
#424=DIRECTION('ref_axis',(0.,-1.,1.83697019872103E-16));
#425=DIRECTION('',(-1.,0.,0.));
#426=DIRECTION('center_axis',(1.,0.,0.));
#427=DIRECTION('ref_axis',(0.,-1.,1.83697019872103E-16));
#428=DIRECTION('center_axis',(1.,0.,0.));
#429=DIRECTION('ref_axis',(0.,-1.,0.));
#430=DIRECTION('center_axis',(-1.,0.,0.));
#431=DIRECTION('ref_axis',(0.,-1.,0.));
#432=DIRECTION('center_axis',(-1.,0.,0.));
#433=DIRECTION('ref_axis',(0.,-1.,0.));
#434=DIRECTION('',(-0.707106781186546,-0.707106781186549,-8.65956056235495E-17));
#435=DIRECTION('center_axis',(1.,0.,0.));
#436=DIRECTION('ref_axis',(0.,-1.,0.));
#437=DIRECTION('center_axis',(1.,0.,0.));
#438=DIRECTION('ref_axis',(0.,1.,0.));
#439=DIRECTION('center_axis',(1.,0.,0.));
#440=DIRECTION('ref_axis',(0.,-1.,0.));
#441=DIRECTION('center_axis',(1.,0.,0.));
#442=DIRECTION('ref_axis',(0.,-1.,0.));
#443=DIRECTION('',(-1.,0.,0.));
#444=DIRECTION('center_axis',(-1.,0.,0.));
#445=DIRECTION('ref_axis',(0.,0.,1.));
#446=DIRECTION('center_axis',(-1.,0.,0.));
#447=DIRECTION('ref_axis',(0.,-1.,1.83697019872103E-16));
#448=DIRECTION('center_axis',(-1.,0.,0.));
#449=DIRECTION('ref_axis',(0.,-1.,0.));
#450=DIRECTION('center_axis',(-1.,0.,0.));
#451=DIRECTION('ref_axis',(0.,-1.,0.));
#452=DIRECTION('',(-0.70710678118655,0.707106781186545,8.6595605623549E-17));
#453=DIRECTION('center_axis',(1.,0.,0.));
#454=DIRECTION('ref_axis',(0.,0.,-1.));
#455=DIRECTION('center_axis',(1.,0.,0.));
#456=DIRECTION('ref_axis',(0.,-1.,1.83697019872103E-16));
#457=DIRECTION('center_axis',(1.,0.,0.));
#458=DIRECTION('ref_axis',(0.,0.,-1.));
#459=DIRECTION('center_axis',(1.,0.,0.));
#460=DIRECTION('ref_axis',(0.,-1.,1.83697019872103E-16));
#461=DIRECTION('center_axis',(0.,-1.,-1.22464679914735E-16));
#462=DIRECTION('ref_axis',(0.,-1.22464679914735E-16,1.));
#463=DIRECTION('center_axis',(1.,0.,0.));
#464=DIRECTION('ref_axis',(0.,-1.,1.83697019872103E-16));
#465=DIRECTION('center_axis',(1.,0.,0.));
#466=DIRECTION('ref_axis',(0.,1.,0.));
#467=DIRECTION('',(-1.,0.,0.));
#468=DIRECTION('center_axis',(1.,0.,0.));
#469=DIRECTION('ref_axis',(0.,0.,-1.));
#470=DIRECTION('center_axis',(1.,0.,0.));
#471=DIRECTION('ref_axis',(0.,0.,-1.));
#472=DIRECTION('center_axis',(0.,-1.,-1.22464679914735E-16));
#473=DIRECTION('ref_axis',(0.,-1.22464679914735E-16,1.));
#474=DIRECTION('center_axis',(1.,0.,0.));
#475=DIRECTION('ref_axis',(0.,0.,-1.));
#476=DIRECTION('center_axis',(0.,-1.,-1.22464679914735E-16));
#477=DIRECTION('ref_axis',(0.,-1.22464679914735E-16,1.));
#478=DIRECTION('center_axis',(-1.,0.,0.));
#479=DIRECTION('ref_axis',(0.,-1.,3.06161699786838E-17));
#480=DIRECTION('center_axis',(-1.,0.,0.));
#481=DIRECTION('ref_axis',(0.,-1.,3.06161699786838E-17));
#482=DIRECTION('center_axis',(-1.,0.,0.));
#483=DIRECTION('ref_axis',(0.,1.,0.));
#484=DIRECTION('center_axis',(1.,0.,0.));
#485=DIRECTION('ref_axis',(0.,-1.,3.06161699786838E-17));
#486=DIRECTION('',(-0.986285601537232,-0.165047605860677,-2.02125022224212E-17));
#487=DIRECTION('center_axis',(1.,0.,0.));
#488=DIRECTION('ref_axis',(0.,-1.,3.06161699786838E-17));
#489=DIRECTION('center_axis',(1.,0.,0.));
#490=DIRECTION('ref_axis',(0.,0.,-1.));
#491=DIRECTION('center_axis',(-1.,0.,0.));
#492=DIRECTION('ref_axis',(0.,-1.,1.83697019872103E-16));
#493=DIRECTION('center_axis',(0.,-1.,-1.22464679914735E-16));
#494=DIRECTION('ref_axis',(0.,-1.22464679914735E-16,1.));
#495=DIRECTION('center_axis',(1.,0.,0.));
#496=DIRECTION('ref_axis',(0.,0.,-1.));
#497=DIRECTION('center_axis',(1.,0.,0.));
#498=DIRECTION('ref_axis',(0.,0.,-1.));
#499=DIRECTION('center_axis',(1.,0.,0.));
#500=DIRECTION('ref_axis',(0.,1.,0.));
#501=DIRECTION('',(-0.707106781186547,0.707106781186548,8.65956056235494E-17));
#502=DIRECTION('center_axis',(1.,0.,0.));
#503=DIRECTION('ref_axis',(0.,1.,0.));
#504=DIRECTION('',(-0.500000000000001,0.866025403784438,1.06057523872491E-16));
#505=CARTESIAN_POINT('',(0.,0.,0.));
#506=CARTESIAN_POINT('Origin',(-24.85,0.,0.));
#507=CARTESIAN_POINT('',(-25.,8.95,-1.09605888523688E-15));
#508=CARTESIAN_POINT('Origin',(-25.,0.,0.));
#509=CARTESIAN_POINT('',(-24.7,8.65,1.05931948126246E-15));
#510=CARTESIAN_POINT('',(-24.85,8.8,-1.07768918324967E-15));
#511=CARTESIAN_POINT('',(-24.7,-8.65,-1.05931948126246E-15));
#512=CARTESIAN_POINT('Origin',(-24.7,0.,0.));
#513=CARTESIAN_POINT('Origin',(-24.7,0.,0.));
#514=CARTESIAN_POINT('Origin',(-13.675,0.,0.));
#515=CARTESIAN_POINT('',(-2.35,-8.65,-1.05931948126246E-15));
#516=CARTESIAN_POINT('Origin',(-2.35,0.,0.));
#517=CARTESIAN_POINT('',(-13.675,-8.65,-1.05931948126246E-15));
#518=CARTESIAN_POINT('Origin',(-25.,9.45,0.));
#519=CARTESIAN_POINT('',(-25.,-9.45,-1.15729122519425E-15));
#520=CARTESIAN_POINT('Origin',(-25.,0.,0.));
#521=CARTESIAN_POINT('Origin',(-15.85,0.,0.));
#522=CARTESIAN_POINT('',(-15.7,16.5,-2.02066721859313E-15));
#523=CARTESIAN_POINT('',(-15.7,-16.5,-2.02066721859313E-15));
#524=CARTESIAN_POINT('Origin',(-15.7,0.,0.));
#525=CARTESIAN_POINT('Origin',(-15.7,0.,0.));
#526=CARTESIAN_POINT('',(-16.,16.2,1.98392781461871E-15));
#527=CARTESIAN_POINT('',(-15.85,16.35,2.00229751660592E-15));
#528=CARTESIAN_POINT('Origin',(-16.,0.,0.));
#529=CARTESIAN_POINT('Origin',(-16.,16.5,0.));
#530=CARTESIAN_POINT('',(-16.,-1.42671352100667E-15,11.65));
#531=CARTESIAN_POINT('Origin',(-16.,0.,0.));
#532=CARTESIAN_POINT('Origin',(-12.,0.,0.));
#533=CARTESIAN_POINT('',(-8.4,-16.5,-2.02066721859313E-15));
#534=CARTESIAN_POINT('',(-8.4,-2.02066721859313E-15,16.5));
#535=CARTESIAN_POINT('Origin',(-8.4,0.,0.));
#536=CARTESIAN_POINT('',(-12.,-16.5,-2.02066721859313E-15));
#537=CARTESIAN_POINT('Origin',(-8.4,0.,0.));
#538=CARTESIAN_POINT('Origin',(-7.85,0.,0.));
#539=CARTESIAN_POINT('',(-7.7,18.,-2.20436423846524E-15));
#540=CARTESIAN_POINT('',(-7.7,-18.,-2.20436423846524E-15));
#541=CARTESIAN_POINT('Origin',(-7.7,0.,0.));
#542=CARTESIAN_POINT('Origin',(-7.7,0.,0.));
#543=CARTESIAN_POINT('',(-8.,17.7,2.16762483449081E-15));
#544=CARTESIAN_POINT('',(-7.85,17.85,2.18599453647803E-15));
#545=CARTESIAN_POINT('Origin',(-8.,0.,0.));
#546=CARTESIAN_POINT('Origin',(-6.75,0.,0.));
#547=CARTESIAN_POINT('',(-5.80000000000001,18.,2.20436423846524E-15));
#548=CARTESIAN_POINT('',(-5.80000000000001,-18.,-2.20436423846524E-15));
#549=CARTESIAN_POINT('Origin',(-5.80000000000001,0.,0.));
#550=CARTESIAN_POINT('Origin',(-5.80000000000001,0.,0.));
#551=CARTESIAN_POINT('',(-6.75,-18.,-2.20436423846524E-15));
#552=CARTESIAN_POINT('Origin',(-8.,18.,0.));
#553=CARTESIAN_POINT('',(-8.,-2.06965309055903E-15,16.9));
#554=CARTESIAN_POINT('Origin',(-8.,0.,0.));
#555=CARTESIAN_POINT('Origin',(-5.65000000000001,0.,0.));
#556=CARTESIAN_POINT('',(-5.50000000000001,17.7,-2.16762483449081E-15));
#557=CARTESIAN_POINT('Origin',(-5.50000000000001,0.,0.));
#558=CARTESIAN_POINT('',(-5.65000000000001,17.85,2.18599453647803E-15));
#559=CARTESIAN_POINT('Origin',(-5.50000000000001,16.8703843499478,0.));
#560=CARTESIAN_POINT('',(-5.50000000000001,-2.10749582117391E-15,17.2090093457251));
#561=CARTESIAN_POINT('Origin',(-5.50000000000001,0.,0.));
#562=CARTESIAN_POINT('Origin',(-17.,0.,0.));
#563=CARTESIAN_POINT('',(-17.,-10.65,-1.30424884109193E-15));
#564=CARTESIAN_POINT('',(-17.,-1.30424884109193E-15,10.65));
#565=CARTESIAN_POINT('Origin',(-17.,0.,0.));
#566=CARTESIAN_POINT('Origin',(-17.,-1.42671352100667E-15,11.65));
#567=CARTESIAN_POINT('Origin',(-17.,0.,0.));
#568=CARTESIAN_POINT('Origin',(-20.1535898384862,0.,0.));
#569=CARTESIAN_POINT('',(-24.3071796769724,-10.65,-1.30424884109193E-15));
#570=CARTESIAN_POINT('',(-20.1535898384862,-10.65,-1.30424884109193E-15));
#571=CARTESIAN_POINT('Origin',(-24.3071796769724,0.,0.));
#572=CARTESIAN_POINT('Origin',(-8.4,0.,0.));
#573=CARTESIAN_POINT('Origin',(-8.4,-2.06965309055903E-15,16.9));
#574=CARTESIAN_POINT('Origin',(-5.1,0.,0.));
#575=CARTESIAN_POINT('',(-5.16601904234428,-2.0591817609752E-15,16.8144951051102));
#576=CARTESIAN_POINT('Origin',(-5.1,-2.10749582117391E-15,17.2090093457251));
#577=CARTESIAN_POINT('',(-5.16601904234428,-16.8144951051102,-2.0591817609752E-15));
#578=CARTESIAN_POINT('Origin',(-5.16601904234428,0.,-2.573977201219E-15));
#579=CARTESIAN_POINT('Origin',(-5.16601904234428,0.,-2.573977201219E-15));
#580=CARTESIAN_POINT('Origin',(-2.75,0.,0.));
#581=CARTESIAN_POINT('',(-0.166990478827866,-15.9779446224188,-1.95673387387989E-15));
#582=CARTESIAN_POINT('',(-0.166990478827867,-1.95673387387989E-15,15.9779446224188));
#583=CARTESIAN_POINT('Origin',(-0.166990478827867,0.,-2.44591734234986E-15));
#584=CARTESIAN_POINT('',(-2.75,-16.4101921749739,-2.00966893204747E-15));
#585=CARTESIAN_POINT('Origin',(-0.166990478827867,0.,-2.44591734234986E-15));
#586=CARTESIAN_POINT('Origin',(-0.200000000000002,0.,0.));
#587=CARTESIAN_POINT('',(-2.22044604925031E-15,-1.93257684378053E-15,15.7806875021114));
#588=CARTESIAN_POINT('Origin',(-2.22044604925031E-15,0.,0.));
#589=CARTESIAN_POINT('Origin',(-0.200000000000002,-1.93257684378053E-15,
15.7806875021114));
#590=CARTESIAN_POINT('Origin',(-2.22044604925031E-15,11.,0.));
#591=CARTESIAN_POINT('',(-3.88578058618805E-15,-11.,-1.34711147906209E-15));
#592=CARTESIAN_POINT('Origin',(-4.44089209850063E-15,0.,0.));
#593=CARTESIAN_POINT('Origin',(-1.175,0.,0.));
#594=CARTESIAN_POINT('',(-1.175,-9.825,-1.20321548016227E-15));
#595=CARTESIAN_POINT('Origin',(-24.6535898384862,0.,0.));
#596=CARTESIAN_POINT('',(-24.6535898384862,-10.05,-1.23077003314309E-15));
#597=UNCERTAINTY_MEASURE_WITH_UNIT(LENGTH_MEASURE(0.01),#601,
'DISTANCE_ACCURACY_VALUE',
'Maximum model space distance between geometric entities at asserted c
onnectivities');
#598=UNCERTAINTY_MEASURE_WITH_UNIT(LENGTH_MEASURE(0.01),#601,
'DISTANCE_ACCURACY_VALUE',
'Maximum model space distance between geometric entities at asserted c
onnectivities');
#599=(
GEOMETRIC_REPRESENTATION_CONTEXT(3)
GLOBAL_UNCERTAINTY_ASSIGNED_CONTEXT((#597))
GLOBAL_UNIT_ASSIGNED_CONTEXT((#601,#603,#604))
REPRESENTATION_CONTEXT('','3D')
);
#600=(
GEOMETRIC_REPRESENTATION_CONTEXT(3)
GLOBAL_UNCERTAINTY_ASSIGNED_CONTEXT((#598))
GLOBAL_UNIT_ASSIGNED_CONTEXT((#601,#603,#604))
REPRESENTATION_CONTEXT('','3D')
);
#601=(
LENGTH_UNIT()
NAMED_UNIT(*)
SI_UNIT(.MILLI.,.METRE.)
);
#602=(
LENGTH_UNIT()
NAMED_UNIT(*)
SI_UNIT(.CENTI.,.METRE.)
);
#603=(
NAMED_UNIT(*)
PLANE_ANGLE_UNIT()
SI_UNIT($,.RADIAN.)
);
#604=(
NAMED_UNIT(*)
SI_UNIT($,.STERADIAN.)
SOLID_ANGLE_UNIT()
);
#605=SHAPE_DEFINITION_REPRESENTATION(#606,#607);
#606=PRODUCT_DEFINITION_SHAPE('',$,#609);
#607=SHAPE_REPRESENTATION('',(#335),#599);
#608=PRODUCT_DEFINITION_CONTEXT('part definition',#613,'design');
#609=PRODUCT_DEFINITION('3D_R134-SE-21.3-26.9_171011216',
'3D_R134-SE-21.3-26.9_171011216',#610,#608);
#610=PRODUCT_DEFINITION_FORMATION('',$,#615);
#611=PRODUCT_RELATED_PRODUCT_CATEGORY('3D_R134-SE-21.3-26.9_171011216',
'3D_R134-SE-21.3-26.9_171011216',(#615));
#612=APPLICATION_PROTOCOL_DEFINITION('international standard',
'automotive_design',2009,#613);
#613=APPLICATION_CONTEXT(
'Core Data for Automotive Mechanical Design Process');
#614=PRODUCT_CONTEXT('part definition',#613,'mechanical');
#615=PRODUCT('3D_R134-SE-21.3-26.9_171011216',
'3D_R134-SE-21.3-26.9_171011216',$,(#614));
#616=PRESENTATION_STYLE_ASSIGNMENT((#617));
#617=SURFACE_STYLE_USAGE(.BOTH.,#620);
#618=SURFACE_STYLE_RENDERING_WITH_PROPERTIES($,#624,(#619));
#619=SURFACE_STYLE_TRANSPARENT(0.);
#620=SURFACE_SIDE_STYLE('',(#621,#618));
#621=SURFACE_STYLE_FILL_AREA(#622);
#622=FILL_AREA_STYLE('',(#623));
#623=FILL_AREA_STYLE_COLOUR('',#624);
#624=COLOUR_RGB('',0.749019607843137,0.749019607843137,0.749019607843137);
ENDSEC;
END-ISO-10303-21;
