ISO-10303-21;
HEADER;
FILE_DESCRIPTION (( 'STEP AP203' ),
    '1' );
FILE_NAME ('3D_R-159_DN50_1780150.STEP',
    '2024-08-12T06:42:24',
    ( '' ),
    ( '' ),
    'SwSTEP 2.0',
    'SolidWorks 2024',
    '' );
FILE_SCHEMA (( 'CONFIG_CONTROL_DESIGN' ));
ENDSEC;

DATA;
#1 = CONICAL_SURFACE ( 'NONE', #217, 30.15146405944867425, 1.570771925804082869 ) ;
#2 = DIRECTION ( 'NONE',  ( 2.440099081160220109E-05, -0.9999999997022956943, 0.000000000000000000 ) ) ;
#3 = UNCERTAINTY_MEASURE_WITH_UNIT (LENGTH_MEASURE( 1.000000000000000082E-05 ), #345, 'distance_accuracy_value', 'NONE');
#4 = EDGE_CURVE ( 'NONE', #249, #65, #79, .T. ) ;
#5 = EDGE_LOOP ( 'NONE', ( #373, #370, #311, #6 ) ) ;
#6 = ORIENTED_EDGE ( 'NONE', *, *, #384, .F. ) ;
#7 = LINE ( 'NONE', #102, #63 ) ;
#8 = ORIENTED_EDGE ( 'NONE', *, *, #31, .T. ) ;
#9 = VECTOR ( 'NONE', #304, 1000.000000000000114 ) ;
#10 = DATE_AND_TIME ( #281, #20 ) ;
#11 = ORIENTED_EDGE ( 'NONE', *, *, #267, .F. ) ;
#12 = CC_DESIGN_PERSON_AND_ORGANIZATION_ASSIGNMENT ( #300, #272, ( #92 ) ) ;
#13 = CARTESIAN_POINT ( 'NONE',  ( -106.4553464302463084, 35.42919499628811764, 0.000000000000000000 ) ) ;
#14 = EDGE_CURVE ( 'NONE', #35, #132, #285, .T. ) ;
#15 = VECTOR ( 'NONE', #356, 1000.000000000000114 ) ;
#16 = ORIENTED_EDGE ( 'NONE', *, *, #326, .F. ) ;
#17 = DIRECTION ( 'NONE',  ( 0.9999999997022959164, 2.440099081145985212E-05, 0.000000000000000000 ) ) ;
#18 = AXIS2_PLACEMENT_3D ( 'NONE', #83, #360, #388 ) ;
#19 = EDGE_LOOP ( 'NONE', ( #279, #103, #73, #246 ) ) ;
#20 = LOCAL_TIME ( 8, 42, 24.00000000000000000, #159 ) ;
#21 = DIRECTION ( 'NONE',  ( 2.440099081146459889E-05, -0.9999999997022959164, 0.000000000000000000 ) ) ;
#22 = DIRECTION ( 'NONE',  ( -0.9999999997022959164, -2.440099081145985212E-05, -0.000000000000000000 ) ) ;
#23 = VECTOR ( 'NONE', #230, 1000.000000000000000 ) ;
#24 = CARTESIAN_POINT ( 'NONE',  ( -46.45387505050034349, -24.87080498575516785, 3.692310099428641675E-15 ) ) ;
#25 = COORDINATED_UNIVERSAL_TIME_OFFSET ( 1, 0, .AHEAD. ) ;
#26 = CARTESIAN_POINT ( 'NONE',  ( -108.4534431505813643, -33.72236664126103278, 4.776128493192811215E-15 ) ) ;
#27 = DIRECTION ( 'NONE',  ( 2.440099081147650140E-05, -0.9999999997022958054, 0.000000000000000000 ) ) ;
#28 = APPROVAL_ROLE ( '' ) ;
#29 = CONICAL_SURFACE ( 'NONE', #247, 39.00000000000001421, 2.440099081366786711E-05 ) ;
#30 = CC_DESIGN_DATE_AND_TIME_ASSIGNMENT ( #118, #210, ( #108 ) ) ;
#31 = EDGE_CURVE ( 'NONE', #106, #93, #293, .T. ) ;
#32 = FACE_OUTER_BOUND ( 'NONE', #243, .T. ) ;
#33 = CIRCLE ( 'NONE', #202, 30.15000000000000568 ) ;
#34 = AXIS2_PLACEMENT_3D ( 'NONE', #168, #290, #21 ) ;
#35 = VERTEX_POINT ( 'NONE', #348 ) ;
#36 = APPROVAL_ROLE ( '' ) ;
#37 = CC_DESIGN_SECURITY_CLASSIFICATION ( #108, ( #92 ) ) ;
#38 = ORIENTED_EDGE ( 'NONE', *, *, #194, .F. ) ;
#39 = CALENDAR_DATE ( 2024, 12, 8 ) ;
#40 = ORIENTED_EDGE ( 'NONE', *, *, #169, .F. ) ;
#41 = COORDINATED_UNIVERSAL_TIME_OFFSET ( 1, 0, .AHEAD. ) ;
#42 = PRODUCT_DEFINITION ( 'UNKNOWN', '', #92, #359 ) ;
#43 = ORIENTED_EDGE ( 'NONE', *, *, #171, .T. ) ;
#44 = VECTOR ( 'NONE', #338, 1000.000000000000000 ) ;
#45 = ADVANCED_FACE ( 'NONE', ( #222 ), #89, .T. ) ;
#46 = CARTESIAN_POINT ( 'NONE',  ( -106.4543947916046562, 5.277730951084153688, 0.000000000000000000 ) ) ;
#47 = DIRECTION ( 'NONE',  ( -0.9999999997022959164, -2.440099081145985212E-05, -0.000000000000000000 ) ) ;
#48 = DIRECTION ( 'NONE',  ( 2.440099081146459889E-05, -0.9999999997022959164, 0.000000000000000000 ) ) ;
#49 = CONICAL_SURFACE ( 'NONE', #321, 30.15146405944867425, 1.570771925804082869 ) ;
#50 = EDGE_LOOP ( 'NONE', ( #350, #199, #375, #100 ) ) ;
#51 = FACE_OUTER_BOUND ( 'NONE', #276, .T. ) ;
#52 = CARTESIAN_POINT ( 'NONE',  ( -46.45461074037331173, 5.279195005263913387, 0.000000000000000000 ) ) ;
#53 = CC_DESIGN_APPROVAL ( #223, ( #92 ) ) ;
#54 = DIRECTION ( 'NONE',  ( -2.440099081165996535E-05, 0.9999999997022958054, 0.000000000000000000 ) ) ;
#55 = CARTESIAN_POINT ( 'NONE',  ( -46.45397265446357693, -22.87080498814194129, 3.447380739672716486E-15 ) ) ;
#56 = VECTOR ( 'NONE', #371, 1000.000000000000000 ) ;
#57 = CARTESIAN_POINT ( 'NONE',  ( -106.4546107046488288, 5.277730945815661379, 0.000000000000000000 ) ) ;
#59 = LINE ( 'NONE', #82, #148 ) ;
#58 = APPLICATION_CONTEXT ( 'configuration controlled 3d designs of mechanical parts and assemblies' ) ;
#60 = CARTESIAN_POINT ( 'NONE',  ( -108.4546595054396221, 5.277682142643236318, 0.000000000000000000 ) ) ;
#61 = EDGE_CURVE ( 'NONE', #106, #249, #109, .T. ) ;
#62 = CALENDAR_DATE ( 2024, 12, 8 ) ;
#63 = VECTOR ( 'NONE', #218, 1000.000000000000114 ) ;
#64 = CARTESIAN_POINT ( 'NONE',  ( -106.4538749790513634, -24.87373310465680021, 3.692489395001028955E-15 ) ) ;
#65 = VERTEX_POINT ( 'NONE', #351 ) ;
#66 = DIRECTION ( 'NONE',  ( -0.9999999997022959164, -2.440099081145985212E-05, -0.000000000000000000 ) ) ;
#67 = AXIS2_PLACEMENT_3D ( 'NONE', #60, #178, #383 ) ;
#68 = APPROVAL_ROLE ( '' ) ;
#69 = AXIS2_PLACEMENT_3D ( 'NONE', #309, #130, #248 ) ;
#70 = ORIENTED_EDGE ( 'NONE', *, *, #181, .T. ) ;
#71 = EDGE_CURVE ( 'NONE', #65, #122, #133, .T. ) ;
#72 = PERSON_AND_ORGANIZATION_ROLE ( 'design_owner' ) ;
#73 = ORIENTED_EDGE ( 'NONE', *, *, #363, .T. ) ;
#74 = DIRECTION ( 'NONE',  ( -2.440099081146458873E-05, 0.9999999997022959164, 0.000000000000000000 ) ) ;
#75 = VECTOR ( 'NONE', #320, 1000.000000000000114 ) ;
#76 = EDGE_LOOP ( 'NONE', ( #365, #70, #323, #101 ) ) ;
#77 = CARTESIAN_POINT ( 'NONE',  ( -46.45465954235493200, 5.279195004073096165, 0.000000000000000000 ) ) ;
#78 =( NAMED_UNIT ( * ) PLANE_ANGLE_UNIT ( ) SI_UNIT ( $, .RADIAN. ) );
#79 = LINE ( 'NONE', #13, #56 ) ;
#80 = DIRECTION ( 'NONE',  ( -2.440099081146974207E-05, 0.9999999997022958054, 0.000000000000000000 ) ) ;
#81 = EDGE_LOOP ( 'NONE', ( #316, #274, #251, #282 ) ) ;
#82 = CARTESIAN_POINT ( 'NONE',  ( -108.4553464302462942, 33.42919499628811764, 3.447566011763533321E-15 ) ) ;
#83 = CARTESIAN_POINT ( 'NONE',  ( -106.4543947916046562, 5.277730951084153688, 0.000000000000000000 ) ) ;
#84 = CC_DESIGN_PERSON_AND_ORGANIZATION_ASSIGNMENT ( #277, #228, ( #42 ) ) ;
#85 = EDGE_CURVE ( 'NONE', #132, #288, #205, .T. ) ;
#86 = FACE_OUTER_BOUND ( 'NONE', #81, .T. ) ;
#87 = AXIS2_PLACEMENT_3D ( 'NONE', #142, #231, #209 ) ;
#88 = CARTESIAN_POINT ( 'NONE',  ( -46.45461074037331173, 5.279195005263913387, 0.000000000000000000 ) ) ;
#89 = CONICAL_SURFACE ( 'NONE', #306, 39.00004880198162738, 1.570771925804082869 ) ;
#90 = DIRECTION ( 'NONE',  ( 0.9999999997022959164, 2.440099081145985212E-05, 0.000000000000000000 ) ) ;
#91 = CARTESIAN_POINT ( 'NONE',  ( -106.4538749790513634, -24.87373310465680021, 4.234305955837853022E-15 ) ) ;
#92 = PRODUCT_DEFINITION_FORMATION_WITH_SPECIFIED_SOURCE ( 'ANY', '', #107, .NOT_KNOWN. ) ;
#93 = VERTEX_POINT ( 'NONE', #24 ) ;
#94 = VECTOR ( 'NONE', #121, 1000.000000000000000 ) ;
#95 = CARTESIAN_POINT ( 'NONE',  ( -108.4553464302462942, 44.27773093947369176, 0.000000000000000000 ) ) ;
#96 = ORIENTED_EDGE ( 'NONE', *, *, #151, .F. ) ;
#97 = CALENDAR_DATE ( 2024, 12, 8 ) ;
#98 = LOCAL_TIME ( 8, 42, 24.00000000000000000, #387 ) ;
#99 = ADVANCED_FACE ( 'NONE', ( #175 ), #257, .T. ) ;
#100 = ORIENTED_EDGE ( 'NONE', *, *, #4, .F. ) ;
#101 = ORIENTED_EDGE ( 'NONE', *, *, #339, .F. ) ;
#102 = CARTESIAN_POINT ( 'NONE',  ( -108.4539725806329358, -22.87383071100164855, 0.000000000000000000 ) ) ;
#103 = ORIENTED_EDGE ( 'NONE', *, *, #169, .T. ) ;
#104 = CARTESIAN_POINT ( 'NONE',  ( -108.4543947904138292, 5.277682149102544962, 0.000000000000000000 ) ) ;
#105 = PERSON_AND_ORGANIZATION ( #284, #343 ) ;
#106 = VERTEX_POINT ( 'NONE', #235 ) ;
#107 = PRODUCT ( '3D_R-159_DN50_1780150', '3D_R-159_DN50_1780150', '', ( #369 ) ) ;
#108 = SECURITY_CLASSIFICATION ( '', '', #335 ) ;
#109 = LINE ( 'NONE', #317, #23 ) ;
#110 = DIRECTION ( 'NONE',  ( 0.9999999997022959164, 2.440099081145985212E-05, 0.000000000000000000 ) ) ;
#111 = CARTESIAN_POINT ( 'NONE',  ( -106.4553464302463084, 35.42919499628811764, 0.000000000000000000 ) ) ;
#112 = CONICAL_SURFACE ( 'NONE', #336, 30.15000000000000568, 2.440099081366777902E-05 ) ;
#113 = ADVANCED_FACE ( 'NONE', ( #358 ), #381, .T. ) ;
#114 = ADVANCED_FACE ( 'NONE', ( #297 ), #226, .F. ) ;
#115 = CARTESIAN_POINT ( 'NONE',  ( -106.4534431529630041, -33.72226903730539505, 0.000000000000000000 ) ) ;
#116 = CARTESIAN_POINT ( 'NONE',  ( -46.45465954235493200, 5.279195004073096165, 0.000000000000000000 ) ) ;
#117 = LINE ( 'NONE', #237, #15 ) ;
#118 = DATE_AND_TIME ( #239, #98 ) ;
#119 = LINE ( 'NONE', #242, #44 ) ;
#120 = ORIENTED_EDGE ( 'NONE', *, *, #326, .T. ) ;
#121 = DIRECTION ( 'NONE',  ( 6.974235506598466805E-15, 1.000000000000000000, 0.000000000000000000 ) ) ;
#122 = VERTEX_POINT ( 'NONE', #115 ) ;
#123 = EDGE_CURVE ( 'NONE', #93, #106, #33, .T. ) ;
#124 = CONICAL_SURFACE ( 'NONE', #280, 28.15000000059540497, 1.570771925804075764 ) ;
#125 = EDGE_LOOP ( 'NONE', ( #11, #227, #185, #16 ) ) ;
#126 = CARTESIAN_POINT ( 'NONE',  ( -108.4553464302462942, 33.42919499628811764, 3.447566011763533321E-15 ) ) ;
#127 = ORIENTED_EDGE ( 'NONE', *, *, #31, .F. ) ;
#128 = MANIFOLD_SOLID_BREP ( 'Rotation1', #330 ) ;
#129 = DIRECTION ( 'NONE',  ( 2.440099081160220109E-05, -0.9999999997022956943, 0.000000000000000000 ) ) ;
#130 = DIRECTION ( 'NONE',  ( 0.000000000000000000, 0.000000000000000000, 1.000000000000000000 ) ) ;
#131 = CIRCLE ( 'NONE', #357, 39.00000000000000000 ) ;
#132 = VERTEX_POINT ( 'NONE', #26 ) ;
#133 = CIRCLE ( 'NONE', #187, 39.00000000000000000 ) ;
#134 = DIRECTION ( 'NONE',  ( -0.9999999997022959164, -2.440099081145985212E-05, -0.000000000000000000 ) ) ;
#135 = EDGE_LOOP ( 'NONE', ( #254, #154, #307, #38 ) ) ;
#136 = FACE_OUTER_BOUND ( 'NONE', #19, .T. ) ;
#137 = APPROVAL_PERSON_ORGANIZATION ( #342, #223, #68 ) ;
#138 = CARTESIAN_POINT ( 'NONE',  ( -108.4546595054396221, 5.277682142643236318, 0.000000000000000000 ) ) ;
#139 = PRODUCT_RELATED_PRODUCT_CATEGORY ( 'detail', '', ( #107 ) ) ;
#140 = EDGE_CURVE ( 'NONE', #164, #249, #256, .T. ) ;
#141 = DIRECTION ( 'NONE',  ( 2.440099081147559338E-05, -0.9999999997022958054, 0.000000000000000000 ) ) ;
#142 = CARTESIAN_POINT ( 'NONE',  ( -106.4546107046488288, 5.277730945815661379, 0.000000000000000000 ) ) ;
#143 = CIRCLE ( 'NONE', #213, 30.15146405944867780 ) ;
#144 = DIRECTION ( 'NONE',  ( 0.9999999997022959164, 2.440099081145985212E-05, 0.000000000000000000 ) ) ;
#145 = DIRECTION ( 'NONE',  ( -0.9999999997022959164, -2.440099081145985212E-05, -0.000000000000000000 ) ) ;
#146 = DATE_AND_TIME ( #62, #333 ) ;
#147 = DIRECTION ( 'NONE',  ( -1.000000000000000000, -2.134895721577628747E-16, 2.988259529301683616E-21 ) ) ;
#148 = VECTOR ( 'NONE', #147, 1000.000000000000000 ) ;
#149 = SHAPE_DEFINITION_REPRESENTATION ( #198, #215 ) ;
#150 = APPROVAL ( #312, 'UNSPECIFIED' ) ;
#151 = EDGE_CURVE ( 'NONE', #93, #164, #324, .T. ) ;
#152 = VECTOR ( 'NONE', #328, 1000.000000000000114 ) ;
#153 = CARTESIAN_POINT ( 'NONE',  ( -108.4546595054396221, 5.277682142643236318, 0.000000000000000000 ) ) ;
#154 = ORIENTED_EDGE ( 'NONE', *, *, #267, .T. ) ;
#155 =( GEOMETRIC_REPRESENTATION_CONTEXT ( 3 ) GLOBAL_UNCERTAINTY_ASSIGNED_CONTEXT ( ( #3 ) ) GLOBAL_UNIT_ASSIGNED_CONTEXT ( ( #345, #78, #190 ) ) REPRESENTATION_CONTEXT ( 'NONE', 'WORKASPACE' ) );
#156 = APPROVAL_DATE_TIME ( #165, #150 ) ;
#157 = LINE ( 'NONE', #163, #94 ) ;
#158 = ORIENTED_EDGE ( 'NONE', *, *, #61, .T. ) ;
#159 = COORDINATED_UNIVERSAL_TIME_OFFSET ( 1, 0, .AHEAD. ) ;
#160 = CIRCLE ( 'NONE', #386, 28.15151286202571157 ) ;
#161 = ORIENTED_EDGE ( 'NONE', *, *, #339, .T. ) ;
#162 = DIRECTION ( 'NONE',  ( 2.440099081147650140E-05, -0.9999999997022958054, 0.000000000000000000 ) ) ;
#163 = CARTESIAN_POINT ( 'NONE',  ( -46.45534643024629418, 33.42919499628813185, 0.000000000000000000 ) ) ;
#164 = VERTEX_POINT ( 'NONE', #91 ) ;
#165 = DATE_AND_TIME ( #97, #219 ) ;
#166 = DIRECTION ( 'NONE',  ( -0.9999999997022959164, -2.440099081145985212E-05, -0.000000000000000000 ) ) ;
#167 = CARTESIAN_POINT ( 'NONE',  ( -46.45465954235493200, 5.279195004073096165, 0.000000000000000000 ) ) ;
#168 = CARTESIAN_POINT ( 'NONE',  ( -108.4543947904138292, 5.277682149102544962, 0.000000000000000000 ) ) ;
#169 = EDGE_CURVE ( 'NONE', #313, #258, #305, .T. ) ;
#170 = VECTOR ( 'NONE', #224, 1000.000000000000000 ) ;
#171 = EDGE_CURVE ( 'NONE', #258, #313, #184, .T. ) ;
#172 = FACE_OUTER_BOUND ( 'NONE', #50, .T. ) ;
#173 = FACE_OUTER_BOUND ( 'NONE', #346, .T. ) ;
#174 = APPROVAL_DATE_TIME ( #10, #223 ) ;
#175 = FACE_OUTER_BOUND ( 'NONE', #125, .T. ) ;
#176 = CARTESIAN_POINT ( 'NONE',  ( -46.45387505050034349, -24.87080498576030863, 0.000000000000000000 ) ) ;
#177 = PERSON_AND_ORGANIZATION ( #284, #343 ) ;
#178 = DIRECTION ( 'NONE',  ( -0.9999999997022959164, -2.440099081145985212E-05, -0.000000000000000000 ) ) ;
#179 = APPROVAL_DATE_TIME ( #146, #353 ) ;
#180 = AXIS2_PLACEMENT_3D ( 'NONE', #153, #287, #382 ) ;
#181 = EDGE_CURVE ( 'NONE', #258, #378, #59, .T. ) ;
#182 = EDGE_CURVE ( 'NONE', #122, #65, #131, .T. ) ;
#183 = DIRECTION ( 'NONE',  ( -0.9999999997022959164, -2.440099081145985212E-05, -0.000000000000000000 ) ) ;
#184 = CIRCLE ( 'NONE', #374, 28.15000000059541208 ) ;
#185 = ORIENTED_EDGE ( 'NONE', *, *, #194, .T. ) ;
#186 = DIRECTION ( 'NONE',  ( 2.440099081165996535E-05, -0.9999999997022959164, 0.000000000000000000 ) ) ;
#187 = AXIS2_PLACEMENT_3D ( 'NONE', #46, #47, #129 ) ;
#188 = PERSON_AND_ORGANIZATION ( #284, #343 ) ;
#189 = ORIENTED_EDGE ( 'NONE', *, *, #384, .T. ) ;
#190 =( NAMED_UNIT ( * ) SI_UNIT ( $, .STERADIAN. ) SOLID_ANGLE_UNIT ( ) );
#191 = ORIENTED_EDGE ( 'NONE', *, *, #225, .T. ) ;
#192 = EDGE_LOOP ( 'NONE', ( #347, #367, #189, #120 ) ) ;
#193 = CONICAL_SURFACE ( 'NONE', #180, 28.15151286202570802, 2.440099081366778580E-05 ) ;
#194 = EDGE_CURVE ( 'NONE', #122, #132, #117, .T. ) ;
#195 = CARTESIAN_POINT ( 'NONE',  ( -108.4543947904138292, 5.277682149102544962, 0.000000000000000000 ) ) ;
#196 = APPLICATION_PROTOCOL_DEFINITION ( 'international standard', 'config_control_design', 1994, #308 ) ;
#197 = CARTESIAN_POINT ( 'NONE',  ( -108.4534431505813643, -33.72236664126861427, 4.776128493193737338E-15 ) ) ;
#198 = PRODUCT_DEFINITION_SHAPE ( 'NONE', 'NONE',  #42 ) ;
#199 = ORIENTED_EDGE ( 'NONE', *, *, #292, .T. ) ;
#200 = DIRECTION ( 'NONE',  ( -2.440099081165996535E-05, 0.9999999997022958054, 0.000000000000000000 ) ) ;
#201 = DIRECTION ( 'NONE',  ( 2.440099081147559338E-05, -0.9999999997022958054, 0.000000000000000000 ) ) ;
#202 = AXIS2_PLACEMENT_3D ( 'NONE', #355, #207, #27 ) ;
#203 = PERSON_AND_ORGANIZATION_ROLE ( 'classification_officer' ) ;
#204 = CARTESIAN_POINT ( 'NONE',  ( -106.4546107046488288, 5.277730945815661379, 0.000000000000000000 ) ) ;
#205 = CIRCLE ( 'NONE', #34, 39.00004880198161317 ) ;
#206 = APPROVAL_STATUS ( 'not_yet_approved' ) ;
#207 = DIRECTION ( 'NONE',  ( -0.9999999997022959164, -2.440099081145985212E-05, -0.000000000000000000 ) ) ;
#208 = APPROVAL_PERSON_ORGANIZATION ( #236, #353, #28 ) ;
#209 = DIRECTION ( 'NONE',  ( 2.440099081165996535E-05, -0.9999999997022959164, 0.000000000000000000 ) ) ;
#210 = DATE_TIME_ROLE ( 'classification_date' ) ;
#211 = EDGE_CURVE ( 'NONE', #313, #93, #334, .T. ) ;
#212 = ADVANCED_FACE ( 'NONE', ( #86 ), #49, .F. ) ;
#213 = AXIS2_PLACEMENT_3D ( 'NONE', #341, #66, #186 ) ;
#214 = LINE ( 'NONE', #64, #9 ) ;
#215 = ADVANCED_BREP_SHAPE_REPRESENTATION ( '3D_R-159_DN50_1780150', ( #128, #69 ), #155 ) ;
#216 = ORIENTED_EDGE ( 'NONE', *, *, #140, .F. ) ;
#217 = AXIS2_PLACEMENT_3D ( 'NONE', #57, #110, #200 ) ;
#218 = DIRECTION ( 'NONE',  ( -0.9999999988091832215, -4.880198160817765144E-05, 0.000000000000000000 ) ) ;
#219 = LOCAL_TIME ( 8, 42, 24.00000000000000000, #41 ) ;
#220 = APPLICATION_PROTOCOL_DEFINITION ( 'international standard', 'config_control_design', 1994, #58 ) ;
#221 = ORIENTED_EDGE ( 'NONE', *, *, #253, .F. ) ;
#222 = FACE_OUTER_BOUND ( 'NONE', #5, .T. ) ;
#223 = APPROVAL ( #366, 'UNSPECIFIED' ) ;
#224 = DIRECTION ( 'NONE',  ( -1.311918510025350537E-16, 1.000000000000000000, 0.000000000000000000 ) ) ;
#225 = EDGE_CURVE ( 'NONE', #35, #378, #234, .T. ) ;
#226 = CONICAL_SURFACE ( 'NONE', #286, 28.15151286202570802, 2.440099081366778580E-05 ) ;
#227 = ORIENTED_EDGE ( 'NONE', *, *, #71, .T. ) ;
#228 = PERSON_AND_ORGANIZATION_ROLE ( 'creator' ) ;
#229 = ORIENTED_EDGE ( 'NONE', *, *, #61, .F. ) ;
#230 = DIRECTION ( 'NONE',  ( -1.000000000000000000, -2.134963484213409091E-16, 2.988259529301682864E-21 ) ) ;
#231 = DIRECTION ( 'NONE',  ( -0.9999999997022959164, -2.440099081145985212E-05, -0.000000000000000000 ) ) ;
#232 = DIRECTION ( 'NONE',  ( -0.9999999997022959164, -2.440099081145985212E-05, -0.000000000000000000 ) ) ;
#233 = DIRECTION ( 'NONE',  ( 2.440099081146973530E-05, -0.9999999997022958054, 0.000000000000000000 ) ) ;
#234 = CIRCLE ( 'NONE', #67, 28.15151286202571157 ) ;
#235 = CARTESIAN_POINT ( 'NONE',  ( -46.45534643024627997, 35.42919499630581726, 0.000000000000000000 ) ) ;
#236 = PERSON_AND_ORGANIZATION ( #284, #343 ) ;
#237 = CARTESIAN_POINT ( 'NONE',  ( -106.4534431529630041, -33.72226903730539505, 0.000000000000000000 ) ) ;
#238 = CC_DESIGN_PERSON_AND_ORGANIZATION_ASSIGNMENT ( #177, #203, ( #108 ) ) ;
#239 = CALENDAR_DATE ( 2024, 12, 8 ) ;
#240 = ADVANCED_FACE ( 'NONE', ( #172 ), #1, .F. ) ;
#241 = ADVANCED_FACE ( 'NONE', ( #173 ), #361, .T. ) ;
#242 = CARTESIAN_POINT ( 'NONE',  ( -106.4553464302463084, 44.27773093947369176, 4.776122516674679455E-15 ) ) ;
#243 = EDGE_LOOP ( 'NONE', ( #255, #40, #161, #191 ) ) ;
#244 = DIRECTION ( 'NONE',  ( 2.440099081160219092E-05, -0.9999999997022956943, 0.000000000000000000 ) ) ;
#245 = DATE_TIME_ROLE ( 'creation_date' ) ;
#246 = ORIENTED_EDGE ( 'NONE', *, *, #123, .F. ) ;
#247 = AXIS2_PLACEMENT_3D ( 'NONE', #273, #183, #244 ) ;
#248 = DIRECTION ( 'NONE',  ( 1.000000000000000000, 0.000000000000000000, 0.000000000000000000 ) ) ;
#249 = VERTEX_POINT ( 'NONE', #111 ) ;
#250 = EDGE_CURVE ( 'NONE', #378, #35, #160, .T. ) ;
#251 = ORIENTED_EDGE ( 'NONE', *, *, #4, .T. ) ;
#252 = ADVANCED_FACE ( 'NONE', ( #385 ), #29, .T. ) ;
#253 = EDGE_CURVE ( 'NONE', #249, #164, #143, .T. ) ;
#254 = ORIENTED_EDGE ( 'NONE', *, *, #182, .T. ) ;
#255 = ORIENTED_EDGE ( 'NONE', *, *, #181, .F. ) ;
#256 = CIRCLE ( 'NONE', #87, 30.15146405944867780 ) ;
#257 = CONICAL_SURFACE ( 'NONE', #18, 39.00000000000001421, 2.440099081366786711E-05 ) ;
#258 = VERTEX_POINT ( 'NONE', #303 ) ;
#259 = FACE_OUTER_BOUND ( 'NONE', #283, .T. ) ;
#260 = ORIENTED_EDGE ( 'NONE', *, *, #123, .T. ) ;
#261 = CC_DESIGN_APPROVAL ( #150, ( #42 ) ) ;
#262 = AXIS2_PLACEMENT_3D ( 'NONE', #299, #90, #268 ) ;
#263 = CARTESIAN_POINT ( 'NONE',  ( -106.4543947916046562, 5.277730951084153688, 0.000000000000000000 ) ) ;
#264 = DIRECTION ( 'NONE',  ( 2.440099081147650140E-05, -0.9999999997022958054, 0.000000000000000000 ) ) ;
#265 = AXIS2_PLACEMENT_3D ( 'NONE', #266, #294, #264 ) ;
#266 = CARTESIAN_POINT ( 'NONE',  ( -46.45461074037331173, 5.279195005263913387, 0.000000000000000000 ) ) ;
#267 = EDGE_CURVE ( 'NONE', #65, #288, #119, .T. ) ;
#268 = DIRECTION ( 'NONE',  ( -2.440099081146458873E-05, 0.9999999997022959164, 0.000000000000000000 ) ) ;
#269 = VECTOR ( 'NONE', #301, 1000.000000000000114 ) ;
#270 = DIRECTION ( 'NONE',  ( -0.9999999997022959164, -2.440099081145985212E-05, -0.000000000000000000 ) ) ;
#271 = LOCAL_TIME ( 8, 42, 24.00000000000000000, #275 ) ;
#272 = PERSON_AND_ORGANIZATION_ROLE ( 'creator' ) ;
#273 = CARTESIAN_POINT ( 'NONE',  ( -106.4543947916046562, 5.277730951084153688, 0.000000000000000000 ) ) ;
#274 = ORIENTED_EDGE ( 'NONE', *, *, #140, .T. ) ;
#275 = COORDINATED_UNIVERSAL_TIME_OFFSET ( 1, 0, .AHEAD. ) ;
#276 = EDGE_LOOP ( 'NONE', ( #43, #380, #127, #340 ) ) ;
#277 = PERSON_AND_ORGANIZATION ( #284, #343 ) ;
#278 = CC_DESIGN_PERSON_AND_ORGANIZATION_ASSIGNMENT ( #296, #298, ( #92 ) ) ;
#279 = ORIENTED_EDGE ( 'NONE', *, *, #211, .F. ) ;
#280 = AXIS2_PLACEMENT_3D ( 'NONE', #77, #17, #376 ) ;
#281 = CALENDAR_DATE ( 2024, 12, 8 ) ;
#282 = ORIENTED_EDGE ( 'NONE', *, *, #182, .F. ) ;
#283 = EDGE_LOOP ( 'NONE', ( #260, #158, #216, #96 ) ) ;
#284 = PERSON ( 'UNSPECIFIED', 'UNSPECIFIED', 'UNSPECIFIED', ('UNSPECIFIED'), ('UNSPECIFIED'), ('UNSPECIFIED') ) ;
#285 = LINE ( 'NONE', #197, #75 ) ;
#286 = AXIS2_PLACEMENT_3D ( 'NONE', #138, #389, #201 ) ;
#287 = DIRECTION ( 'NONE',  ( -0.9999999997022959164, -2.440099081145985212E-05, -0.000000000000000000 ) ) ;
#288 = VERTEX_POINT ( 'NONE', #364 ) ;
#289 = DIRECTION ( 'NONE',  ( 0.9999999997022959164, 2.440099081145985212E-05, 0.000000000000000000 ) ) ;
#290 = DIRECTION ( 'NONE',  ( -0.9999999997022959164, -2.440099081145985212E-05, -0.000000000000000000 ) ) ;
#291 = CARTESIAN_POINT ( 'NONE',  ( -108.4546595054396221, 5.277682142643236318, 0.000000000000000000 ) ) ;
#292 = EDGE_CURVE ( 'NONE', #164, #122, #214, .T. ) ;
#293 = CIRCLE ( 'NONE', #377, 30.15000000000000568 ) ;
#294 = DIRECTION ( 'NONE',  ( -0.9999999997022959164, -2.440099081145985212E-05, -0.000000000000000000 ) ) ;
#295 = ADVANCED_FACE ( 'NONE', ( #32 ), #193, .F. ) ;
#296 = PERSON_AND_ORGANIZATION ( #284, #343 ) ;
#297 = FACE_OUTER_BOUND ( 'NONE', #76, .T. ) ;
#298 = PERSON_AND_ORGANIZATION_ROLE ( 'design_supplier' ) ;
#299 = CARTESIAN_POINT ( 'NONE',  ( -108.4543947904138292, 5.277682149102544962, 0.000000000000000000 ) ) ;
#300 = PERSON_AND_ORGANIZATION ( #284, #343 ) ;
#301 = DIRECTION ( 'NONE',  ( 4.880198161536538330E-05, -0.9999999988091832215, 1.224646798782770786E-16 ) ) ;
#302 = CIRCLE ( 'NONE', #354, 39.00004880198161317 ) ;
#303 = CARTESIAN_POINT ( 'NONE',  ( -46.45534643024629418, 33.42919499628813185, 0.000000000000000000 ) ) ;
#304 = DIRECTION ( 'NONE',  ( 4.880198160825995594E-05, -0.9999999988091832215, 1.224646798782770786E-16 ) ) ;
#305 = CIRCLE ( 'NONE', #329, 28.15000000059541208 ) ;
#306 = AXIS2_PLACEMENT_3D ( 'NONE', #195, #319, #74 ) ;
#307 = ORIENTED_EDGE ( 'NONE', *, *, #85, .F. ) ;
#308 = APPLICATION_CONTEXT ( 'configuration controlled 3d designs of mechanical parts and assemblies' ) ;
#309 = CARTESIAN_POINT ( 'NONE',  ( 0.000000000000000000, 0.000000000000000000, 0.000000000000000000 ) ) ;
#310 = APPROVAL_PERSON_ORGANIZATION ( #188, #150, #36 ) ;
#311 = ORIENTED_EDGE ( 'NONE', *, *, #85, .T. ) ;
#312 = APPROVAL_STATUS ( 'not_yet_approved' ) ;
#313 = VERTEX_POINT ( 'NONE', #322 ) ;
#314 = ADVANCED_FACE ( 'NONE', ( #51 ), #318, .F. ) ;
#315 = DIRECTION ( 'NONE',  ( 2.440099081147650140E-05, -0.9999999997022958054, 0.000000000000000000 ) ) ;
#316 = ORIENTED_EDGE ( 'NONE', *, *, #292, .F. ) ;
#317 = CARTESIAN_POINT ( 'NONE',  ( -46.45534643024627997, 35.42919499628813185, 3.692310099429271186E-15 ) ) ;
#318 = CONICAL_SURFACE ( 'NONE', #368, 28.15000000059540497, 1.570771925804075764 ) ;
#319 = DIRECTION ( 'NONE',  ( 0.9999999997022959164, 2.440099081145985212E-05, 0.000000000000000000 ) ) ;
#320 = DIRECTION ( 'NONE',  ( 4.880198160825995594E-05, -0.9999999988091832215, 1.224646798782770786E-16 ) ) ;
#321 = AXIS2_PLACEMENT_3D ( 'NONE', #204, #144, #54 ) ;
#322 = CARTESIAN_POINT ( 'NONE',  ( -46.45397265446357693, -22.87080498814194129, 3.569845419550993244E-15 ) ) ;
#323 = ORIENTED_EDGE ( 'NONE', *, *, #250, .T. ) ;
#324 = LINE ( 'NONE', #176, #152 ) ;
#325 = ADVANCED_FACE ( 'NONE', ( #136 ), #124, .F. ) ;
#326 = EDGE_CURVE ( 'NONE', #288, #132, #302, .T. ) ;
#327 = ADVANCED_FACE ( 'NONE', ( #259 ), #112, .T. ) ;
#328 = DIRECTION ( 'NONE',  ( -0.9999999988091832215, -4.880198160817765144E-05, 0.000000000000000000 ) ) ;
#329 = AXIS2_PLACEMENT_3D ( 'NONE', #331, #332, #233 ) ;
#330 = CLOSED_SHELL ( 'NONE', ( #327, #240, #252, #45, #114, #314, #325, #295, #113, #99, #212, #241 ) ) ;
#331 = CARTESIAN_POINT ( 'NONE',  ( -46.45465954235493200, 5.279195004073096165, 0.000000000000000000 ) ) ;
#332 = DIRECTION ( 'NONE',  ( -0.9999999997022959164, -2.440099081145985212E-05, -0.000000000000000000 ) ) ;
#333 = LOCAL_TIME ( 8, 42, 24.00000000000000000, #25 ) ;
#334 = LINE ( 'NONE', #55, #269 ) ;
#335 = SECURITY_CLASSIFICATION_LEVEL ( 'unclassified' ) ;
#336 = AXIS2_PLACEMENT_3D ( 'NONE', #88, #145, #315 ) ;
#337 = CC_DESIGN_PERSON_AND_ORGANIZATION_ASSIGNMENT ( #105, #72, ( #107 ) ) ;
#338 = DIRECTION ( 'NONE',  ( -1.000000000000000000, -2.134082569948264618E-16, 2.988259529301693772E-21 ) ) ;
#339 = EDGE_CURVE ( 'NONE', #313, #35, #7, .T. ) ;
#340 = ORIENTED_EDGE ( 'NONE', *, *, #363, .F. ) ;
#341 = CARTESIAN_POINT ( 'NONE',  ( -106.4546107046488288, 5.277730945815661379, 0.000000000000000000 ) ) ;
#342 = PERSON_AND_ORGANIZATION ( #284, #343 ) ;
#343 = ORGANIZATION ( 'UNSPECIFIED', 'UNSPECIFIED', '' ) ;
#344 = ORIENTED_EDGE ( 'NONE', *, *, #151, .T. ) ;
#345 =( LENGTH_UNIT ( ) NAMED_UNIT ( * ) SI_UNIT ( .MILLI., .METRE. ) );
#346 = EDGE_LOOP ( 'NONE', ( #229, #8, #344, #221 ) ) ;
#347 = ORIENTED_EDGE ( 'NONE', *, *, #14, .F. ) ;
#348 = CARTESIAN_POINT ( 'NONE',  ( -108.4539725806329358, -22.87383071100164855, 0.000000000000000000 ) ) ;
#349 = DATE_AND_TIME ( #39, #271 ) ;
#350 = ORIENTED_EDGE ( 'NONE', *, *, #253, .T. ) ;
#351 = CARTESIAN_POINT ( 'NONE',  ( -106.4553464302463084, 44.27773093947369176, 4.776125504934208002E-15 ) ) ;
#352 = DIRECTION ( 'NONE',  ( 2.440099081146973530E-05, -0.9999999997022958054, 0.000000000000000000 ) ) ;
#353 = APPROVAL ( #206, 'UNSPECIFIED' ) ;
#354 = AXIS2_PLACEMENT_3D ( 'NONE', #104, #134, #48 ) ;
#355 = CARTESIAN_POINT ( 'NONE',  ( -46.45461074037331173, 5.279195005263913387, 0.000000000000000000 ) ) ;
#356 = DIRECTION ( 'NONE',  ( -0.9999999988091832215, -4.880198160817773276E-05, 0.000000000000000000 ) ) ;
#357 = AXIS2_PLACEMENT_3D ( 'NONE', #263, #270, #2 ) ;
#358 = FACE_OUTER_BOUND ( 'NONE', #192, .T. ) ;
#359 = DESIGN_CONTEXT ( 'detailed design', #308, 'design' ) ;
#360 = DIRECTION ( 'NONE',  ( -0.9999999997022959164, -2.440099081145985212E-05, -0.000000000000000000 ) ) ;
#361 = CONICAL_SURFACE ( 'NONE', #265, 30.15000000000000568, 2.440099081366777902E-05 ) ;
#362 = CC_DESIGN_DATE_AND_TIME_ASSIGNMENT ( #349, #245, ( #42 ) ) ;
#363 = EDGE_CURVE ( 'NONE', #258, #106, #157, .T. ) ;
#364 = CARTESIAN_POINT ( 'NONE',  ( -108.4553464302462942, 44.27773093948127325, 0.000000000000000000 ) ) ;
#365 = ORIENTED_EDGE ( 'NONE', *, *, #171, .F. ) ;
#366 = APPROVAL_STATUS ( 'not_yet_approved' ) ;
#367 = ORIENTED_EDGE ( 'NONE', *, *, #250, .F. ) ;
#368 = AXIS2_PLACEMENT_3D ( 'NONE', #167, #289, #80 ) ;
#369 = MECHANICAL_CONTEXT ( 'NONE', #58, 'mechanical' ) ;
#370 = ORIENTED_EDGE ( 'NONE', *, *, #14, .T. ) ;
#371 = DIRECTION ( 'NONE',  ( -1.311918510025350537E-16, 1.000000000000000000, 0.000000000000000000 ) ) ;
#372 = LINE ( 'NONE', #95, #170 ) ;
#373 = ORIENTED_EDGE ( 'NONE', *, *, #225, .F. ) ;
#374 = AXIS2_PLACEMENT_3D ( 'NONE', #116, #232, #352 ) ;
#375 = ORIENTED_EDGE ( 'NONE', *, *, #71, .F. ) ;
#376 = DIRECTION ( 'NONE',  ( -2.440099081146974207E-05, 0.9999999997022958054, 0.000000000000000000 ) ) ;
#377 = AXIS2_PLACEMENT_3D ( 'NONE', #52, #166, #162 ) ;
#378 = VERTEX_POINT ( 'NONE', #126 ) ;
#379 = CC_DESIGN_APPROVAL ( #353, ( #108 ) ) ;
#380 = ORIENTED_EDGE ( 'NONE', *, *, #211, .T. ) ;
#381 = CONICAL_SURFACE ( 'NONE', #262, 39.00004880198162738, 1.570771925804082869 ) ;
#382 = DIRECTION ( 'NONE',  ( 2.440099081147559338E-05, -0.9999999997022958054, 0.000000000000000000 ) ) ;
#383 = DIRECTION ( 'NONE',  ( 2.440099081147559338E-05, -0.9999999997022958054, 0.000000000000000000 ) ) ;
#384 = EDGE_CURVE ( 'NONE', #378, #288, #372, .T. ) ;
#385 = FACE_OUTER_BOUND ( 'NONE', #135, .T. ) ;
#386 = AXIS2_PLACEMENT_3D ( 'NONE', #291, #22, #141 ) ;
#387 = COORDINATED_UNIVERSAL_TIME_OFFSET ( 1, 0, .AHEAD. ) ;
#388 = DIRECTION ( 'NONE',  ( 2.440099081160219092E-05, -0.9999999997022956943, 0.000000000000000000 ) ) ;
#389 = DIRECTION ( 'NONE',  ( -0.9999999997022959164, -2.440099081145985212E-05, -0.000000000000000000 ) ) ;
ENDSEC;
END-ISO-10303-21;
