ISO-10303-21;
HEADER;
FILE_DESCRIPTION (( 'STEP AP203' ),
    '1' );
FILE_NAME ('OT200-40-48_3x1_6_OSTP.step',
    '2020-12-16T02:17:21',
    ( '' ),
    ( '' ),
    'SwSTEP 2.0',
    'SolidWorks 2014',
    '' );
FILE_SCHEMA (( 'CONFIG_CONTROL_DESIGN' ));
ENDSEC;

DATA;
#1 = CIRCLE ( 'NONE', #180, 24.14999999999999900 ) ;
#2 = DIRECTION ( 'NONE',  ( 0.0000000000000000000, 0.0000000000000000000, 1.000000000000000000 ) ) ;
#3 = ORIENTED_EDGE ( 'NONE', *, *, #7, .T. ) ;
#4 = DIRECTION ( 'NONE',  ( 0.0000000000000000000, 0.0000000000000000000, 1.000000000000000000 ) ) ;
#5 = ADVANCED_FACE ( 'NONE', ( #17 ), #172, .F. ) ;
#6 = FACE_OUTER_BOUND ( 'NONE', #19, .T. ) ;
#7 = EDGE_CURVE ( 'NONE', #248, #54, #197, .T. ) ;
#8 = PERSON_AND_ORGANIZATION ( #250, #173 ) ;
#9 = ADVANCED_BREP_SHAPE_REPRESENTATION ( 'OT200-40-48_3x1_6_OSTP', ( #193, #163 ), #112 ) ;
#10 = ORIENTED_EDGE ( 'NONE', *, *, #7, .F. ) ;
#11 = APPROVAL ( #42, 'UNSPECIFIED' ) ;
#12 = CARTESIAN_POINT ( 'NONE',  ( 57.00000000000000000, 0.0000000000000000000, 0.0000000000000000000 ) ) ;
#13 = CIRCLE ( 'NONE', #226, 34.45000000000000300 ) ;
#14 = LOCAL_TIME ( 3, 17, 21.00000000000000000, #182 ) ;
#15 = DIRECTION ( 'NONE',  ( 0.0000000000000000000, 0.0000000000000000000, 1.000000000000000000 ) ) ;
#16 = AXIS2_PLACEMENT_3D ( 'NONE', #73, #51, #72 ) ;
#17 = FACE_OUTER_BOUND ( 'NONE', #49, .T. ) ;
#18 = PRODUCT ( 'OT200-40-48_3x1_6_OSTP', 'OT200-40-48_3x1_6_OSTP', '', ( #213 ) ) ;
#19 = EDGE_LOOP ( 'NONE', ( #89, #141 ) ) ;
#20 = EDGE_CURVE ( 'NONE', #54, #248, #34, .T. ) ;
#21 = APPROVAL_PERSON_ORGANIZATION ( #102, #109, #232 ) ;
#22 = PERSON_AND_ORGANIZATION_ROLE ( 'creator' ) ;
#23 = ORIENTED_EDGE ( 'NONE', *, *, #77, .F. ) ;
#24 = CC_DESIGN_APPROVAL ( #11, ( #251 ) ) ;
#25 = EDGE_LOOP ( 'NONE', ( #217, #38 ) ) ;
#26 = CARTESIAN_POINT ( 'NONE',  ( 56.99999999999997900, 57.00000000000000000, 0.0000000000000000000 ) ) ;
#27 = PERSON_AND_ORGANIZATION ( #250, #173 ) ;
#28 = AXIS2_PLACEMENT_3D ( 'NONE', #26, #32, #174 ) ;
#29 = DIRECTION ( 'NONE',  ( 1.000000000000000000, 0.0000000000000000000, 0.0000000000000000000 ) ) ;
#30 = COORDINATED_UNIVERSAL_TIME_OFFSET ( 1, 0, .AHEAD. ) ;
#31 = EDGE_CURVE ( 'NONE', #117, #40, #122, .T. ) ;
#32 = DIRECTION ( 'NONE',  ( 1.000000000000000000, 2.832769448823989800E-016, -0.0000000000000000000 ) ) ;
#33 = CIRCLE ( 'NONE', #167, 79.55000000000001100 ) ;
#34 = CIRCLE ( 'NONE', #127, 22.54999999999999700 ) ;
#35 = CC_DESIGN_PERSON_AND_ORGANIZATION_ASSIGNMENT ( #61, #194, ( #251 ) ) ;
#36 = APPROVAL_ROLE ( '' ) ;
#37 = APPROVAL_STATUS ( 'not_yet_approved' ) ;
#38 = ORIENTED_EDGE ( 'NONE', *, *, #62, .F. ) ;
#39 = DIRECTION ( 'NONE',  ( 1.000000000000000000, 2.832769448823989800E-016, 0.0000000000000000000 ) ) ;
#40 = VERTEX_POINT ( 'NONE', #116 ) ;
#41 = AXIS2_PLACEMENT_3D ( 'NONE', #249, #234, #29 ) ;
#42 = APPROVAL_STATUS ( 'not_yet_approved' ) ;
#43 = TOROIDAL_SURFACE ( 'NONE', #241, 57.00000000000000000, 24.14999999999999900 ) ;
#44 = EDGE_CURVE ( 'NONE', #75, #148, #150, .T. ) ;
#45 = EDGE_CURVE ( 'NONE', #75, #54, #33, .T. ) ;
#46 = LOCAL_TIME ( 3, 17, 21.00000000000000000, #111 ) ;
#47 = CARTESIAN_POINT ( 'NONE',  ( 0.0000000000000000000, 0.0000000000000000000, 0.0000000000000000000 ) ) ;
#48 = DIRECTION ( 'NONE',  ( 1.000000000000000000, 2.832769448823989800E-016, 0.0000000000000000000 ) ) ;
#49 = EDGE_LOOP ( 'NONE', ( #129, #107, #120, #177 ) ) ;
#50 = CC_DESIGN_PERSON_AND_ORGANIZATION_ASSIGNMENT ( #199, #84, ( #251 ) ) ;
#51 = DIRECTION ( 'NONE',  ( 0.0000000000000000000, 1.000000000000000000, 0.0000000000000000000 ) ) ;
#52 = PLANE ( 'NONE',  #28 ) ;
#53 = COORDINATED_UNIVERSAL_TIME_OFFSET ( 1, 0, .AHEAD. ) ;
#54 = VERTEX_POINT ( 'NONE', #186 ) ;
#55 = CALENDAR_DATE ( 2020, 16, 12 ) ;
#56 = DIRECTION ( 'NONE',  ( 0.0000000000000000000, 1.000000000000000000, 0.0000000000000000000 ) ) ;
#57 = AXIS2_PLACEMENT_3D ( 'NONE', #108, #39, #142 ) ;
#58 = VERTEX_POINT ( 'NONE', #157 ) ;
#59 = APPLICATION_PROTOCOL_DEFINITION ( 'international standard', 'config_control_design', 1994, #190 ) ;
#60 = DIRECTION ( 'NONE',  ( -3.077114813262629800E-016, 1.000000000000000000, 0.0000000000000000000 ) ) ;
#61 = PERSON_AND_ORGANIZATION ( #250, #173 ) ;
#62 = EDGE_CURVE ( 'NONE', #40, #164, #1, .T. ) ;
#63 = APPROVAL_ROLE ( '' ) ;
#64 = ORIENTED_EDGE ( 'NONE', *, *, #31, .T. ) ;
#65 = SECURITY_CLASSIFICATION ( '', '', #215 ) ;
#66 = ADVANCED_FACE ( 'NONE', ( #100, #67 ), #243, .F. ) ;
#67 = FACE_OUTER_BOUND ( 'NONE', #25, .T. ) ;
#68 = CALENDAR_DATE ( 2020, 16, 12 ) ;
#69 = DESIGN_CONTEXT ( 'detailed design', #190, 'design' ) ;
#70 = AXIS2_PLACEMENT_3D ( 'NONE', #231, #97, #208 ) ;
#71 = DIRECTION ( 'NONE',  ( 0.0000000000000000000, 1.000000000000000000, 0.0000000000000000000 ) ) ;
#72 = DIRECTION ( 'NONE',  ( 0.0000000000000000000, 0.0000000000000000000, 1.000000000000000000 ) ) ;
#73 = CARTESIAN_POINT ( 'NONE',  ( 0.0000000000000000000, 0.0000000000000000000, 0.0000000000000000000 ) ) ;
#74 = CARTESIAN_POINT ( 'NONE',  ( 56.99999999999997200, 81.15000000000000600, 0.0000000000000000000 ) ) ;
#75 = VERTEX_POINT ( 'NONE', #156 ) ;
#76 = CARTESIAN_POINT ( 'NONE',  ( 57.00000000000000000, 0.0000000000000000000, 0.0000000000000000000 ) ) ;
#77 = EDGE_CURVE ( 'NONE', #117, #58, #90, .T. ) ;
#78 = DIRECTION ( 'NONE',  ( 0.0000000000000000000, 0.0000000000000000000, 1.000000000000000000 ) ) ;
#79 = DIRECTION ( 'NONE',  ( 0.0000000000000000000, 0.0000000000000000000, 1.000000000000000000 ) ) ;
#80 = COORDINATED_UNIVERSAL_TIME_OFFSET ( 1, 0, .AHEAD. ) ;
#81 = CC_DESIGN_PERSON_AND_ORGANIZATION_ASSIGNMENT ( #8, #105, ( #65 ) ) ;
#82 = ORIENTED_EDGE ( 'NONE', *, *, #31, .F. ) ;
#83 = PERSON_AND_ORGANIZATION_ROLE ( 'design_owner' ) ;
#84 = PERSON_AND_ORGANIZATION_ROLE ( 'design_supplier' ) ;
#85 = AXIS2_PLACEMENT_3D ( 'NONE', #125, #4, #144 ) ;
#86 = PERSON_AND_ORGANIZATION ( #250, #173 ) ;
#87 = ADVANCED_FACE ( 'NONE', ( #233 ), #43, .T. ) ;
#88 = EDGE_CURVE ( 'NONE', #148, #248, #13, .T. ) ;
#89 = ORIENTED_EDGE ( 'NONE', *, *, #218, .T. ) ;
#90 = CIRCLE ( 'NONE', #200, 24.14999999999999900 ) ;
#91 = CARTESIAN_POINT ( 'NONE',  ( 0.0000000000000000000, 0.0000000000000000000, 0.0000000000000000000 ) ) ;
#92 = CC_DESIGN_DATE_AND_TIME_ASSIGNMENT ( #161, #236, ( #65 ) ) ;
#93 = CIRCLE ( 'NONE', #85, 32.85000000000000900 ) ;
#94 = DIRECTION ( 'NONE',  ( 0.0000000000000000000, 1.000000000000000000, 0.0000000000000000000 ) ) ;
#95 = ORIENTED_EDGE ( 'NONE', *, *, #44, .F. ) ;
#96 = EDGE_LOOP ( 'NONE', ( #82, #240, #158, #169 ) ) ;
#97 = DIRECTION ( 'NONE',  ( 1.000000000000000000, 2.832769448823989800E-016, 0.0000000000000000000 ) ) ;
#98 = AXIS2_PLACEMENT_3D ( 'NONE', #170, #203, #224 ) ;
#99 = CARTESIAN_POINT ( 'NONE',  ( 56.99999999999997900, 57.00000000000000000, 0.0000000000000000000 ) ) ;
#100 = FACE_BOUND ( 'NONE', #149, .T. ) ;
#101 = DIRECTION ( 'NONE',  ( 0.0000000000000000000, 0.0000000000000000000, 1.000000000000000000 ) ) ;
#102 = PERSON_AND_ORGANIZATION ( #250, #173 ) ;
#103 = AXIS2_PLACEMENT_3D ( 'NONE', #188, #56, #79 ) ;
#104 = PRODUCT_DEFINITION_SHAPE ( 'NONE', 'NONE',  #185 ) ;
#105 = PERSON_AND_ORGANIZATION_ROLE ( 'classification_officer' ) ;
#106 =( NAMED_UNIT ( * ) PLANE_ANGLE_UNIT ( ) SI_UNIT ( $, .RADIAN. ) );
#107 = ORIENTED_EDGE ( 'NONE', *, *, #44, .T. ) ;
#108 = CARTESIAN_POINT ( 'NONE',  ( 56.99999999999997900, 57.00000000000000000, 0.0000000000000000000 ) ) ;
#109 = APPROVAL ( #37, 'UNSPECIFIED' ) ;
#110 = CALENDAR_DATE ( 2020, 16, 12 ) ;
#111 = COORDINATED_UNIVERSAL_TIME_OFFSET ( 1, 0, .AHEAD. ) ;
#112 =( GEOMETRIC_REPRESENTATION_CONTEXT ( 3 ) GLOBAL_UNCERTAINTY_ASSIGNED_CONTEXT ( ( #138 ) ) GLOBAL_UNIT_ASSIGNED_CONTEXT ( ( #135, #106, #238 ) ) REPRESENTATION_CONTEXT ( 'NONE', 'WORKASPACE' ) );
#113 = ORIENTED_EDGE ( 'NONE', *, *, #62, .T. ) ;
#114 = DIRECTION ( 'NONE',  ( 1.000000000000000000, 0.0000000000000000000, 0.0000000000000000000 ) ) ;
#115 = CARTESIAN_POINT ( 'NONE',  ( 57.00000000000000000, 0.0000000000000000000, 0.0000000000000000000 ) ) ;
#116 = CARTESIAN_POINT ( 'NONE',  ( -24.14999999999999900, 0.0000000000000000000, 0.0000000000000000000 ) ) ;
#117 = VERTEX_POINT ( 'NONE', #74 ) ;
#118 = CALENDAR_DATE ( 2020, 16, 12 ) ;
#119 = AXIS2_PLACEMENT_3D ( 'NONE', #12, #15, #220 ) ;
#120 = ORIENTED_EDGE ( 'NONE', *, *, #88, .T. ) ;
#121 = CC_DESIGN_APPROVAL ( #109, ( #65 ) ) ;
#122 = CIRCLE ( 'NONE', #140, 81.15000000000000600 ) ;
#123 = LOCAL_TIME ( 3, 17, 21.00000000000000000, #30 ) ;
#124 = DIRECTION ( 'NONE',  ( 1.000000000000000000, 0.0000000000000000000, 0.0000000000000000000 ) ) ;
#125 = CARTESIAN_POINT ( 'NONE',  ( 57.00000000000000000, 0.0000000000000000000, -2.957522019940857900E-015 ) ) ;
#126 = ORIENTED_EDGE ( 'NONE', *, *, #88, .F. ) ;
#127 = AXIS2_PLACEMENT_3D ( 'NONE', #153, #94, #175 ) ;
#128 = APPROVAL_DATE_TIME ( #253, #11 ) ;
#129 = ORIENTED_EDGE ( 'NONE', *, *, #45, .F. ) ;
#130 = CARTESIAN_POINT ( 'NONE',  ( 56.99999999999998600, 57.00000000000000000, 0.0000000000000000000 ) ) ;
#131 = DIRECTION ( 'NONE',  ( 0.0000000000000000000, 0.0000000000000000000, 1.000000000000000000 ) ) ;
#132 = CARTESIAN_POINT ( 'NONE',  ( 24.14999999999999900, 0.0000000000000000000, -2.957522019940857900E-015 ) ) ;
#133 = CC_DESIGN_SECURITY_CLASSIFICATION ( #65, ( #251 ) ) ;
#134 = DATE_AND_TIME ( #110, #14 ) ;
#135 =( LENGTH_UNIT ( ) NAMED_UNIT ( * ) SI_UNIT ( .MILLI., .METRE. ) );
#136 = CARTESIAN_POINT ( 'NONE',  ( 57.00000000000000000, 0.0000000000000000000, 0.0000000000000000000 ) ) ;
#137 = SHAPE_DEFINITION_REPRESENTATION ( #104, #9 ) ;
#138 = UNCERTAINTY_MEASURE_WITH_UNIT (LENGTH_MEASURE( 1.000000000000000100E-005 ), #135, 'distance_accuracy_value', 'NONE');
#139 = CARTESIAN_POINT ( 'NONE',  ( 0.0000000000000000000, 0.0000000000000000000, 0.0000000000000000000 ) ) ;
#140 = AXIS2_PLACEMENT_3D ( 'NONE', #136, #78, #207 ) ;
#141 = ORIENTED_EDGE ( 'NONE', *, *, #77, .T. ) ;
#142 = DIRECTION ( 'NONE',  ( 0.0000000000000000000, 0.0000000000000000000, 1.000000000000000000 ) ) ;
#143 = APPLICATION_CONTEXT ( 'configuration controlled 3d designs of mechanical parts and assemblies' ) ;
#144 = DIRECTION ( 'NONE',  ( 1.000000000000000000, 0.0000000000000000000, 0.0000000000000000000 ) ) ;
#145 = CIRCLE ( 'NONE', #70, 22.54999999999999400 ) ;
#146 = PRODUCT_RELATED_PRODUCT_CATEGORY ( 'detail', '', ( #18 ) ) ;
#147 = ADVANCED_FACE ( 'NONE', ( #244, #6 ), #52, .T. ) ;
#148 = VERTEX_POINT ( 'NONE', #152 ) ;
#149 = EDGE_LOOP ( 'NONE', ( #3, #202 ) ) ;
#150 = CIRCLE ( 'NONE', #155, 22.54999999999999400 ) ;
#151 = DIRECTION ( 'NONE',  ( 0.0000000000000000000, 0.0000000000000000000, 1.000000000000000000 ) ) ;
#152 = CARTESIAN_POINT ( 'NONE',  ( 56.99999999999999300, 34.45000000000001000, -2.761578532077281900E-015 ) ) ;
#153 = CARTESIAN_POINT ( 'NONE',  ( 0.0000000000000000000, 0.0000000000000000000, 0.0000000000000000000 ) ) ;
#154 = LOCAL_TIME ( 3, 17, 21.00000000000000000, #80 ) ;
#155 = AXIS2_PLACEMENT_3D ( 'NONE', #130, #48, #60 ) ;
#156 = CARTESIAN_POINT ( 'NONE',  ( 56.99999999999997900, 79.54999999999999700, 0.0000000000000000000 ) ) ;
#157 = CARTESIAN_POINT ( 'NONE',  ( 56.99999999999998600, 32.85000000000000100, -2.957522019940857900E-015 ) ) ;
#158 = ORIENTED_EDGE ( 'NONE', *, *, #246, .T. ) ;
#159 = APPROVAL_DATE_TIME ( #229, #195 ) ;
#160 = ORIENTED_EDGE ( 'NONE', *, *, #230, .T. ) ;
#161 = DATE_AND_TIME ( #206, #154 ) ;
#162 = DATE_TIME_ROLE ( 'creation_date' ) ;
#163 = AXIS2_PLACEMENT_3D ( 'NONE', #139, #2, #124 ) ;
#164 = VERTEX_POINT ( 'NONE', #132 ) ;
#165 = ADVANCED_FACE ( 'NONE', ( #211 ), #187, .T. ) ;
#166 = LOCAL_TIME ( 3, 17, 21.00000000000000000, #53 ) ;
#167 = AXIS2_PLACEMENT_3D ( 'NONE', #76, #101, #114 ) ;
#168 = CARTESIAN_POINT ( 'NONE',  ( 57.00000000000000000, 0.0000000000000000000, -2.761578532077281100E-015 ) ) ;
#169 = ORIENTED_EDGE ( 'NONE', *, *, #204, .T. ) ;
#170 = CARTESIAN_POINT ( 'NONE',  ( 57.00000000000000000, 0.0000000000000000000, 0.0000000000000000000 ) ) ;
#171 = DIRECTION ( 'NONE',  ( 0.0000000000000000000, 0.0000000000000000000, 1.000000000000000000 ) ) ;
#172 = TOROIDAL_SURFACE ( 'NONE', #119, 57.00000000000000000, 22.54999999999999700 ) ;
#173 = ORGANIZATION ( 'UNSPECIFIED', 'UNSPECIFIED', '' ) ;
#174 = DIRECTION ( 'NONE',  ( 0.0000000000000000000, 0.0000000000000000000, 1.000000000000000000 ) ) ;
#175 = DIRECTION ( 'NONE',  ( 0.0000000000000000000, 0.0000000000000000000, 1.000000000000000000 ) ) ;
#176 = CC_DESIGN_PERSON_AND_ORGANIZATION_ASSIGNMENT ( #86, #83, ( #18 ) ) ;
#177 = ORIENTED_EDGE ( 'NONE', *, *, #20, .F. ) ;
#178 = TOROIDAL_SURFACE ( 'NONE', #98, 57.00000000000000000, 22.54999999999999700 ) ;
#179 = APPROVAL_STATUS ( 'not_yet_approved' ) ;
#180 = AXIS2_PLACEMENT_3D ( 'NONE', #47, #71, #131 ) ;
#181 = APPROVAL_PERSON_ORGANIZATION ( #212, #11, #63 ) ;
#182 = COORDINATED_UNIVERSAL_TIME_OFFSET ( 1, 0, .AHEAD. ) ;
#183 = CIRCLE ( 'NONE', #57, 24.14999999999999900 ) ;
#184 = DIRECTION ( 'NONE',  ( 1.000000000000000000, 0.0000000000000000000, 0.0000000000000000000 ) ) ;
#185 = PRODUCT_DEFINITION ( 'UNKNOWN', '', #251, #69 ) ;
#186 = CARTESIAN_POINT ( 'NONE',  ( -22.54999999999999400, 0.0000000000000000000, 0.0000000000000000000 ) ) ;
#187 = TOROIDAL_SURFACE ( 'NONE', #41, 57.00000000000000000, 24.14999999999999900 ) ;
#188 = CARTESIAN_POINT ( 'NONE',  ( 0.0000000000000000000, 0.0000000000000000000, 0.0000000000000000000 ) ) ;
#189 = FACE_OUTER_BOUND ( 'NONE', #252, .T. ) ;
#190 = APPLICATION_CONTEXT ( 'configuration controlled 3d designs of mechanical parts and assemblies' ) ;
#191 = EDGE_LOOP ( 'NONE', ( #23, #64, #113, #192 ) ) ;
#192 = ORIENTED_EDGE ( 'NONE', *, *, #246, .F. ) ;
#193 = MANIFOLD_SOLID_BREP ( 'cut-body', #216 ) ;
#194 = PERSON_AND_ORGANIZATION_ROLE ( 'creator' ) ;
#195 = APPROVAL ( #179, 'UNSPECIFIED' ) ;
#196 = APPLICATION_PROTOCOL_DEFINITION ( 'international standard', 'config_control_design', 1994, #143 ) ;
#197 = CIRCLE ( 'NONE', #103, 22.54999999999999700 ) ;
#198 = DIRECTION ( 'NONE',  ( 1.000000000000000000, 0.0000000000000000000, 0.0000000000000000000 ) ) ;
#199 = PERSON_AND_ORGANIZATION ( #250, #173 ) ;
#200 = AXIS2_PLACEMENT_3D ( 'NONE', #99, #228, #151 ) ;
#201 = DIRECTION ( 'NONE',  ( 0.0000000000000000000, 1.000000000000000000, 0.0000000000000000000 ) ) ;
#202 = ORIENTED_EDGE ( 'NONE', *, *, #20, .T. ) ;
#203 = DIRECTION ( 'NONE',  ( 0.0000000000000000000, 0.0000000000000000000, 1.000000000000000000 ) ) ;
#204 = EDGE_CURVE ( 'NONE', #164, #40, #225, .T. ) ;
#205 = APPROVAL_PERSON_ORGANIZATION ( #27, #195, #36 ) ;
#206 = CALENDAR_DATE ( 2020, 16, 12 ) ;
#207 = DIRECTION ( 'NONE',  ( 1.000000000000000000, 0.0000000000000000000, 0.0000000000000000000 ) ) ;
#208 = DIRECTION ( 'NONE',  ( -3.077114813262629800E-016, 1.000000000000000000, 0.0000000000000000000 ) ) ;
#209 = ORIENTED_EDGE ( 'NONE', *, *, #45, .T. ) ;
#210 = CC_DESIGN_APPROVAL ( #195, ( #185 ) ) ;
#211 = FACE_OUTER_BOUND ( 'NONE', #191, .T. ) ;
#212 = PERSON_AND_ORGANIZATION ( #250, #173 ) ;
#213 = MECHANICAL_CONTEXT ( 'NONE', #143, 'mechanical' ) ;
#214 = AXIS2_PLACEMENT_3D ( 'NONE', #91, #201, #222 ) ;
#215 = SECURITY_CLASSIFICATION_LEVEL ( 'unclassified' ) ;
#216 = CLOSED_SHELL ( 'NONE', ( #239, #165, #87, #147, #66, #5 ) ) ;
#217 = ORIENTED_EDGE ( 'NONE', *, *, #204, .F. ) ;
#218 = EDGE_CURVE ( 'NONE', #58, #117, #183, .T. ) ;
#219 = DATE_AND_TIME ( #55, #46 ) ;
#220 = DIRECTION ( 'NONE',  ( 1.000000000000000000, 0.0000000000000000000, 0.0000000000000000000 ) ) ;
#221 = CC_DESIGN_PERSON_AND_ORGANIZATION_ASSIGNMENT ( #227, #22, ( #185 ) ) ;
#222 = DIRECTION ( 'NONE',  ( 0.0000000000000000000, -0.0000000000000000000, 1.000000000000000000 ) ) ;
#223 = ORIENTED_EDGE ( 'NONE', *, *, #230, .F. ) ;
#224 = DIRECTION ( 'NONE',  ( 1.000000000000000000, 0.0000000000000000000, 0.0000000000000000000 ) ) ;
#225 = CIRCLE ( 'NONE', #16, 24.14999999999999900 ) ;
#226 = AXIS2_PLACEMENT_3D ( 'NONE', #168, #171, #198 ) ;
#227 = PERSON_AND_ORGANIZATION ( #250, #173 ) ;
#228 = DIRECTION ( 'NONE',  ( 1.000000000000000000, 2.832769448823989800E-016, 0.0000000000000000000 ) ) ;
#229 = DATE_AND_TIME ( #68, #123 ) ;
#230 = EDGE_CURVE ( 'NONE', #148, #75, #145, .T. ) ;
#231 = CARTESIAN_POINT ( 'NONE',  ( 56.99999999999998600, 57.00000000000000000, 0.0000000000000000000 ) ) ;
#232 = APPROVAL_ROLE ( '' ) ;
#233 = FACE_OUTER_BOUND ( 'NONE', #96, .T. ) ;
#234 = DIRECTION ( 'NONE',  ( 0.0000000000000000000, 0.0000000000000000000, 1.000000000000000000 ) ) ;
#235 = EDGE_LOOP ( 'NONE', ( #223, #95 ) ) ;
#236 = DATE_TIME_ROLE ( 'classification_date' ) ;
#237 = CC_DESIGN_DATE_AND_TIME_ASSIGNMENT ( #134, #162, ( #185 ) ) ;
#238 =( NAMED_UNIT ( * ) SI_UNIT ( $, .STERADIAN. ) SOLID_ANGLE_UNIT ( ) );
#239 = ADVANCED_FACE ( 'NONE', ( #189 ), #178, .F. ) ;
#240 = ORIENTED_EDGE ( 'NONE', *, *, #218, .F. ) ;
#241 = AXIS2_PLACEMENT_3D ( 'NONE', #115, #242, #184 ) ;
#242 = DIRECTION ( 'NONE',  ( 0.0000000000000000000, 0.0000000000000000000, 1.000000000000000000 ) ) ;
#243 = PLANE ( 'NONE',  #214 ) ;
#244 = FACE_BOUND ( 'NONE', #235, .T. ) ;
#245 = CARTESIAN_POINT ( 'NONE',  ( 22.54999999999999700, 0.0000000000000000000, -2.761578532077281900E-015 ) ) ;
#246 = EDGE_CURVE ( 'NONE', #58, #164, #93, .T. ) ;
#247 = APPROVAL_DATE_TIME ( #219, #109 ) ;
#248 = VERTEX_POINT ( 'NONE', #245 ) ;
#249 = CARTESIAN_POINT ( 'NONE',  ( 57.00000000000000000, 0.0000000000000000000, 0.0000000000000000000 ) ) ;
#250 = PERSON ( 'UNSPECIFIED', 'UNSPECIFIED', 'UNSPECIFIED', ('UNSPECIFIED'), ('UNSPECIFIED'), ('UNSPECIFIED') ) ;
#251 = PRODUCT_DEFINITION_FORMATION_WITH_SPECIFIED_SOURCE ( 'ANY', '', #18, .NOT_KNOWN. ) ;
#252 = EDGE_LOOP ( 'NONE', ( #160, #209, #10, #126 ) ) ;
#253 = DATE_AND_TIME ( #118, #166 ) ;
ENDSEC;
END-ISO-10303-21;
