ISO-10303-21;
HEADER;
FILE_DESCRIPTION (( 'STEP AP203' ),
    '1' );
FILE_NAME ('11-0216-07_outokumpu.step',
    '2015-08-11T14:13:56',
    ( '' ),
    ( '' ),
    'SwSTEP 2.0',
    'SolidWorks 2008',
    '' );
FILE_SCHEMA (( 'CONFIG_CONTROL_DESIGN' ));
ENDSEC;

DATA;
#1 = ORIENTED_EDGE ( 'NONE', *, *, #20, .F. ) ;
#2 = VERTEX_POINT ( 'NONE', #130 ) ;
#3 = EDGE_CURVE ( 'NONE', #2, #71, #51, .T. ) ;
#4 = ORIENTED_EDGE ( 'NONE', *, *, #5, .T. ) ;
#5 = EDGE_CURVE ( 'NONE', #25, #6, #46, .T. ) ;
#6 = VERTEX_POINT ( 'NONE', #63 ) ;
#7 = ORIENTED_EDGE ( 'NONE', *, *, #8, .T. ) ;
#8 = EDGE_CURVE ( 'NONE', #6, #71, #62, .T. ) ;
#9 = EDGE_CURVE ( 'NONE', #29, #54, #57, .T. ) ;
#10 = MANIFOLD_SOLID_BREP ( 'NONE', #127 ) ;
#11 = ADVANCED_FACE ( 'NONE', ( #185 ), #165, .F. ) ;
#12 = EDGE_LOOP ( 'NONE', ( #13, #19, #30, #97, #124 ) ) ;
#13 = ORIENTED_EDGE ( 'NONE', *, *, #14, .T. ) ;
#14 = EDGE_CURVE ( 'NONE', #16, #15, #178, .T. ) ;
#15 = VERTEX_POINT ( 'NONE', #188 ) ;
#16 = VERTEX_POINT ( 'NONE', #187 ) ;
#17 = UNCERTAINTY_MEASURE_WITH_UNIT (LENGTH_MEASURE( 1.000000000000000100E-005 ), #304, 'distance_accuracy_value', 'NONE');
#18 =( NAMED_UNIT ( * ) SI_UNIT ( $, .STERADIAN. ) SOLID_ANGLE_UNIT ( ) );
#19 = ORIENTED_EDGE ( 'NONE', *, *, #113, .T. ) ;
#20 = EDGE_CURVE ( 'NONE', #107, #81, #189, .T. ) ;
#21 = ORIENTED_EDGE ( 'NONE', *, *, #22, .F. ) ;
#22 = EDGE_CURVE ( 'NONE', #82, #107, #190, .T. ) ;
#23 = ADVANCED_FACE ( 'NONE', ( #150 ), #212, .T. ) ;
#24 = EDGE_LOOP ( 'NONE', ( #4, #7, #31, #95 ) ) ;
#25 = VERTEX_POINT ( 'NONE', #213 ) ;
#26 = ADVANCED_FACE ( 'NONE', ( #159 ), #158, .F. ) ;
#27 = EDGE_LOOP ( 'NONE', ( #28, #126, #38, #1, #21 ) ) ;
#28 = ORIENTED_EDGE ( 'NONE', *, *, #112, .F. ) ;
#29 = VERTEX_POINT ( 'NONE', #164 ) ;
#30 = ORIENTED_EDGE ( 'NONE', *, *, #9, .F. ) ;
#31 = ORIENTED_EDGE ( 'NONE', *, *, #3, .F. ) ;
#32 = ORIENTED_EDGE ( 'NONE', *, *, #33, .F. ) ;
#33 = EDGE_CURVE ( 'NONE', #82, #16, #210, .T. ) ;
#34 = ORIENTED_EDGE ( 'NONE', *, *, #78, .F. ) ;
#35 = ORIENTED_EDGE ( 'NONE', *, *, #99, .T. ) ;
#36 = ORIENTED_EDGE ( 'NONE', *, *, #65, .T. ) ;
#37 = ORIENTED_EDGE ( 'NONE', *, *, #39, .F. ) ;
#38 = ORIENTED_EDGE ( 'NONE', *, *, #129, .T. ) ;
#39 = EDGE_CURVE ( 'NONE', #54, #29, #218, .T. ) ;
#40 = ORIENTED_EDGE ( 'NONE', *, *, #22, .T. ) ;
#41 = ORIENTED_EDGE ( 'NONE', *, *, #68, .F. ) ;
#42 = ORIENTED_EDGE ( 'NONE', *, *, #66, .F. ) ;
#43 = ORIENTED_EDGE ( 'NONE', *, *, #20, .T. ) ;
#44 = DIRECTION ( 'NONE',  ( -0.0000000000000000000, -0.0000000000000000000, 1.000000000000000000 ) ) ;
#45 = AXIS2_PLACEMENT_3D ( 'NONE', #52, #44, #64 ) ;
#46 = CIRCLE ( 'NONE', #45, 24.14999999999999900 ) ;
#47 = DIRECTION ( 'NONE',  ( 1.000000000000000000, 0.0000000000000000000, 0.0000000000000000000 ) ) ;
#48 = DIRECTION ( 'NONE',  ( -0.0000000000000000000, -0.0000000000000000000, 1.000000000000000000 ) ) ;
#49 = CARTESIAN_POINT ( 'NONE',  ( 0.0000000000000000000, 0.0000000000000000000, 0.0000000000000000000 ) ) ;
#50 = AXIS2_PLACEMENT_3D ( 'NONE', #49, #48, #47 ) ;
#51 = CIRCLE ( 'NONE', #50, 24.14999999999999900 ) ;
#52 = CARTESIAN_POINT ( 'NONE',  ( 0.0000000000000000000, 0.0000000000000000000, -17.00000000000000400 ) ) ;
#53 =( GEOMETRIC_REPRESENTATION_CONTEXT ( 3 ) GLOBAL_UNCERTAINTY_ASSIGNED_CONTEXT ( ( #17 ) ) GLOBAL_UNIT_ASSIGNED_CONTEXT ( ( #304, #303, #18 ) ) REPRESENTATION_CONTEXT ( 'NONE', 'WORKASPACE' ) );
#54 = VERTEX_POINT ( 'NONE', #175 ) ;
#55 = CARTESIAN_POINT ( 'NONE',  ( 0.0000000000000000000, 0.0000000000000000000, -17.00000000000000000 ) ) ;
#56 = AXIS2_PLACEMENT_3D ( 'NONE', #55, #145, #157 ) ;
#57 = CIRCLE ( 'NONE', #56, 21.68676472469959600 ) ;
#58 = DIRECTION ( 'NONE',  ( 1.000000000000000000, 0.0000000000000000000, 0.0000000000000000000 ) ) ;
#59 = DIRECTION ( 'NONE',  ( -0.0000000000000000000, -0.0000000000000000000, 1.000000000000000000 ) ) ;
#60 = VECTOR ( 'NONE', #59, 1000.000000000000000 ) ;
#61 = CARTESIAN_POINT ( 'NONE',  ( -24.14999999999999900, 2.957424344481040600E-015, -4.336808689942017700E-016 ) ) ;
#62 = LINE ( 'NONE', #61, #60 ) ;
#63 = CARTESIAN_POINT ( 'NONE',  ( -24.14999999999999900, 2.957424344481040600E-015, -17.00000000000000400 ) ) ;
#64 = DIRECTION ( 'NONE',  ( 1.000000000000000000, 0.0000000000000000000, 0.0000000000000000000 ) ) ;
#65 = EDGE_CURVE ( 'NONE', #114, #29, #155, .T. ) ;
#66 = EDGE_CURVE ( 'NONE', #107, #85, #169, .T. ) ;
#67 = ORIENTED_EDGE ( 'NONE', *, *, #80, .T. ) ;
#68 = EDGE_CURVE ( 'NONE', #85, #106, #194, .T. ) ;
#69 = ORIENTED_EDGE ( 'NONE', *, *, #14, .F. ) ;
#70 = EDGE_CURVE ( 'NONE', #114, #16, #181, .T. ) ;
#71 = VERTEX_POINT ( 'NONE', #206 ) ;
#72 = ORIENTED_EDGE ( 'NONE', *, *, #73, .T. ) ;
#73 = EDGE_CURVE ( 'NONE', #71, #2, #204, .T. ) ;
#74 = ORIENTED_EDGE ( 'NONE', *, *, #75, .F. ) ;
#75 = EDGE_CURVE ( 'NONE', #6, #25, #144, .T. ) ;
#76 = EDGE_LOOP ( 'NONE', ( #122, #123 ) ) ;
#77 = ORIENTED_EDGE ( 'NONE', *, *, #66, .T. ) ;
#78 = EDGE_CURVE ( 'NONE', #15, #96, #139, .T. ) ;
#79 = ORIENTED_EDGE ( 'NONE', *, *, #80, .F. ) ;
#80 = EDGE_CURVE ( 'NONE', #85, #96, #221, .T. ) ;
#81 = VERTEX_POINT ( 'NONE', #233 ) ;
#82 = VERTEX_POINT ( 'NONE', #237 ) ;
#83 = EDGE_LOOP ( 'NONE', ( #84, #41, #42, #43, #89 ) ) ;
#84 = ORIENTED_EDGE ( 'NONE', *, *, #105, .F. ) ;
#85 = VERTEX_POINT ( 'NONE', #228 ) ;
#86 = ADVANCED_FACE ( 'NONE', ( #242, #232 ), #227, .F. ) ;
#87 = EDGE_LOOP ( 'NONE', ( #88, #72 ) ) ;
#88 = ORIENTED_EDGE ( 'NONE', *, *, #3, .T. ) ;
#89 = ORIENTED_EDGE ( 'NONE', *, *, #133, .T. ) ;
#90 = ADVANCED_FACE ( 'NONE', ( #241 ), #243, .F. ) ;
#91 = ADVANCED_FACE ( 'NONE', ( #245 ), #235, .F. ) ;
#92 = ORIENTED_EDGE ( 'NONE', *, *, #112, .T. ) ;
#93 = ORIENTED_EDGE ( 'NONE', *, *, #129, .F. ) ;
#94 = ADVANCED_FACE ( 'NONE', ( #251 ), #247, .T. ) ;
#95 = ORIENTED_EDGE ( 'NONE', *, *, #128, .F. ) ;
#96 = VERTEX_POINT ( 'NONE', #229 ) ;
#97 = ORIENTED_EDGE ( 'NONE', *, *, #65, .F. ) ;
#98 = EDGE_LOOP ( 'NONE', ( #116, #92, #118, #117, #134, #79 ) ) ;
#99 = EDGE_CURVE ( 'NONE', #96, #114, #261, .T. ) ;
#100 = EDGE_LOOP ( 'NONE', ( #32, #40, #77, #67, #34, #69 ) ) ;
#101 = ORIENTED_EDGE ( 'NONE', *, *, #75, .T. ) ;
#102 = ORIENTED_EDGE ( 'NONE', *, *, #128, .T. ) ;
#103 = ORIENTED_EDGE ( 'NONE', *, *, #73, .F. ) ;
#104 = ADVANCED_FACE ( 'NONE', ( #262 ), #256, .F. ) ;
#105 = EDGE_CURVE ( 'NONE', #106, #125, #279, .T. ) ;
#106 = VERTEX_POINT ( 'NONE', #272 ) ;
#107 = VERTEX_POINT ( 'NONE', #264 ) ;
#108 = EDGE_LOOP ( 'NONE', ( #109, #101, #102, #103 ) ) ;
#109 = ORIENTED_EDGE ( 'NONE', *, *, #8, .F. ) ;
#110 = ORIENTED_EDGE ( 'NONE', *, *, #113, .F. ) ;
#111 = ORIENTED_EDGE ( 'NONE', *, *, #78, .T. ) ;
#112 = EDGE_CURVE ( 'NONE', #106, #82, #278, .T. ) ;
#113 = EDGE_CURVE ( 'NONE', #15, #54, #299, .T. ) ;
#114 = VERTEX_POINT ( 'NONE', #296 ) ;
#115 = EDGE_LOOP ( 'NONE', ( #110, #111, #35, #36, #37 ) ) ;
#116 = ORIENTED_EDGE ( 'NONE', *, *, #68, .T. ) ;
#117 = ORIENTED_EDGE ( 'NONE', *, *, #70, .F. ) ;
#118 = ORIENTED_EDGE ( 'NONE', *, *, #33, .T. ) ;
#119 = ADVANCED_FACE ( 'NONE', ( #295, #294 ), #302, .F. ) ;
#120 = EDGE_LOOP ( 'NONE', ( #121, #74 ) ) ;
#121 = ORIENTED_EDGE ( 'NONE', *, *, #5, .F. ) ;
#122 = ORIENTED_EDGE ( 'NONE', *, *, #9, .T. ) ;
#123 = ORIENTED_EDGE ( 'NONE', *, *, #39, .T. ) ;
#124 = ORIENTED_EDGE ( 'NONE', *, *, #70, .T. ) ;
#125 = VERTEX_POINT ( 'NONE', #301 ) ;
#126 = ORIENTED_EDGE ( 'NONE', *, *, #105, .T. ) ;
#127 = CLOSED_SHELL ( 'NONE', ( #11, #26, #23, #135, #91, #119, #86, #94, #104, #90 ) ) ;
#128 = EDGE_CURVE ( 'NONE', #25, #2, #276, .T. ) ;
#129 = EDGE_CURVE ( 'NONE', #125, #81, #290, .T. ) ;
#130 = CARTESIAN_POINT ( 'NONE',  ( 24.14999999999999900, 0.0000000000000000000, 0.0000000000000000000 ) ) ;
#131 = EDGE_LOOP ( 'NONE', ( #132, #93 ) ) ;
#132 = ORIENTED_EDGE ( 'NONE', *, *, #133, .F. ) ;
#133 = EDGE_CURVE ( 'NONE', #81, #125, #269, .T. ) ;
#134 = ORIENTED_EDGE ( 'NONE', *, *, #99, .F. ) ;
#135 = ADVANCED_FACE ( 'NONE', ( #270 ), #265, .F. ) ;
#136 = DIRECTION ( 'NONE',  ( -0.0000000000000000000, -0.0000000000000000000, 1.000000000000000000 ) ) ;
#137 = CARTESIAN_POINT ( 'NONE',  ( 0.0000000000000000000, 0.0000000000000000000, -16.26823527530041200 ) ) ;
#138 = AXIS2_PLACEMENT_3D ( 'NONE', #137, #136, #58 ) ;
#139 = CIRCLE ( 'NONE', #138, 20.95499999999999500 ) ;
#140 = DIRECTION ( 'NONE',  ( -0.0000000000000000000, 2.617155524277344300E-016, -1.000000000000000000 ) ) ;
#141 = DIRECTION ( 'NONE',  ( 1.000000000000000000, 0.0000000000000000000, 0.0000000000000000000 ) ) ;
#142 = DIRECTION ( 'NONE',  ( -0.0000000000000000000, -0.0000000000000000000, 1.000000000000000000 ) ) ;
#143 = AXIS2_PLACEMENT_3D ( 'NONE', #205, #142, #141 ) ;
#144 = CIRCLE ( 'NONE', #143, 24.14999999999999900 ) ;
#145 = DIRECTION ( 'NONE',  ( -0.0000000000000000000, -0.0000000000000000000, 1.000000000000000000 ) ) ;
#146 = DIRECTION ( 'NONE',  ( 0.0000000000000000000, 0.0000000000000000000, -1.000000000000000000 ) ) ;
#147 = DIRECTION ( 'NONE',  ( 1.000000000000000000, 0.0000000000000000000, 0.0000000000000000000 ) ) ;
#148 = DIRECTION ( 'NONE',  ( -0.0000000000000000000, -0.0000000000000000000, 1.000000000000000000 ) ) ;
#149 = CARTESIAN_POINT ( 'NONE',  ( 0.0000000000000000000, 0.0000000000000000000, -16.26823527530041200 ) ) ;
#150 = FACE_OUTER_BOUND ( 'NONE', #24, .T. ) ;
#151 = DIRECTION ( 'NONE',  ( 1.000000000000000000, 0.0000000000000000000, 0.0000000000000000000 ) ) ;
#152 = DIRECTION ( 'NONE',  ( -0.0000000000000000000, -0.0000000000000000000, 1.000000000000000000 ) ) ;
#153 = DIRECTION ( 'NONE',  ( -0.7071067811865541200, 0.0000000000000000000, -0.7071067811865408000 ) ) ;
#154 = CARTESIAN_POINT ( 'NONE',  ( -21.68676472469959600, 0.0000000000000000000, -17.00000000000000000 ) ) ;
#155 = LINE ( 'NONE', #154, #171 ) ;
#156 = AXIS2_PLACEMENT_3D ( 'NONE', #166, #146, #186 ) ;
#157 = DIRECTION ( 'NONE',  ( 1.000000000000000000, 0.0000000000000000000, 0.0000000000000000000 ) ) ;
#158 = CONICAL_SURFACE ( 'NONE', #168, 20.95499999999999500, 0.7853981633974543900 ) ;
#159 = FACE_OUTER_BOUND ( 'NONE', #27, .T. ) ;
#160 = DIRECTION ( 'NONE',  ( 1.000000000000000000, 0.0000000000000000000, 0.0000000000000000000 ) ) ;
#161 = DIRECTION ( 'NONE',  ( -0.0000000000000000000, -0.0000000000000000000, 1.000000000000000000 ) ) ;
#162 = DIRECTION ( 'NONE',  ( 1.000000000000000000, 0.0000000000000000000, 0.0000000000000000000 ) ) ;
#163 = DIRECTION ( 'NONE',  ( -0.0000000000000000000, -0.0000000000000000000, 1.000000000000000000 ) ) ;
#164 = CARTESIAN_POINT ( 'NONE',  ( -21.68676472469959600, 0.0000000000000000000, -17.00000000000000000 ) ) ;
#165 = CONICAL_SURFACE ( 'NONE', #156, 21.68676472469959600, 0.7853981633974578300 ) ;
#166 = CARTESIAN_POINT ( 'NONE',  ( 0.0000000000000000000, 0.0000000000000000000, -17.00000000000000000 ) ) ;
#167 = CARTESIAN_POINT ( 'NONE',  ( 0.0000000000000000000, 0.0000000000000000000, -0.7317647246994228900 ) ) ;
#168 = AXIS2_PLACEMENT_3D ( 'NONE', #167, #163, #162 ) ;
#169 = CIRCLE ( 'NONE', #199, 20.95499999999999500 ) ;
#170 = CARTESIAN_POINT ( 'NONE',  ( 0.0000000000000000000, 0.0000000000000000000, -0.7317647246994228900 ) ) ;
#171 = VECTOR ( 'NONE', #153, 1000.000000000000100 ) ;
#172 = DIRECTION ( 'NONE',  ( 0.7071067811865517900, 0.0000000000000000000, 0.7071067811865432400 ) ) ;
#173 = VECTOR ( 'NONE', #172, 1000.000000000000000 ) ;
#174 = CARTESIAN_POINT ( 'NONE',  ( 20.95499999999999500, 0.0000000000000000000, -0.7317647246994228900 ) ) ;
#175 = CARTESIAN_POINT ( 'NONE',  ( 21.68676472469959600, 2.655774987571812400E-015, -17.00000000000000000 ) ) ;
#176 = VECTOR ( 'NONE', #208, 1000.000000000000000 ) ;
#177 = AXIS2_PLACEMENT_3D ( 'NONE', #149, #148, #147 ) ;
#178 = CIRCLE ( 'NONE', #177, 20.95499999999999500 ) ;
#179 = DIRECTION ( 'NONE',  ( -0.0000000000000000000, -0.0000000000000000000, 1.000000000000000000 ) ) ;
#180 = AXIS2_PLACEMENT_3D ( 'NONE', #195, #179, #207 ) ;
#181 = CIRCLE ( 'NONE', #180, 20.95499999999999500 ) ;
#182 = DIRECTION ( 'NONE',  ( 1.000000000000000000, 0.0000000000000000000, 0.0000000000000000000 ) ) ;
#183 = DIRECTION ( 'NONE',  ( -0.0000000000000000000, -0.0000000000000000000, 1.000000000000000000 ) ) ;
#184 = AXIS2_PLACEMENT_3D ( 'NONE', #170, #183, #182 ) ;
#185 = FACE_OUTER_BOUND ( 'NONE', #12, .T. ) ;
#186 = DIRECTION ( 'NONE',  ( -1.000000000000000000, 0.0000000000000000000, 0.0000000000000000000 ) ) ;
#187 = CARTESIAN_POINT ( 'NONE',  ( 2.566162614434790800E-015, -20.95499999999999500, -16.26823527530041200 ) ) ;
#188 = CARTESIAN_POINT ( 'NONE',  ( 20.95499999999999500, 2.610968801003301400E-015, -16.26823527530041200 ) ) ;
#189 = LINE ( 'NONE', #174, #173 ) ;
#190 = CIRCLE ( 'NONE', #192, 20.95499999999999500 ) ;
#191 = CARTESIAN_POINT ( 'NONE',  ( 0.0000000000000000000, 0.0000000000000000000, -0.7317647246994228900 ) ) ;
#192 = AXIS2_PLACEMENT_3D ( 'NONE', #191, #152, #151 ) ;
#193 = CARTESIAN_POINT ( 'NONE',  ( 0.0000000000000000000, 0.0000000000000000000, -4.336808689942017700E-016 ) ) ;
#194 = CIRCLE ( 'NONE', #184, 20.95499999999999500 ) ;
#195 = CARTESIAN_POINT ( 'NONE',  ( 0.0000000000000000000, 0.0000000000000000000, -16.26823527530041200 ) ) ;
#196 = DIRECTION ( 'NONE',  ( 1.000000000000000000, 0.0000000000000000000, 0.0000000000000000000 ) ) ;
#197 = DIRECTION ( 'NONE',  ( -0.0000000000000000000, -0.0000000000000000000, 1.000000000000000000 ) ) ;
#198 = CARTESIAN_POINT ( 'NONE',  ( 0.0000000000000000000, 0.0000000000000000000, -0.7317647246994228900 ) ) ;
#199 = AXIS2_PLACEMENT_3D ( 'NONE', #198, #197, #196 ) ;
#200 = DIRECTION ( 'NONE',  ( 1.000000000000000000, 0.0000000000000000000, 0.0000000000000000000 ) ) ;
#201 = DIRECTION ( 'NONE',  ( -0.0000000000000000000, -0.0000000000000000000, 1.000000000000000000 ) ) ;
#202 = CARTESIAN_POINT ( 'NONE',  ( 0.0000000000000000000, 0.0000000000000000000, 0.0000000000000000000 ) ) ;
#203 = AXIS2_PLACEMENT_3D ( 'NONE', #202, #201, #200 ) ;
#204 = CIRCLE ( 'NONE', #203, 24.14999999999999900 ) ;
#205 = CARTESIAN_POINT ( 'NONE',  ( 0.0000000000000000000, 0.0000000000000000000, -17.00000000000000400 ) ) ;
#206 = CARTESIAN_POINT ( 'NONE',  ( -24.14999999999999900, 2.957424344481040600E-015, 0.0000000000000000000 ) ) ;
#207 = DIRECTION ( 'NONE',  ( 1.000000000000000000, 0.0000000000000000000, 0.0000000000000000000 ) ) ;
#208 = DIRECTION ( 'NONE',  ( -0.0000000000000000000, 2.617155524277344300E-016, -1.000000000000000000 ) ) ;
#209 = CARTESIAN_POINT ( 'NONE',  ( 2.566162614434790800E-015, -20.95499999999999500, -17.00000000000009200 ) ) ;
#210 = LINE ( 'NONE', #209, #176 ) ;
#211 = AXIS2_PLACEMENT_3D ( 'NONE', #193, #161, #160 ) ;
#212 = CYLINDRICAL_SURFACE ( 'NONE', #211, 24.14999999999999900 ) ;
#213 = CARTESIAN_POINT ( 'NONE',  ( 24.14999999999999900, 0.0000000000000000000, -17.00000000000000400 ) ) ;
#214 = DIRECTION ( 'NONE',  ( 1.000000000000000000, 0.0000000000000000000, 0.0000000000000000000 ) ) ;
#215 = DIRECTION ( 'NONE',  ( -0.0000000000000000000, -0.0000000000000000000, 1.000000000000000000 ) ) ;
#216 = CARTESIAN_POINT ( 'NONE',  ( 0.0000000000000000000, 0.0000000000000000000, -17.00000000000000000 ) ) ;
#217 = AXIS2_PLACEMENT_3D ( 'NONE', #216, #215, #214 ) ;
#218 = CIRCLE ( 'NONE', #217, 21.68676472469959600 ) ;
#219 = VECTOR ( 'NONE', #140, 1000.000000000000000 ) ;
#220 = CARTESIAN_POINT ( 'NONE',  ( 0.0000000000000000000, 20.95499999999999500, -17.00000000000007800 ) ) ;
#221 = LINE ( 'NONE', #220, #219 ) ;
#222 = DIRECTION ( 'NONE',  ( 1.000000000000000000, 0.0000000000000000000, 0.0000000000000000000 ) ) ;
#223 = AXIS2_PLACEMENT_3D ( 'NONE', #225, #224, #236 ) ;
#224 = DIRECTION ( 'NONE',  ( 0.0000000000000000000, 0.0000000000000000000, -1.000000000000000000 ) ) ;
#225 = CARTESIAN_POINT ( 'NONE',  ( 0.0000000000000000000, 0.0000000000000000000, -17.00000000000000000 ) ) ;
#226 = DIRECTION ( 'NONE',  ( -1.000000000000000000, 0.0000000000000000000, -0.0000000000000000000 ) ) ;
#227 = PLANE ( 'NONE',  #240 ) ;
#228 = CARTESIAN_POINT ( 'NONE',  ( 0.0000000000000000000, 20.95499999999999500, -0.7317647246994228900 ) ) ;
#229 = CARTESIAN_POINT ( 'NONE',  ( 0.0000000000000000000, 20.95499999999999500, -16.26823527530041200 ) ) ;
#230 = DIRECTION ( 'NONE',  ( 1.000000000000000000, 0.0000000000000000000, 0.0000000000000000000 ) ) ;
#231 = AXIS2_PLACEMENT_3D ( 'NONE', #246, #250, #230 ) ;
#232 = FACE_BOUND ( 'NONE', #131, .T. ) ;
#233 = CARTESIAN_POINT ( 'NONE',  ( 21.68676472469942600, 0.0000000000000000000, -3.304181524652116200E-019 ) ) ;
#234 = CARTESIAN_POINT ( 'NONE',  ( 0.0000000000000000000, 9.797174393178926200E-016, -17.00000000000008500 ) ) ;
#235 = CYLINDRICAL_SURFACE ( 'NONE', #249, 20.95499999999999500 ) ;
#236 = DIRECTION ( 'NONE',  ( -1.000000000000000000, 0.0000000000000000000, 0.0000000000000000000 ) ) ;
#237 = CARTESIAN_POINT ( 'NONE',  ( 2.566162614434790800E-015, -20.95499999999999500, -0.7317647246994228900 ) ) ;
#238 = DIRECTION ( 'NONE',  ( 0.0000000000000000000, 0.0000000000000000000, -1.000000000000000000 ) ) ;
#239 = CARTESIAN_POINT ( 'NONE',  ( 0.0000000000000000000, 24.14999999999999900, -2.168404344971008900E-016 ) ) ;
#240 = AXIS2_PLACEMENT_3D ( 'NONE', #239, #238, #226 ) ;
#241 = FACE_OUTER_BOUND ( 'NONE', #115, .T. ) ;
#242 = FACE_OUTER_BOUND ( 'NONE', #87, .T. ) ;
#243 = CONICAL_SURFACE ( 'NONE', #223, 21.68676472469959600, 0.7853981633974578300 ) ;
#244 = DIRECTION ( 'NONE',  ( -0.0000000000000000000, 2.617155524277344300E-016, -1.000000000000000000 ) ) ;
#245 = FACE_OUTER_BOUND ( 'NONE', #100, .T. ) ;
#246 = CARTESIAN_POINT ( 'NONE',  ( 0.0000000000000000000, 0.0000000000000000000, -4.336808689942017700E-016 ) ) ;
#247 = CYLINDRICAL_SURFACE ( 'NONE', #231, 24.14999999999999900 ) ;
#248 = DIRECTION ( 'NONE',  ( 0.0000000000000000000, 1.000000000000000000, 3.311330901411228800E-016 ) ) ;
#249 = AXIS2_PLACEMENT_3D ( 'NONE', #234, #244, #248 ) ;
#250 = DIRECTION ( 'NONE',  ( -0.0000000000000000000, -0.0000000000000000000, 1.000000000000000000 ) ) ;
#251 = FACE_OUTER_BOUND ( 'NONE', #108, .T. ) ;
#252 = DIRECTION ( 'NONE',  ( -0.0000000000000000000, -0.0000000000000000000, 1.000000000000000000 ) ) ;
#253 = CARTESIAN_POINT ( 'NONE',  ( 0.0000000000000000000, 0.0000000000000000000, -0.7317647246994228900 ) ) ;
#254 = AXIS2_PLACEMENT_3D ( 'NONE', #253, #252, #222 ) ;
#255 = ADVANCED_BREP_SHAPE_REPRESENTATION ( '11-0216-07_outokumpu', ( #10, #320 ), #53 ) ;
#256 = CONICAL_SURFACE ( 'NONE', #254, 20.95499999999999500, 0.7853981633974543900 ) ;
#257 = DIRECTION ( 'NONE',  ( 1.000000000000000000, 0.0000000000000000000, 0.0000000000000000000 ) ) ;
#258 = DIRECTION ( 'NONE',  ( -0.0000000000000000000, -0.0000000000000000000, 1.000000000000000000 ) ) ;
#259 = CARTESIAN_POINT ( 'NONE',  ( 0.0000000000000000000, 0.0000000000000000000, -16.26823527530041200 ) ) ;
#260 = AXIS2_PLACEMENT_3D ( 'NONE', #259, #258, #257 ) ;
#261 = CIRCLE ( 'NONE', #260, 20.95499999999999500 ) ;
#262 = FACE_OUTER_BOUND ( 'NONE', #83, .T. ) ;
#263 = CARTESIAN_POINT ( 'NONE',  ( 0.0000000000000000000, 0.0000000000000000000, -0.7317647246994228900 ) ) ;
#264 = CARTESIAN_POINT ( 'NONE',  ( 20.95499999999999500, 0.0000000000000000000, -0.7317647246994228900 ) ) ;
#265 = CYLINDRICAL_SURFACE ( 'NONE', #308, 20.95499999999999500 ) ;
#266 = DIRECTION ( 'NONE',  ( 1.000000000000000000, 0.0000000000000000000, 0.0000000000000000000 ) ) ;
#267 = DIRECTION ( 'NONE',  ( -0.0000000000000000000, -0.0000000000000000000, 1.000000000000000000 ) ) ;
#268 = AXIS2_PLACEMENT_3D ( 'NONE', #285, #267, #266 ) ;
#269 = CIRCLE ( 'NONE', #268, 21.68676472469942600 ) ;
#270 = FACE_OUTER_BOUND ( 'NONE', #98, .T. ) ;
#271 = VECTOR ( 'NONE', #293, 1000.000000000000000 ) ;
#272 = CARTESIAN_POINT ( 'NONE',  ( -20.95499999999999500, 2.610968801003291200E-015, -0.7317647246994228900 ) ) ;
#273 = DIRECTION ( 'NONE',  ( -0.0000000000000000000, -0.0000000000000000000, 1.000000000000000000 ) ) ;
#274 = VECTOR ( 'NONE', #273, 1000.000000000000000 ) ;
#275 = CARTESIAN_POINT ( 'NONE',  ( 24.14999999999999900, 0.0000000000000000000, -4.336808689942017700E-016 ) ) ;
#276 = LINE ( 'NONE', #275, #274 ) ;
#277 = DIRECTION ( 'NONE',  ( -0.0000000000000000000, -0.0000000000000000000, 1.000000000000000000 ) ) ;
#278 = CIRCLE ( 'NONE', #280, 20.95499999999999500 ) ;
#279 = LINE ( 'NONE', #291, #271 ) ;
#280 = AXIS2_PLACEMENT_3D ( 'NONE', #263, #277, #300 ) ;
#281 = DIRECTION ( 'NONE',  ( 1.000000000000000000, 0.0000000000000000000, 0.0000000000000000000 ) ) ;
#282 = DIRECTION ( 'NONE',  ( 0.0000000000000000000, -0.0000000000000000000, 1.000000000000000000 ) ) ;
#283 = CARTESIAN_POINT ( 'NONE',  ( 0.0000000000000000000, 24.14999999999999900, -17.00000000000000000 ) ) ;
#284 = AXIS2_PLACEMENT_3D ( 'NONE', #283, #282, #281 ) ;
#285 = CARTESIAN_POINT ( 'NONE',  ( 0.0000000000000000000, 0.0000000000000000000, -3.304181524652116200E-019 ) ) ;
#286 = DIRECTION ( 'NONE',  ( 1.000000000000000000, 0.0000000000000000000, 0.0000000000000000000 ) ) ;
#287 = DIRECTION ( 'NONE',  ( -0.0000000000000000000, -0.0000000000000000000, 1.000000000000000000 ) ) ;
#288 = CARTESIAN_POINT ( 'NONE',  ( 0.0000000000000000000, 0.0000000000000000000, -3.304181524652116200E-019 ) ) ;
#289 = AXIS2_PLACEMENT_3D ( 'NONE', #288, #287, #286 ) ;
#290 = CIRCLE ( 'NONE', #289, 21.68676472469942600 ) ;
#291 = CARTESIAN_POINT ( 'NONE',  ( -20.95499999999999500, 2.566162614434790800E-015, -0.7317647246994228900 ) ) ;
#292 = CARTESIAN_POINT ( 'NONE',  ( 21.68676472469959600, 2.655774987571812400E-015, -17.00000000000000000 ) ) ;
#293 = DIRECTION ( 'NONE',  ( -0.7071067811865517900, 8.659274570719408400E-017, 0.7071067811865432400 ) ) ;
#294 = FACE_BOUND ( 'NONE', #76, .T. ) ;
#295 = FACE_OUTER_BOUND ( 'NONE', #120, .T. ) ;
#296 = CARTESIAN_POINT ( 'NONE',  ( -20.95499999999999500, 0.0000000000000000000, -16.26823527530041200 ) ) ;
#297 = DIRECTION ( 'NONE',  ( 0.7071067811865541200, 8.659274570719435500E-017, -0.7071067811865408000 ) ) ;
#298 = VECTOR ( 'NONE', #297, 1000.000000000000100 ) ;
#299 = LINE ( 'NONE', #292, #298 ) ;
#300 = DIRECTION ( 'NONE',  ( 1.000000000000000000, 0.0000000000000000000, 0.0000000000000000000 ) ) ;
#301 = CARTESIAN_POINT ( 'NONE',  ( -21.68676472469942600, 2.655774987571791500E-015, -3.304181524652116200E-019 ) ) ;
#302 = PLANE ( 'NONE',  #284 ) ;
#303 =( NAMED_UNIT ( * ) PLANE_ANGLE_UNIT ( ) SI_UNIT ( $, .RADIAN. ) );
#304 =( LENGTH_UNIT ( ) NAMED_UNIT ( * ) SI_UNIT ( .MILLI., .METRE. ) );
#305 = DIRECTION ( 'NONE',  ( 0.0000000000000000000, 1.000000000000000000, 3.311330901411228800E-016 ) ) ;
#306 = DIRECTION ( 'NONE',  ( -0.0000000000000000000, 2.617155524277344300E-016, -1.000000000000000000 ) ) ;
#307 = CARTESIAN_POINT ( 'NONE',  ( 0.0000000000000000000, 9.797174393178926200E-016, -17.00000000000008500 ) ) ;
#308 = AXIS2_PLACEMENT_3D ( 'NONE', #307, #306, #305 ) ;
#309 = CALENDAR_DATE ( 2015, 11, 8 ) ;
#310 = LOCAL_TIME ( 16, 13, 56.00000000000000000, #311 ) ;
#311 = COORDINATED_UNIVERSAL_TIME_OFFSET ( 1, 0, .AHEAD. ) ;
#312 = APPROVAL_PERSON_ORGANIZATION ( #316, #314, #313 ) ;
#313 = APPROVAL_ROLE ( '' ) ;
#314 = APPROVAL ( #315, 'UNSPECIFIED' ) ;
#315 = APPROVAL_STATUS ( 'not_yet_approved' ) ;
#316 = PERSON_AND_ORGANIZATION ( #339, #353 ) ;
#317 = PRODUCT_DEFINITION ( 'UNKNOWN', '', #347, #318 ) ;
#318 = DESIGN_CONTEXT ( 'detailed design', #323, 'design' ) ;
#319 = APPLICATION_CONTEXT ( 'configuration controlled 3d designs of mechanical parts and assemblies' ) ;
#320 = AXIS2_PLACEMENT_3D ( 'NONE', #334, #333, #321 ) ;
#321 = DIRECTION ( 'NONE',  ( 1.000000000000000000, 0.0000000000000000000, 0.0000000000000000000 ) ) ;
#322 = APPLICATION_PROTOCOL_DEFINITION ( 'international standard', 'config_control_design', 1994, #323 ) ;
#323 = APPLICATION_CONTEXT ( 'configuration controlled 3d designs of mechanical parts and assemblies' ) ;
#324 = CC_DESIGN_PERSON_AND_ORGANIZATION_ASSIGNMENT ( #338, #325, ( #335 ) ) ;
#325 = PERSON_AND_ORGANIZATION_ROLE ( 'design_owner' ) ;
#326 = COORDINATED_UNIVERSAL_TIME_OFFSET ( 1, 0, .AHEAD. ) ;
#327 = CC_DESIGN_PERSON_AND_ORGANIZATION_ASSIGNMENT ( #329, #328, ( #317 ) ) ;
#328 = PERSON_AND_ORGANIZATION_ROLE ( 'creator' ) ;
#329 = PERSON_AND_ORGANIZATION ( #339, #353 ) ;
#330 = CC_DESIGN_APPROVAL ( #314, ( #317 ) ) ;
#331 = APPROVAL_DATE_TIME ( #332, #314 ) ;
#332 = DATE_AND_TIME ( #309, #310 ) ;
#333 = DIRECTION ( 'NONE',  ( 0.0000000000000000000, 0.0000000000000000000, 1.000000000000000000 ) ) ;
#334 = CARTESIAN_POINT ( 'NONE',  ( 0.0000000000000000000, 0.0000000000000000000, 0.0000000000000000000 ) ) ;
#335 = PRODUCT ( '11-0216-07_outokumpu', '11-0216-07_outokumpu', '', ( #336 ) ) ;
#336 = MECHANICAL_CONTEXT ( 'NONE', #319, 'mechanical' ) ;
#337 = APPLICATION_PROTOCOL_DEFINITION ( 'international standard', 'config_control_design', 1994, #319 ) ;
#338 = PERSON_AND_ORGANIZATION ( #339, #353 ) ;
#339 = PERSON ( 'UNSPECIFIED', 'UNSPECIFIED', 'UNSPECIFIED', ('UNSPECIFIED'), ('UNSPECIFIED'), ('UNSPECIFIED') ) ;
#340 = LOCAL_TIME ( 16, 13, 56.00000000000000000, #341 ) ;
#341 = COORDINATED_UNIVERSAL_TIME_OFFSET ( 1, 0, .AHEAD. ) ;
#342 = APPROVAL_PERSON_ORGANIZATION ( #346, #344, #343 ) ;
#343 = APPROVAL_ROLE ( '' ) ;
#344 = APPROVAL ( #345, 'UNSPECIFIED' ) ;
#345 = APPROVAL_STATUS ( 'not_yet_approved' ) ;
#346 = PERSON_AND_ORGANIZATION ( #339, #353 ) ;
#347 = PRODUCT_DEFINITION_FORMATION_WITH_SPECIFIED_SOURCE ( 'ANY', '', #335, .NOT_KNOWN. ) ;
#348 = CC_DESIGN_DATE_AND_TIME_ASSIGNMENT ( #350, #349, ( #317 ) ) ;
#349 = DATE_TIME_ROLE ( 'creation_date' ) ;
#350 = DATE_AND_TIME ( #351, #352 ) ;
#351 = CALENDAR_DATE ( 2015, 11, 8 ) ;
#352 = LOCAL_TIME ( 16, 13, 56.00000000000000000, #326 ) ;
#353 = ORGANIZATION ( 'UNSPECIFIED', 'UNSPECIFIED', '' ) ;
#354 = CC_DESIGN_PERSON_AND_ORGANIZATION_ASSIGNMENT ( #356, #355, ( #357 ) ) ;
#355 = PERSON_AND_ORGANIZATION_ROLE ( 'classification_officer' ) ;
#356 = PERSON_AND_ORGANIZATION ( #339, #353 ) ;
#357 = SECURITY_CLASSIFICATION ( '', '', #358 ) ;
#358 = SECURITY_CLASSIFICATION_LEVEL ( 'unclassified' ) ;
#359 = CC_DESIGN_PERSON_AND_ORGANIZATION_ASSIGNMENT ( #361, #360, ( #347 ) ) ;
#360 = PERSON_AND_ORGANIZATION_ROLE ( 'design_supplier' ) ;
#361 = PERSON_AND_ORGANIZATION ( #339, #353 ) ;
#362 = CC_DESIGN_PERSON_AND_ORGANIZATION_ASSIGNMENT ( #364, #363, ( #347 ) ) ;
#363 = PERSON_AND_ORGANIZATION_ROLE ( 'creator' ) ;
#364 = PERSON_AND_ORGANIZATION ( #339, #353 ) ;
#365 = CC_DESIGN_APPROVAL ( #344, ( #347 ) ) ;
#366 = APPROVAL_DATE_TIME ( #367, #344 ) ;
#367 = DATE_AND_TIME ( #368, #340 ) ;
#368 = CALENDAR_DATE ( 2015, 11, 8 ) ;
#369 = SHAPE_DEFINITION_REPRESENTATION ( #370, #255 ) ;
#370 = PRODUCT_DEFINITION_SHAPE ( 'NONE', 'NONE',  #317 ) ;
#371 = PRODUCT_RELATED_PRODUCT_CATEGORY ( 'detail', '', ( #335 ) ) ;
#372 = CC_DESIGN_SECURITY_CLASSIFICATION ( #357, ( #347 ) ) ;
#373 = CC_DESIGN_APPROVAL ( #381, ( #357 ) ) ;
#374 = APPROVAL_DATE_TIME ( #375, #381 ) ;
#375 = DATE_AND_TIME ( #376, #377 ) ;
#376 = CALENDAR_DATE ( 2015, 11, 8 ) ;
#377 = LOCAL_TIME ( 16, 13, 56.00000000000000000, #378 ) ;
#378 = COORDINATED_UNIVERSAL_TIME_OFFSET ( 1, 0, .AHEAD. ) ;
#379 = APPROVAL_PERSON_ORGANIZATION ( #383, #381, #380 ) ;
#380 = APPROVAL_ROLE ( '' ) ;
#381 = APPROVAL ( #382, 'UNSPECIFIED' ) ;
#382 = APPROVAL_STATUS ( 'not_yet_approved' ) ;
#383 = PERSON_AND_ORGANIZATION ( #339, #353 ) ;
#384 = CC_DESIGN_DATE_AND_TIME_ASSIGNMENT ( #386, #385, ( #357 ) ) ;
#385 = DATE_TIME_ROLE ( 'classification_date' ) ;
#386 = DATE_AND_TIME ( #387, #388 ) ;
#387 = CALENDAR_DATE ( 2015, 11, 8 ) ;
#388 = LOCAL_TIME ( 16, 13, 56.00000000000000000, #389 ) ;
#389 = COORDINATED_UNIVERSAL_TIME_OFFSET ( 1, 0, .AHEAD. ) ;
ENDSEC;
END-ISO-10303-21;
