ISO-10303-21;
HEADER;
FILE_DESCRIPTION (( 'STEP AP203' ),
    '1' );
FILE_NAME ('19-0408-09_outokumpu.step',
    '2015-08-11T09:44:51',
    ( '' ),
    ( '' ),
    'SwSTEP 2.0',
    'SolidWorks 2008',
    '' );
FILE_SCHEMA (( 'CONFIG_CONTROL_DESIGN' ));
ENDSEC;

DATA;
#1 = EDGE_LOOP ( 'NONE', ( #3, #2 ) ) ;
#2 = ORIENTED_EDGE ( 'NONE', *, *, #69, .T. ) ;
#3 = ORIENTED_EDGE ( 'NONE', *, *, #81, .T. ) ;
#4 = EDGE_LOOP ( 'NONE', ( #9, #10, #8, #145, #103 ) ) ;
#5 = ORIENTED_EDGE ( 'NONE', *, *, #6, .F. ) ;
#6 = EDGE_CURVE ( 'NONE', #37, #36, #150, .T. ) ;
#7 = EDGE_CURVE ( 'NONE', #72, #76, #124, .T. ) ;
#8 = ORIENTED_EDGE ( 'NONE', *, *, #143, .T. ) ;
#9 = ORIENTED_EDGE ( 'NONE', *, *, #132, .F. ) ;
#10 = ORIENTED_EDGE ( 'NONE', *, *, #7, .F. ) ;
#11 = ADVANCED_FACE ( 'NONE', ( #125 ), #119, .F. ) ;
#12 = EDGE_CURVE ( 'NONE', #61, #26, #115, .T. ) ;
#13 = ORIENTED_EDGE ( 'NONE', *, *, #12, .T. ) ;
#14 = ORIENTED_EDGE ( 'NONE', *, *, #148, .F. ) ;
#15 = ORIENTED_EDGE ( 'NONE', *, *, #136, .F. ) ;
#16 = ORIENTED_EDGE ( 'NONE', *, *, #17, .F. ) ;
#17 = EDGE_CURVE ( 'NONE', #85, #86, #110, .T. ) ;
#18 = ORIENTED_EDGE ( 'NONE', *, *, #139, .T. ) ;
#19 = ADVANCED_FACE ( 'NONE', ( #105 ), #104, .F. ) ;
#20 = EDGE_LOOP ( 'NONE', ( #21, #67, #43, #68, #84 ) ) ;
#21 = ORIENTED_EDGE ( 'NONE', *, *, #60, .F. ) ;
#22 = ORIENTED_EDGE ( 'NONE', *, *, #23, .F. ) ;
#23 = EDGE_CURVE ( 'NONE', #92, #95, #167, .T. ) ;
#24 = ORIENTED_EDGE ( 'NONE', *, *, #82, .T. ) ;
#25 = EDGE_LOOP ( 'NONE', ( #102, #89, #24, #100 ) ) ;
#26 = VERTEX_POINT ( 'NONE', #162 ) ;
#27 = ORIENTED_EDGE ( 'NONE', *, *, #28, .F. ) ;
#28 = EDGE_CURVE ( 'NONE', #29, #26, #161, .T. ) ;
#29 = VERTEX_POINT ( 'NONE', #157 ) ;
#30 = ORIENTED_EDGE ( 'NONE', *, *, #31, .T. ) ;
#31 = EDGE_CURVE ( 'NONE', #29, #55, #155, .T. ) ;
#32 = ADVANCED_FACE ( 'NONE', ( #156 ), #180, .T. ) ;
#33 = EDGE_LOOP ( 'NONE', ( #34, #90, #93, #79 ) ) ;
#34 = ORIENTED_EDGE ( 'NONE', *, *, #35, .T. ) ;
#35 = EDGE_CURVE ( 'NONE', #36, #37, #179, .T. ) ;
#36 = VERTEX_POINT ( 'NONE', #182 ) ;
#37 = VERTEX_POINT ( 'NONE', #214 ) ;
#38 = EDGE_LOOP ( 'NONE', ( #39, #40 ) ) ;
#39 = ORIENTED_EDGE ( 'NONE', *, *, #94, .T. ) ;
#40 = ORIENTED_EDGE ( 'NONE', *, *, #23, .T. ) ;
#41 = ORIENTED_EDGE ( 'NONE', *, *, #91, .F. ) ;
#42 = ORIENTED_EDGE ( 'NONE', *, *, #6, .T. ) ;
#43 = ORIENTED_EDGE ( 'NONE', *, *, #148, .T. ) ;
#44 = MANIFOLD_SOLID_BREP ( 'NONE', #51 ) ;
#45 = ADVANCED_FACE ( 'NONE', ( #181 ), #207, .F. ) ;
#46 = ORIENTED_EDGE ( 'NONE', *, *, #81, .F. ) ;
#47 = EDGE_CURVE ( 'NONE', #86, #85, #206, .T. ) ;
#48 = ADVANCED_FACE ( 'NONE', ( #188, #203 ), #213, .F. ) ;
#49 = ADVANCED_FACE ( 'NONE', ( #202 ), #201, .T. ) ;
#50 = ORIENTED_EDGE ( 'NONE', *, *, #99, .T. ) ;
#51 = CLOSED_SHELL ( 'NONE', ( #45, #52, #32, #78, #144, #140, #70, #11, #49, #48, #19, #83 ) ) ;
#52 = ADVANCED_FACE ( 'NONE', ( #218 ), #196, .F. ) ;
#53 = ORIENTED_EDGE ( 'NONE', *, *, #54, .T. ) ;
#54 = EDGE_CURVE ( 'NONE', #55, #58, #187, .T. ) ;
#55 = VERTEX_POINT ( 'NONE', #227 ) ;
#56 = VERTEX_POINT ( 'NONE', #228 ) ;
#57 = EDGE_LOOP ( 'NONE', ( #53, #59, #62, #27, #30 ) ) ;
#58 = VERTEX_POINT ( 'NONE', #226 ) ;
#59 = ORIENTED_EDGE ( 'NONE', *, *, #60, .T. ) ;
#60 = EDGE_CURVE ( 'NONE', #58, #61, #219, .T. ) ;
#61 = VERTEX_POINT ( 'NONE', #223 ) ;
#62 = ORIENTED_EDGE ( 'NONE', *, *, #63, .F. ) ;
#63 = EDGE_CURVE ( 'NONE', #26, #61, #232, .T. ) ;
#64 = EDGE_LOOP ( 'NONE', ( #65, #66 ) ) ;
#65 = ORIENTED_EDGE ( 'NONE', *, *, #7, .T. ) ;
#66 = ORIENTED_EDGE ( 'NONE', *, *, #74, .T. ) ;
#67 = ORIENTED_EDGE ( 'NONE', *, *, #146, .T. ) ;
#68 = ORIENTED_EDGE ( 'NONE', *, *, #28, .T. ) ;
#69 = EDGE_CURVE ( 'NONE', #98, #56, #236, .T. ) ;
#70 = ADVANCED_FACE ( 'NONE', ( #237 ), #419, .F. ) ;
#71 = EDGE_LOOP ( 'NONE', ( #15, #16, #18, #13 ) ) ;
#72 = VERTEX_POINT ( 'NONE', #384 ) ;
#73 = ORIENTED_EDGE ( 'NONE', *, *, #74, .F. ) ;
#74 = EDGE_CURVE ( 'NONE', #76, #72, #385, .T. ) ;
#75 = ORIENTED_EDGE ( 'NONE', *, *, #132, .T. ) ;
#76 = VERTEX_POINT ( 'NONE', #386 ) ;
#77 = EDGE_LOOP ( 'NONE', ( #73, #75, #131, #14, #149 ) ) ;
#78 = ADVANCED_FACE ( 'NONE', ( #379 ), #378, .F. ) ;
#79 = ORIENTED_EDGE ( 'NONE', *, *, #99, .F. ) ;
#80 = ORIENTED_EDGE ( 'NONE', *, *, #82, .F. ) ;
#81 = EDGE_CURVE ( 'NONE', #56, #98, #365, .T. ) ;
#82 = EDGE_CURVE ( 'NONE', #86, #56, #372, .T. ) ;
#83 = ADVANCED_FACE ( 'NONE', ( #394 ), #403, .F. ) ;
#84 = ORIENTED_EDGE ( 'NONE', *, *, #12, .F. ) ;
#85 = VERTEX_POINT ( 'NONE', #392 ) ;
#86 = VERTEX_POINT ( 'NONE', #398 ) ;
#87 = ORIENTED_EDGE ( 'NONE', *, *, #47, .T. ) ;
#88 = EDGE_LOOP ( 'NONE', ( #87, #96, #46, #80 ) ) ;
#89 = ORIENTED_EDGE ( 'NONE', *, *, #17, .T. ) ;
#90 = ORIENTED_EDGE ( 'NONE', *, *, #91, .T. ) ;
#91 = EDGE_CURVE ( 'NONE', #37, #92, #395, .T. ) ;
#92 = VERTEX_POINT ( 'NONE', #399 ) ;
#93 = ORIENTED_EDGE ( 'NONE', *, *, #94, .F. ) ;
#94 = EDGE_CURVE ( 'NONE', #95, #92, #373, .T. ) ;
#95 = VERTEX_POINT ( 'NONE', #409 ) ;
#96 = ORIENTED_EDGE ( 'NONE', *, *, #97, .T. ) ;
#97 = EDGE_CURVE ( 'NONE', #85, #98, #412, .T. ) ;
#98 = VERTEX_POINT ( 'NONE', #414 ) ;
#99 = EDGE_CURVE ( 'NONE', #36, #95, #405, .T. ) ;
#100 = ORIENTED_EDGE ( 'NONE', *, *, #69, .F. ) ;
#101 = EDGE_LOOP ( 'NONE', ( #41, #42, #50, #22 ) ) ;
#102 = ORIENTED_EDGE ( 'NONE', *, *, #97, .F. ) ;
#103 = ORIENTED_EDGE ( 'NONE', *, *, #54, .F. ) ;
#104 = CONICAL_SURFACE ( 'NONE', #171, 29.80699999999999900, 0.9080002089392065200 ) ;
#105 = FACE_OUTER_BOUND ( 'NONE', #20, .T. ) ;
#106 = DIRECTION ( 'NONE',  ( 1.000000000000000000, 0.0000000000000000000, 0.0000000000000000000 ) ) ;
#107 = DIRECTION ( 'NONE',  ( -0.0000000000000000000, -0.0000000000000000000, 1.000000000000000000 ) ) ;
#108 = CARTESIAN_POINT ( 'NONE',  ( 0.0000000000000000000, 0.0000000000000000000, -118.9591166237596700 ) ) ;
#109 = AXIS2_PLACEMENT_3D ( 'NONE', #108, #107, #106 ) ;
#110 = CIRCLE ( 'NONE', #109, 29.80700000000000600 ) ;
#111 = DIRECTION ( 'NONE',  ( 1.000000000000000000, 0.0000000000000000000, 0.0000000000000000000 ) ) ;
#112 = DIRECTION ( 'NONE',  ( -0.0000000000000000000, -0.0000000000000000000, 1.000000000000000000 ) ) ;
#113 = CARTESIAN_POINT ( 'NONE',  ( 0.0000000000000000000, 0.0000000000000000000, -95.15449999999999900 ) ) ;
#114 = AXIS2_PLACEMENT_3D ( 'NONE', #113, #112, #111 ) ;
#115 = CIRCLE ( 'NONE', #114, 29.80699999999999900 ) ;
#116 = DIRECTION ( 'NONE',  ( 0.0000000000000000000, 1.000000000000000000, 0.0000000000000000000 ) ) ;
#117 = DIRECTION ( 'NONE',  ( -0.0000000000000000000, 3.911744792584154300E-017, -1.000000000000000000 ) ) ;
#118 = AXIS2_PLACEMENT_3D ( 'NONE', #120, #117, #116 ) ;
#119 = CYLINDRICAL_SURFACE ( 'NONE', #118, 28.32799999999999900 ) ;
#120 = CARTESIAN_POINT ( 'NONE',  ( 0.0000000000000000000, 1.224646799147375100E-015, -120.0000000000001100 ) ) ;
#121 = DIRECTION ( 'NONE',  ( 0.0000000000000000000, 1.000000000000000000, 3.911744792584154300E-017 ) ) ;
#122 = DIRECTION ( 'NONE',  ( -0.0000000000000000000, 3.911744792584154300E-017, -1.000000000000000000 ) ) ;
#123 = AXIS2_PLACEMENT_3D ( 'NONE', #130, #122, #121 ) ;
#124 = CIRCLE ( 'NONE', #123, 28.32799999999998900 ) ;
#125 = FACE_OUTER_BOUND ( 'NONE', #4, .T. ) ;
#126 = DIRECTION ( 'NONE',  ( 1.000000000000000000, 0.0000000000000000000, 0.0000000000000000000 ) ) ;
#127 = DIRECTION ( 'NONE',  ( -0.0000000000000000000, -0.0000000000000000000, 1.000000000000000000 ) ) ;
#128 = CARTESIAN_POINT ( 'NONE',  ( 0.0000000000000000000, 0.0000000000000000000, -120.0000000000000000 ) ) ;
#129 = AXIS2_PLACEMENT_3D ( 'NONE', #128, #127, #126 ) ;
#130 = CARTESIAN_POINT ( 'NONE',  ( 0.0000000000000000000, -3.469446951953615000E-015, 0.0000000000000000000 ) ) ;
#131 = ORIENTED_EDGE ( 'NONE', *, *, #31, .F. ) ;
#132 = EDGE_CURVE ( 'NONE', #76, #55, #362, .T. ) ;
#133 = VERTEX_POINT ( 'NONE', #268 ) ;
#134 = ORIENTED_EDGE ( 'NONE', *, *, #47, .F. ) ;
#135 = ORIENTED_EDGE ( 'NONE', *, *, #136, .T. ) ;
#136 = EDGE_CURVE ( 'NONE', #86, #26, #267, .T. ) ;
#137 = ORIENTED_EDGE ( 'NONE', *, *, #63, .T. ) ;
#138 = ORIENTED_EDGE ( 'NONE', *, *, #139, .F. ) ;
#139 = EDGE_CURVE ( 'NONE', #85, #61, #263, .T. ) ;
#140 = ADVANCED_FACE ( 'NONE', ( #259, #258 ), #257, .F. ) ;
#141 = EDGE_LOOP ( 'NONE', ( #142, #5 ) ) ;
#142 = ORIENTED_EDGE ( 'NONE', *, *, #35, .F. ) ;
#143 = EDGE_CURVE ( 'NONE', #72, #133, #255, .T. ) ;
#144 = ADVANCED_FACE ( 'NONE', ( #248 ), #246, .F. ) ;
#145 = ORIENTED_EDGE ( 'NONE', *, *, #146, .F. ) ;
#146 = EDGE_CURVE ( 'NONE', #58, #133, #247, .T. ) ;
#147 = EDGE_LOOP ( 'NONE', ( #134, #135, #137, #138 ) ) ;
#148 = EDGE_CURVE ( 'NONE', #133, #29, #285, .T. ) ;
#149 = ORIENTED_EDGE ( 'NONE', *, *, #143, .F. ) ;
#150 = CIRCLE ( 'NONE', #129, 33.14999999999999900 ) ;
#151 = DIRECTION ( 'NONE',  ( 1.000000000000000000, 0.0000000000000000000, 0.0000000000000000000 ) ) ;
#152 = DIRECTION ( 'NONE',  ( -0.0000000000000000000, -0.0000000000000000000, 1.000000000000000000 ) ) ;
#153 = CARTESIAN_POINT ( 'NONE',  ( 0.0000000000000000000, 0.0000000000000000000, -94.00000000000000000 ) ) ;
#154 = AXIS2_PLACEMENT_3D ( 'NONE', #153, #152, #151 ) ;
#155 = CIRCLE ( 'NONE', #154, 28.32799999999998500 ) ;
#156 = FACE_OUTER_BOUND ( 'NONE', #33, .T. ) ;
#157 = CARTESIAN_POINT ( 'NONE',  ( -28.32799999999998500, 0.0000000000000000000, -94.00000000000000000 ) ) ;
#158 = DIRECTION ( 'NONE',  ( -0.7882747985675397900, 0.0000000000000000000, -0.6153233637229327300 ) ) ;
#159 = VECTOR ( 'NONE', #158, 1000.000000000000000 ) ;
#160 = CARTESIAN_POINT ( 'NONE',  ( -29.80699999999999900, 0.0000000000000000000, -95.15449999999999900 ) ) ;
#161 = LINE ( 'NONE', #160, #159 ) ;
#162 = CARTESIAN_POINT ( 'NONE',  ( -29.80699999999999900, 3.650184158838359400E-015, -95.15449999999999900 ) ) ;
#163 = DIRECTION ( 'NONE',  ( 1.000000000000000000, 0.0000000000000000000, 0.0000000000000000000 ) ) ;
#164 = DIRECTION ( 'NONE',  ( -0.0000000000000000000, -0.0000000000000000000, 1.000000000000000000 ) ) ;
#165 = CARTESIAN_POINT ( 'NONE',  ( 0.0000000000000000000, 0.0000000000000000000, 0.0000000000000000000 ) ) ;
#166 = AXIS2_PLACEMENT_3D ( 'NONE', #165, #164, #163 ) ;
#167 = CIRCLE ( 'NONE', #166, 33.14999999999999900 ) ;
#168 = DIRECTION ( 'NONE',  ( -1.000000000000000000, 0.0000000000000000000, 0.0000000000000000000 ) ) ;
#169 = DIRECTION ( 'NONE',  ( 0.0000000000000000000, 0.0000000000000000000, -1.000000000000000000 ) ) ;
#170 = CARTESIAN_POINT ( 'NONE',  ( 0.0000000000000000000, 0.0000000000000000000, -95.15449999999999900 ) ) ;
#171 = AXIS2_PLACEMENT_3D ( 'NONE', #170, #169, #168 ) ;
#172 = DIRECTION ( 'NONE',  ( -0.0000000000000000000, -0.0000000000000000000, 1.000000000000000000 ) ) ;
#173 = CARTESIAN_POINT ( 'NONE',  ( 0.0000000000000000000, 0.0000000000000000000, -120.0000000000000000 ) ) ;
#174 = AXIS2_PLACEMENT_3D ( 'NONE', #173, #172, #215 ) ;
#175 = DIRECTION ( 'NONE',  ( 1.000000000000000000, 0.0000000000000000000, 0.0000000000000000000 ) ) ;
#176 = DIRECTION ( 'NONE',  ( -0.0000000000000000000, -0.0000000000000000000, 1.000000000000000000 ) ) ;
#177 = CARTESIAN_POINT ( 'NONE',  ( 0.0000000000000000000, 0.0000000000000000000, -4.336808689942017700E-016 ) ) ;
#178 = AXIS2_PLACEMENT_3D ( 'NONE', #177, #176, #175 ) ;
#179 = CIRCLE ( 'NONE', #174, 33.14999999999999900 ) ;
#180 = CYLINDRICAL_SURFACE ( 'NONE', #178, 33.14999999999999900 ) ;
#181 = FACE_OUTER_BOUND ( 'NONE', #88, .T. ) ;
#182 = CARTESIAN_POINT ( 'NONE',  ( 33.14999999999999900, 0.0000000000000000000, -120.0000000000000000 ) ) ;
#183 = DIRECTION ( 'NONE',  ( 1.000000000000000000, 0.0000000000000000000, 0.0000000000000000000 ) ) ;
#184 = DIRECTION ( 'NONE',  ( -0.0000000000000000000, -0.0000000000000000000, 1.000000000000000000 ) ) ;
#185 = CARTESIAN_POINT ( 'NONE',  ( 0.0000000000000000000, 0.0000000000000000000, -94.00000000000000000 ) ) ;
#186 = AXIS2_PLACEMENT_3D ( 'NONE', #185, #184, #183 ) ;
#187 = CIRCLE ( 'NONE', #186, 28.32799999999998500 ) ;
#188 = FACE_BOUND ( 'NONE', #64, .T. ) ;
#189 = DIRECTION ( 'NONE',  ( -1.000000000000000000, 0.0000000000000000000, -0.0000000000000000000 ) ) ;
#190 = DIRECTION ( 'NONE',  ( 0.0000000000000000000, 0.0000000000000000000, -1.000000000000000000 ) ) ;
#191 = CARTESIAN_POINT ( 'NONE',  ( 0.0000000000000000000, 33.14999999999999900, -2.168404344971008900E-016 ) ) ;
#192 = AXIS2_PLACEMENT_3D ( 'NONE', #191, #190, #189 ) ;
#193 = DIRECTION ( 'NONE',  ( -1.000000000000000000, 0.0000000000000000000, 0.0000000000000000000 ) ) ;
#194 = DIRECTION ( 'NONE',  ( 0.0000000000000000000, 0.0000000000000000000, -1.000000000000000000 ) ) ;
#195 = AXIS2_PLACEMENT_3D ( 'NONE', #216, #194, #193 ) ;
#196 = CONICAL_SURFACE ( 'NONE', #195, 29.80699999999999900, 0.9080002089392065200 ) ;
#197 = DIRECTION ( 'NONE',  ( -0.0000000000000000000, -0.0000000000000000000, 1.000000000000000000 ) ) ;
#198 = CARTESIAN_POINT ( 'NONE',  ( 0.0000000000000000000, 0.0000000000000000000, -118.9591166237596700 ) ) ;
#199 = DIRECTION ( 'NONE',  ( -1.000000000000000000, 0.0000000000000000000, 0.0000000000000000000 ) ) ;
#200 = AXIS2_PLACEMENT_3D ( 'NONE', #209, #208, #199 ) ;
#201 = CYLINDRICAL_SURFACE ( 'NONE', #212, 33.14999999999999900 ) ;
#202 = FACE_OUTER_BOUND ( 'NONE', #101, .T. ) ;
#203 = FACE_OUTER_BOUND ( 'NONE', #38, .T. ) ;
#204 = DIRECTION ( 'NONE',  ( 1.000000000000000000, 0.0000000000000000000, 0.0000000000000000000 ) ) ;
#205 = AXIS2_PLACEMENT_3D ( 'NONE', #198, #197, #204 ) ;
#206 = CIRCLE ( 'NONE', #205, 29.80700000000000600 ) ;
#207 = CONICAL_SURFACE ( 'NONE', #200, 30.84788337624035000, 0.7853981633974582700 ) ;
#208 = DIRECTION ( 'NONE',  ( 0.0000000000000000000, 0.0000000000000000000, -1.000000000000000000 ) ) ;
#209 = CARTESIAN_POINT ( 'NONE',  ( 0.0000000000000000000, 0.0000000000000000000, -120.0000000000000000 ) ) ;
#210 = DIRECTION ( 'NONE',  ( -0.0000000000000000000, -0.0000000000000000000, 1.000000000000000000 ) ) ;
#211 = CARTESIAN_POINT ( 'NONE',  ( 0.0000000000000000000, 0.0000000000000000000, -4.336808689942017700E-016 ) ) ;
#212 = AXIS2_PLACEMENT_3D ( 'NONE', #211, #210, #217 ) ;
#213 = PLANE ( 'NONE',  #192 ) ;
#214 = CARTESIAN_POINT ( 'NONE',  ( -33.14999999999999900, 4.059570062921180100E-015, -120.0000000000000000 ) ) ;
#215 = DIRECTION ( 'NONE',  ( 1.000000000000000000, 0.0000000000000000000, 0.0000000000000000000 ) ) ;
#216 = CARTESIAN_POINT ( 'NONE',  ( 0.0000000000000000000, 0.0000000000000000000, -95.15449999999999900 ) ) ;
#217 = DIRECTION ( 'NONE',  ( 1.000000000000000000, 0.0000000000000000000, 0.0000000000000000000 ) ) ;
#218 = FACE_OUTER_BOUND ( 'NONE', #57, .T. ) ;
#219 = LINE ( 'NONE', #222, #221 ) ;
#220 = CARTESIAN_POINT ( 'NONE',  ( 0.0000000000000000000, 0.0000000000000000000, -95.15449999999999900 ) ) ;
#221 = VECTOR ( 'NONE', #224, 1000.000000000000000 ) ;
#222 = CARTESIAN_POINT ( 'NONE',  ( 29.80699999999999900, 3.650184158838359400E-015, -95.15449999999999900 ) ) ;
#223 = CARTESIAN_POINT ( 'NONE',  ( 29.80699999999999900, 0.0000000000000000000, -95.15449999999999900 ) ) ;
#224 = DIRECTION ( 'NONE',  ( 0.7882747985675397900, 9.653263268838637600E-017, -0.6153233637229327300 ) ) ;
#225 = CARTESIAN_POINT ( 'NONE',  ( 0.0000000000000000000, 0.0000000000000000000, -120.0000000000000000 ) ) ;
#226 = CARTESIAN_POINT ( 'NONE',  ( 28.32799999999998500, 3.559624518973194200E-015, -94.00000000000000000 ) ) ;
#227 = CARTESIAN_POINT ( 'NONE',  ( 3.469064879108029400E-015, -28.32799999999998500, -94.00000000000000000 ) ) ;
#228 = CARTESIAN_POINT ( 'NONE',  ( -30.84788337624035000, 0.0000000000000000000, -120.0000000000000000 ) ) ;
#229 = DIRECTION ( 'NONE',  ( 1.000000000000000000, 0.0000000000000000000, 0.0000000000000000000 ) ) ;
#230 = DIRECTION ( 'NONE',  ( -0.0000000000000000000, -0.0000000000000000000, 1.000000000000000000 ) ) ;
#231 = AXIS2_PLACEMENT_3D ( 'NONE', #220, #230, #229 ) ;
#232 = CIRCLE ( 'NONE', #231, 29.80699999999999900 ) ;
#233 = DIRECTION ( 'NONE',  ( 1.000000000000000000, 0.0000000000000000000, 0.0000000000000000000 ) ) ;
#234 = DIRECTION ( 'NONE',  ( -0.0000000000000000000, -0.0000000000000000000, 1.000000000000000000 ) ) ;
#235 = AXIS2_PLACEMENT_3D ( 'NONE', #225, #234, #233 ) ;
#236 = CIRCLE ( 'NONE', #235, 30.84788337624035000 ) ;
#237 = FACE_OUTER_BOUND ( 'NONE', #71, .T. ) ;
#238 = DIRECTION ( 'NONE',  ( 1.000000000000000000, 0.0000000000000000000, 0.0000000000000000000 ) ) ;
#239 = DIRECTION ( 'NONE',  ( -0.0000000000000000000, -0.0000000000000000000, 1.000000000000000000 ) ) ;
#240 = CARTESIAN_POINT ( 'NONE',  ( 0.0000000000000000000, 0.0000000000000000000, -94.00000000000000000 ) ) ;
#241 = AXIS2_PLACEMENT_3D ( 'NONE', #240, #239, #238 ) ;
#242 = DIRECTION ( 'NONE',  ( 1.000000000000000000, 0.0000000000000000000, 0.0000000000000000000 ) ) ;
#243 = DIRECTION ( 'NONE',  ( -0.0000000000000000000, -0.0000000000000000000, 1.000000000000000000 ) ) ;
#244 = CARTESIAN_POINT ( 'NONE',  ( 0.0000000000000000000, 0.0000000000000000000, -4.336808689942017700E-016 ) ) ;
#245 = AXIS2_PLACEMENT_3D ( 'NONE', #244, #243, #242 ) ;
#246 = CYLINDRICAL_SURFACE ( 'NONE', #245, 29.80699999999999900 ) ;
#247 = CIRCLE ( 'NONE', #241, 28.32799999999998500 ) ;
#248 = FACE_OUTER_BOUND ( 'NONE', #147, .T. ) ;
#249 = DIRECTION ( 'NONE',  ( -0.0000000000000000000, 3.911744792584154300E-017, -1.000000000000000000 ) ) ;
#250 = VECTOR ( 'NONE', #249, 1000.000000000000000 ) ;
#251 = CARTESIAN_POINT ( 'NONE',  ( 0.0000000000000000000, 28.32799999999999900, -120.0000000000001100 ) ) ;
#252 = DIRECTION ( 'NONE',  ( 1.000000000000000000, 0.0000000000000000000, 0.0000000000000000000 ) ) ;
#253 = DIRECTION ( 'NONE',  ( 0.0000000000000000000, -0.0000000000000000000, 1.000000000000000000 ) ) ;
#254 = AXIS2_PLACEMENT_3D ( 'NONE', #256, #253, #252 ) ;
#255 = LINE ( 'NONE', #251, #250 ) ;
#256 = CARTESIAN_POINT ( 'NONE',  ( 0.0000000000000000000, 33.14999999999999900, -120.0000000000000000 ) ) ;
#257 = PLANE ( 'NONE',  #254 ) ;
#258 = FACE_BOUND ( 'NONE', #1, .T. ) ;
#259 = FACE_OUTER_BOUND ( 'NONE', #141, .T. ) ;
#260 = DIRECTION ( 'NONE',  ( -0.0000000000000000000, -0.0000000000000000000, 1.000000000000000000 ) ) ;
#261 = VECTOR ( 'NONE', #260, 1000.000000000000000 ) ;
#262 = CARTESIAN_POINT ( 'NONE',  ( 29.80699999999999900, 0.0000000000000000000, -4.336808689942017700E-016 ) ) ;
#263 = LINE ( 'NONE', #262, #261 ) ;
#264 = DIRECTION ( 'NONE',  ( -0.0000000000000000000, -0.0000000000000000000, 1.000000000000000000 ) ) ;
#265 = VECTOR ( 'NONE', #264, 1000.000000000000000 ) ;
#266 = CARTESIAN_POINT ( 'NONE',  ( -29.80699999999999900, 3.650184158838359400E-015, -4.336808689942017700E-016 ) ) ;
#267 = LINE ( 'NONE', #266, #265 ) ;
#268 = CARTESIAN_POINT ( 'NONE',  ( 0.0000000000000000000, 28.32799999999998500, -94.00000000000000000 ) ) ;
#269 = DIRECTION ( 'NONE',  ( 0.0000000000000000000, 0.0000000000000000000, 1.000000000000000000 ) ) ;
#270 = SHAPE_DEFINITION_REPRESENTATION ( #360, #274 ) ;
#271 = DIRECTION ( 'NONE',  ( 1.000000000000000000, 0.0000000000000000000, 0.0000000000000000000 ) ) ;
#272 = CARTESIAN_POINT ( 'NONE',  ( 0.0000000000000000000, 0.0000000000000000000, 0.0000000000000000000 ) ) ;
#273 = APPLICATION_CONTEXT ( 'configuration controlled 3d designs of mechanical parts and assemblies' ) ;
#274 = ADVANCED_BREP_SHAPE_REPRESENTATION ( '19-0408-09_outokumpu', ( #44, #280 ), #275 ) ;
#275 =( GEOMETRIC_REPRESENTATION_CONTEXT ( 3 ) GLOBAL_UNCERTAINTY_ASSIGNED_CONTEXT ( ( #276 ) ) GLOBAL_UNIT_ASSIGNED_CONTEXT ( ( #279, #278, #277 ) ) REPRESENTATION_CONTEXT ( 'NONE', 'WORKASPACE' ) );
#276 = UNCERTAINTY_MEASURE_WITH_UNIT (LENGTH_MEASURE( 1.000000000000000100E-005 ), #279, 'distance_accuracy_value', 'NONE');
#277 =( NAMED_UNIT ( * ) SI_UNIT ( $, .STERADIAN. ) SOLID_ANGLE_UNIT ( ) );
#278 =( NAMED_UNIT ( * ) PLANE_ANGLE_UNIT ( ) SI_UNIT ( $, .RADIAN. ) );
#279 =( LENGTH_UNIT ( ) NAMED_UNIT ( * ) SI_UNIT ( .MILLI., .METRE. ) );
#280 = AXIS2_PLACEMENT_3D ( 'NONE', #272, #269, #271 ) ;
#281 = DIRECTION ( 'NONE',  ( 1.000000000000000000, 0.0000000000000000000, 0.0000000000000000000 ) ) ;
#282 = DIRECTION ( 'NONE',  ( -0.0000000000000000000, -0.0000000000000000000, 1.000000000000000000 ) ) ;
#283 = CARTESIAN_POINT ( 'NONE',  ( 0.0000000000000000000, 0.0000000000000000000, -94.00000000000000000 ) ) ;
#284 = AXIS2_PLACEMENT_3D ( 'NONE', #283, #282, #281 ) ;
#285 = CIRCLE ( 'NONE', #284, 28.32799999999998500 ) ;
#286 = CC_DESIGN_DATE_AND_TIME_ASSIGNMENT ( #288, #287, ( #306 ) ) ;
#287 = DATE_TIME_ROLE ( 'creation_date' ) ;
#288 = DATE_AND_TIME ( #289, #290 ) ;
#289 = CALENDAR_DATE ( 2015, 11, 8 ) ;
#290 = LOCAL_TIME ( 11, 44, 51.00000000000000000, #291 ) ;
#291 = COORDINATED_UNIVERSAL_TIME_OFFSET ( 1, 0, .AHEAD. ) ;
#292 = CC_DESIGN_PERSON_AND_ORGANIZATION_ASSIGNMENT ( #294, #293, ( #306 ) ) ;
#293 = PERSON_AND_ORGANIZATION_ROLE ( 'creator' ) ;
#294 = PERSON_AND_ORGANIZATION ( #314, #313 ) ;
#295 = CC_DESIGN_APPROVAL ( #303, ( #306 ) ) ;
#296 = APPROVAL_DATE_TIME ( #297, #303 ) ;
#297 = DATE_AND_TIME ( #298, #299 ) ;
#298 = CALENDAR_DATE ( 2015, 11, 8 ) ;
#299 = LOCAL_TIME ( 11, 44, 51.00000000000000000, #300 ) ;
#300 = COORDINATED_UNIVERSAL_TIME_OFFSET ( 1, 0, .AHEAD. ) ;
#301 = APPROVAL_PERSON_ORGANIZATION ( #305, #303, #302 ) ;
#302 = APPROVAL_ROLE ( '' ) ;
#303 = APPROVAL ( #304, 'UNSPECIFIED' ) ;
#304 = APPROVAL_STATUS ( 'not_yet_approved' ) ;
#305 = PERSON_AND_ORGANIZATION ( #314, #313 ) ;
#306 = PRODUCT_DEFINITION ( 'UNKNOWN', '', #359, #307 ) ;
#307 = DESIGN_CONTEXT ( 'detailed design', #309, 'design' ) ;
#308 = APPLICATION_PROTOCOL_DEFINITION ( 'international standard', 'config_control_design', 1994, #309 ) ;
#309 = APPLICATION_CONTEXT ( 'configuration controlled 3d designs of mechanical parts and assemblies' ) ;
#310 = CC_DESIGN_PERSON_AND_ORGANIZATION_ASSIGNMENT ( #312, #311, ( #315 ) ) ;
#311 = PERSON_AND_ORGANIZATION_ROLE ( 'design_owner' ) ;
#312 = PERSON_AND_ORGANIZATION ( #314, #313 ) ;
#313 = ORGANIZATION ( 'UNSPECIFIED', 'UNSPECIFIED', '' ) ;
#314 = PERSON ( 'UNSPECIFIED', 'UNSPECIFIED', 'UNSPECIFIED', ('UNSPECIFIED'), ('UNSPECIFIED'), ('UNSPECIFIED') ) ;
#315 = PRODUCT ( '19-0408-09_outokumpu', '19-0408-09_outokumpu', '', ( #316 ) ) ;
#316 = MECHANICAL_CONTEXT ( 'NONE', #273, 'mechanical' ) ;
#317 = APPLICATION_PROTOCOL_DEFINITION ( 'international standard', 'config_control_design', 1994, #273 ) ;
#318 = PRODUCT_RELATED_PRODUCT_CATEGORY ( 'detail', '', ( #315 ) ) ;
#319 = CC_DESIGN_SECURITY_CLASSIFICATION ( #340, ( #359 ) ) ;
#320 = CC_DESIGN_APPROVAL ( #328, ( #340 ) ) ;
#321 = APPROVAL_DATE_TIME ( #322, #328 ) ;
#322 = DATE_AND_TIME ( #323, #324 ) ;
#323 = CALENDAR_DATE ( 2015, 11, 8 ) ;
#324 = LOCAL_TIME ( 11, 44, 51.00000000000000000, #325 ) ;
#325 = COORDINATED_UNIVERSAL_TIME_OFFSET ( 1, 0, .AHEAD. ) ;
#326 = APPROVAL_PERSON_ORGANIZATION ( #330, #328, #327 ) ;
#327 = APPROVAL_ROLE ( '' ) ;
#328 = APPROVAL ( #329, 'UNSPECIFIED' ) ;
#329 = APPROVAL_STATUS ( 'not_yet_approved' ) ;
#330 = PERSON_AND_ORGANIZATION ( #314, #313 ) ;
#331 = CC_DESIGN_DATE_AND_TIME_ASSIGNMENT ( #333, #332, ( #340 ) ) ;
#332 = DATE_TIME_ROLE ( 'classification_date' ) ;
#333 = DATE_AND_TIME ( #334, #335 ) ;
#334 = CALENDAR_DATE ( 2015, 11, 8 ) ;
#335 = LOCAL_TIME ( 11, 44, 51.00000000000000000, #336 ) ;
#336 = COORDINATED_UNIVERSAL_TIME_OFFSET ( 1, 0, .AHEAD. ) ;
#337 = CC_DESIGN_PERSON_AND_ORGANIZATION_ASSIGNMENT ( #339, #338, ( #340 ) ) ;
#338 = PERSON_AND_ORGANIZATION_ROLE ( 'classification_officer' ) ;
#339 = PERSON_AND_ORGANIZATION ( #314, #313 ) ;
#340 = SECURITY_CLASSIFICATION ( '', '', #341 ) ;
#341 = SECURITY_CLASSIFICATION_LEVEL ( 'unclassified' ) ;
#342 = CC_DESIGN_PERSON_AND_ORGANIZATION_ASSIGNMENT ( #344, #343, ( #359 ) ) ;
#343 = PERSON_AND_ORGANIZATION_ROLE ( 'design_supplier' ) ;
#344 = PERSON_AND_ORGANIZATION ( #314, #313 ) ;
#345 = CC_DESIGN_PERSON_AND_ORGANIZATION_ASSIGNMENT ( #347, #346, ( #359 ) ) ;
#346 = PERSON_AND_ORGANIZATION_ROLE ( 'creator' ) ;
#347 = PERSON_AND_ORGANIZATION ( #314, #313 ) ;
#348 = CC_DESIGN_APPROVAL ( #356, ( #359 ) ) ;
#349 = APPROVAL_DATE_TIME ( #350, #356 ) ;
#350 = DATE_AND_TIME ( #351, #352 ) ;
#351 = CALENDAR_DATE ( 2015, 11, 8 ) ;
#352 = LOCAL_TIME ( 11, 44, 51.00000000000000000, #353 ) ;
#353 = COORDINATED_UNIVERSAL_TIME_OFFSET ( 1, 0, .AHEAD. ) ;
#354 = APPROVAL_PERSON_ORGANIZATION ( #358, #356, #355 ) ;
#355 = APPROVAL_ROLE ( '' ) ;
#356 = APPROVAL ( #357, 'UNSPECIFIED' ) ;
#357 = APPROVAL_STATUS ( 'not_yet_approved' ) ;
#358 = PERSON_AND_ORGANIZATION ( #314, #313 ) ;
#359 = PRODUCT_DEFINITION_FORMATION_WITH_SPECIFIED_SOURCE ( 'ANY', '', #315, .NOT_KNOWN. ) ;
#360 = PRODUCT_DEFINITION_SHAPE ( 'NONE', 'NONE',  #306 ) ;
#361 = DIRECTION ( 'NONE',  ( 1.000000000000000000, 0.0000000000000000000, 0.0000000000000000000 ) ) ;
#362 = LINE ( 'NONE', #364, #368 ) ;
#363 = DIRECTION ( 'NONE',  ( -0.0000000000000000000, -0.0000000000000000000, 1.000000000000000000 ) ) ;
#364 = CARTESIAN_POINT ( 'NONE',  ( 3.469064879108030200E-015, -28.32799999999999900, -120.0000000000001100 ) ) ;
#365 = CIRCLE ( 'NONE', #377, 30.84788337624035000 ) ;
#366 = CARTESIAN_POINT ( 'NONE',  ( 0.0000000000000000000, 0.0000000000000000000, 0.0000000000000000000 ) ) ;
#367 = AXIS2_PLACEMENT_3D ( 'NONE', #366, #363, #361 ) ;
#368 = VECTOR ( 'NONE', #387, 1000.000000000000000 ) ;
#369 = DIRECTION ( 'NONE',  ( -0.7071067811865545700, 0.0000000000000000000, -0.7071067811865404700 ) ) ;
#370 = VECTOR ( 'NONE', #369, 1000.000000000000000 ) ;
#371 = CARTESIAN_POINT ( 'NONE',  ( -30.84788337624035000, 0.0000000000000000000, -120.0000000000000000 ) ) ;
#372 = LINE ( 'NONE', #371, #370 ) ;
#373 = CIRCLE ( 'NONE', #367, 33.14999999999999900 ) ;
#374 = DIRECTION ( 'NONE',  ( 1.000000000000000000, 0.0000000000000000000, 0.0000000000000000000 ) ) ;
#375 = DIRECTION ( 'NONE',  ( -0.0000000000000000000, -0.0000000000000000000, 1.000000000000000000 ) ) ;
#376 = CARTESIAN_POINT ( 'NONE',  ( 0.0000000000000000000, 0.0000000000000000000, -120.0000000000000000 ) ) ;
#377 = AXIS2_PLACEMENT_3D ( 'NONE', #376, #375, #374 ) ;
#378 = CYLINDRICAL_SURFACE ( 'NONE', #391, 28.32799999999999900 ) ;
#379 = FACE_OUTER_BOUND ( 'NONE', #77, .T. ) ;
#380 = DIRECTION ( 'NONE',  ( 0.0000000000000000000, 1.000000000000000000, 3.911744792584154300E-017 ) ) ;
#381 = DIRECTION ( 'NONE',  ( -0.0000000000000000000, 3.911744792584154300E-017, -1.000000000000000000 ) ) ;
#382 = CARTESIAN_POINT ( 'NONE',  ( 0.0000000000000000000, -3.469446951953615000E-015, 0.0000000000000000000 ) ) ;
#383 = AXIS2_PLACEMENT_3D ( 'NONE', #382, #381, #380 ) ;
#384 = CARTESIAN_POINT ( 'NONE',  ( 0.0000000000000000000, 28.32799999999998500, 1.108119064843238900E-015 ) ) ;
#385 = CIRCLE ( 'NONE', #383, 28.32799999999998900 ) ;
#386 = CARTESIAN_POINT ( 'NONE',  ( 3.469064879108029800E-015, -28.32799999999999200, -1.108119064843238700E-015 ) ) ;
#387 = DIRECTION ( 'NONE',  ( -0.0000000000000000000, 3.911744792584154300E-017, -1.000000000000000000 ) ) ;
#388 = DIRECTION ( 'NONE',  ( 0.0000000000000000000, 1.000000000000000000, 0.0000000000000000000 ) ) ;
#389 = DIRECTION ( 'NONE',  ( -0.0000000000000000000, 3.911744792584154300E-017, -1.000000000000000000 ) ) ;
#390 = CARTESIAN_POINT ( 'NONE',  ( 0.0000000000000000000, 1.224646799147375100E-015, -120.0000000000001100 ) ) ;
#391 = AXIS2_PLACEMENT_3D ( 'NONE', #390, #389, #388 ) ;
#392 = CARTESIAN_POINT ( 'NONE',  ( 29.80700000000000600, 0.0000000000000000000, -118.9591166237596700 ) ) ;
#393 = DIRECTION ( 'NONE',  ( -1.000000000000000000, 0.0000000000000000000, 0.0000000000000000000 ) ) ;
#394 = FACE_OUTER_BOUND ( 'NONE', #25, .T. ) ;
#395 = LINE ( 'NONE', #402, #401 ) ;
#396 = DIRECTION ( 'NONE',  ( 0.0000000000000000000, 0.0000000000000000000, -1.000000000000000000 ) ) ;
#397 = CARTESIAN_POINT ( 'NONE',  ( 0.0000000000000000000, 0.0000000000000000000, -120.0000000000000000 ) ) ;
#398 = CARTESIAN_POINT ( 'NONE',  ( -29.80700000000000600, 3.650184158838360200E-015, -118.9591166237596700 ) ) ;
#399 = CARTESIAN_POINT ( 'NONE',  ( -33.14999999999999900, 4.059570062921180100E-015, 0.0000000000000000000 ) ) ;
#400 = DIRECTION ( 'NONE',  ( -0.0000000000000000000, -0.0000000000000000000, 1.000000000000000000 ) ) ;
#401 = VECTOR ( 'NONE', #400, 1000.000000000000000 ) ;
#402 = CARTESIAN_POINT ( 'NONE',  ( -33.14999999999999900, 4.059570062921180100E-015, -4.336808689942017700E-016 ) ) ;
#403 = CONICAL_SURFACE ( 'NONE', #404, 30.84788337624035000, 0.7853981633974582700 ) ;
#404 = AXIS2_PLACEMENT_3D ( 'NONE', #397, #396, #393 ) ;
#405 = LINE ( 'NONE', #408, #407 ) ;
#406 = DIRECTION ( 'NONE',  ( -0.0000000000000000000, -0.0000000000000000000, 1.000000000000000000 ) ) ;
#407 = VECTOR ( 'NONE', #406, 1000.000000000000000 ) ;
#408 = CARTESIAN_POINT ( 'NONE',  ( 33.14999999999999900, 0.0000000000000000000, -4.336808689942017700E-016 ) ) ;
#409 = CARTESIAN_POINT ( 'NONE',  ( 33.14999999999999900, 0.0000000000000000000, 0.0000000000000000000 ) ) ;
#410 = CARTESIAN_POINT ( 'NONE',  ( 30.84788337624035000, 3.777651398451562200E-015, -120.0000000000000000 ) ) ;
#411 = VECTOR ( 'NONE', #413, 1000.000000000000000 ) ;
#412 = LINE ( 'NONE', #410, #411 ) ;
#413 = DIRECTION ( 'NONE',  ( 0.7071067811865545700, 8.659274570719441700E-017, -0.7071067811865404700 ) ) ;
#414 = CARTESIAN_POINT ( 'NONE',  ( 30.84788337624035000, 3.777651398451562200E-015, -120.0000000000000000 ) ) ;
#415 = DIRECTION ( 'NONE',  ( 1.000000000000000000, 0.0000000000000000000, 0.0000000000000000000 ) ) ;
#416 = DIRECTION ( 'NONE',  ( -0.0000000000000000000, -0.0000000000000000000, 1.000000000000000000 ) ) ;
#417 = CARTESIAN_POINT ( 'NONE',  ( 0.0000000000000000000, 0.0000000000000000000, -4.336808689942017700E-016 ) ) ;
#418 = AXIS2_PLACEMENT_3D ( 'NONE', #417, #416, #415 ) ;
#419 = CYLINDRICAL_SURFACE ( 'NONE', #418, 29.80699999999999900 ) ;
ENDSEC;
END-ISO-10303-21;
