ISO-10303-21;
HEADER;
FILE_DESCRIPTION (( 'STEP AP203' ),
    '1' );
FILE_NAME ('3D_GR1244_42.4x2_188702224.STEP',
    '2024-10-14T11:28:06',
    ( '' ),
    ( '' ),
    'SwSTEP 2.0',
    'SolidWorks 2024',
    '' );
FILE_SCHEMA (( 'CONFIG_CONTROL_DESIGN' ));
ENDSEC;

DATA;
#1 = LOCAL_TIME ( 13, 28, 6.000000000000000000, #4 ) ;
#2 = PERSON_AND_ORGANIZATION ( #64, #54 ) ;
#3 = ORIENTED_EDGE ( 'NONE', *, *, #126, .F. ) ;
#4 = COORDINATED_UNIVERSAL_TIME_OFFSET ( 1, 0, .AHEAD. ) ;
#5 = COORDINATED_UNIVERSAL_TIME_OFFSET ( 1, 0, .AHEAD. ) ;
#6 = DATE_TIME_ROLE ( 'classification_date' ) ;
#7 = ORIENTED_EDGE ( 'NONE', *, *, #55, .T. ) ;
#8 = CARTESIAN_POINT ( 'NONE',  ( -4.930019138606880347, 16.67583341285297394, 0.000000000000000000 ) ) ;
#9 = CARTESIAN_POINT ( 'NONE',  ( -26.79703951146006347, 0.000000000000000000, 0.000000000000000000 ) ) ;
#10 = AXIS2_PLACEMENT_3D ( 'NONE', #8, #201, #99 ) ;
#11 = VERTEX_POINT ( 'NONE', #117 ) ;
#12 = PLANE ( 'NONE',  #47 ) ;
#13 = DIRECTION ( 'NONE',  ( -0.000000000000000000, -1.000000000000000000, -0.000000000000000000 ) ) ;
#14 = PRODUCT_RELATED_PRODUCT_CATEGORY ( 'detail', '', ( #204 ) ) ;
#15 =( LENGTH_UNIT ( ) NAMED_UNIT ( * ) SI_UNIT ( .MILLI., .METRE. ) );
#16 = APPROVAL ( #89, 'UNSPECIFIED' ) ;
#17 = CIRCLE ( 'NONE', #10, 27.50000000000000000 ) ;
#18 = MECHANICAL_CONTEXT ( 'NONE', #220, 'mechanical' ) ;
#19 = DATE_TIME_ROLE ( 'creation_date' ) ;
#20 = ORIENTED_EDGE ( 'NONE', *, *, #123, .F. ) ;
#21 = CIRCLE ( 'NONE', #188, 27.49999999999999645 ) ;
#22 = PERSON_AND_ORGANIZATION_ROLE ( 'design_supplier' ) ;
#23 = DATE_AND_TIME ( #70, #1 ) ;
#24 = PRODUCT_DEFINITION ( 'UNKNOWN', '', #107, #183 ) ;
#25 = SHAPE_DEFINITION_REPRESENTATION ( #103, #133 ) ;
#26 = ORIENTED_EDGE ( 'NONE', *, *, #131, .T. ) ;
#27 = DIRECTION ( 'NONE',  ( 0.000000000000000000, 1.000000000000000000, 0.000000000000000000 ) ) ;
#28 = DIRECTION ( 'NONE',  ( -0.000000000000000000, -1.000000000000000000, -0.000000000000000000 ) ) ;
#29 = ORIENTED_EDGE ( 'NONE', *, *, #165, .T. ) ;
#30 = LOCAL_TIME ( 13, 28, 6.000000000000000000, #144 ) ;
#31 = MANIFOLD_SOLID_BREP ( 'Rotation1', #193 ) ;
#32 = DIRECTION ( 'NONE',  ( -1.000000000000000000, 0.000000000000000000, 0.000000000000000000 ) ) ;
#33 = DIRECTION ( 'NONE',  ( 0.000000000000000000, 0.000000000000000000, -1.000000000000000000 ) ) ;
#34 = COORDINATED_UNIVERSAL_TIME_OFFSET ( 1, 0, .AHEAD. ) ;
#35 = CIRCLE ( 'NONE', #118, 21.20000000000000284 ) ;
#36 = DIRECTION ( 'NONE',  ( 1.000000000000000000, 0.000000000000000000, 0.000000000000000000 ) ) ;
#37 = CARTESIAN_POINT ( 'NONE',  ( -4.930019138606880347, 15.00000000000000000, 0.000000000000000000 ) ) ;
#38 = ADVANCED_FACE ( 'NONE', ( #203 ), #184, .F. ) ;
#39 = PERSON_AND_ORGANIZATION ( #64, #54 ) ;
#40 = ORIENTED_EDGE ( 'NONE', *, *, #213, .F. ) ;
#41 = APPROVAL_ROLE ( '' ) ;
#42 = APPROVAL_PERSON_ORGANIZATION ( #50, #95, #192 ) ;
#43 = ORIENTED_EDGE ( 'NONE', *, *, #165, .F. ) ;
#44 = CARTESIAN_POINT ( 'NONE',  ( -4.930019138606880347, 15.00000000000000000, -21.20000000000000284 ) ) ;
#45 = DIRECTION ( 'NONE',  ( 1.000000000000000000, 0.000000000000000000, 0.000000000000000000 ) ) ;
#46 = CARTESIAN_POINT ( 'NONE',  ( -4.930019138606880347, 15.00000000000000000, 0.000000000000000000 ) ) ;
#47 = AXIS2_PLACEMENT_3D ( 'NONE', #112, #27, #59 ) ;
#48 = APPROVAL ( #214, 'UNSPECIFIED' ) ;
#49 = DIRECTION ( 'NONE',  ( -0.000000000000000000, -1.000000000000000000, -0.000000000000000000 ) ) ;
#50 = PERSON_AND_ORGANIZATION ( #64, #54 ) ;
#51 = AXIS2_PLACEMENT_3D ( 'NONE', #76, #187, #33 ) ;
#52 = PERSON_AND_ORGANIZATION ( #64, #54 ) ;
#53 = VERTEX_POINT ( 'NONE', #152 ) ;
#54 = ORGANIZATION ( 'UNSPECIFIED', 'UNSPECIFIED', '' ) ;
#55 = EDGE_CURVE ( 'NONE', #53, #162, #17, .T. ) ;
#56 = CALENDAR_DATE ( 2024, 14, 10 ) ;
#57 = APPROVAL_DATE_TIME ( #216, #48 ) ;
#58 = CIRCLE ( 'NONE', #149, 21.19999999999999929 ) ;
#59 = DIRECTION ( 'NONE',  ( 0.000000000000000000, -0.000000000000000000, 1.000000000000000000 ) ) ;
#60 = DIRECTION ( 'NONE',  ( -1.000000000000000000, 0.000000000000000000, 0.000000000000000000 ) ) ;
#61 = DIRECTION ( 'NONE',  ( -0.000000000000000000, -1.000000000000000000, -0.000000000000000000 ) ) ;
#62 = ADVANCED_FACE ( 'NONE', ( #226 ), #63, .T. ) ;
#63 = SPHERICAL_SURFACE ( 'NONE', #68, 27.49999999999999645 ) ;
#64 = PERSON ( 'UNSPECIFIED', 'UNSPECIFIED', 'UNSPECIFIED', ('UNSPECIFIED'), ('UNSPECIFIED'), ('UNSPECIFIED') ) ;
#65 = DIRECTION ( 'NONE',  ( -0.000000000000000000, -1.000000000000000000, -0.000000000000000000 ) ) ;
#66 = LOCAL_TIME ( 13, 28, 6.000000000000000000, #5 ) ;
#67 = DIRECTION ( 'NONE',  ( 0.000000000000000000, 0.000000000000000000, -1.000000000000000000 ) ) ;
#68 = AXIS2_PLACEMENT_3D ( 'NONE', #205, #116, #60 ) ;
#69 = PERSON_AND_ORGANIZATION_ROLE ( 'classification_officer' ) ;
#70 = CALENDAR_DATE ( 2024, 14, 10 ) ;
#71 = CIRCLE ( 'NONE', #222, 21.86702037285318667 ) ;
#72 = DATE_AND_TIME ( #172, #167 ) ;
#73 = CARTESIAN_POINT ( 'NONE',  ( -4.930019138606880347, 15.00000000000000000, -21.20000000000000284 ) ) ;
#74 = LOCAL_TIME ( 13, 28, 6.000000000000000000, #110 ) ;
#75 = DIRECTION ( 'NONE',  ( 0.000000000000000000, 0.000000000000000000, -1.000000000000000000 ) ) ;
#76 = CARTESIAN_POINT ( 'NONE',  ( -4.930019138606880347, 15.00000000000000000, 0.000000000000000000 ) ) ;
#77 = EDGE_CURVE ( 'NONE', #78, #97, #35, .T. ) ;
#78 = VERTEX_POINT ( 'NONE', #189 ) ;
#79 = AXIS2_PLACEMENT_3D ( 'NONE', #37, #194, #67 ) ;
#80 = CARTESIAN_POINT ( 'NONE',  ( -4.930019138606880347, 0.000000000000000000, 0.000000000000000000 ) ) ;
#81 = CARTESIAN_POINT ( 'NONE',  ( -4.930019138606880347, 0.000000000000000000, -21.19999999999999929 ) ) ;
#82 = CC_DESIGN_SECURITY_CLASSIFICATION ( #124, ( #107 ) ) ;
#83 = CARTESIAN_POINT ( 'NONE',  ( 0.000000000000000000, 0.000000000000000000, 0.000000000000000000 ) ) ;
#84 = DIRECTION ( 'NONE',  ( 0.000000000000000000, 0.000000000000000000, -1.000000000000000000 ) ) ;
#85 = CIRCLE ( 'NONE', #215, 21.86702037285318667 ) ;
#86 = PERSON_AND_ORGANIZATION ( #64, #54 ) ;
#87 = CC_DESIGN_DATE_AND_TIME_ASSIGNMENT ( #178, #6, ( #124 ) ) ;
#88 = DIRECTION ( 'NONE',  ( 0.000000000000000000, 0.000000000000000000, -1.000000000000000000 ) ) ;
#89 = APPROVAL_STATUS ( 'not_yet_approved' ) ;
#90 = SECURITY_CLASSIFICATION_LEVEL ( 'unclassified' ) ;
#91 = ORIENTED_EDGE ( 'NONE', *, *, #218, .T. ) ;
#92 = EDGE_LOOP ( 'NONE', ( #91, #140 ) ) ;
#93 = ORIENTED_EDGE ( 'NONE', *, *, #123, .T. ) ;
#94 = ORIENTED_EDGE ( 'NONE', *, *, #131, .F. ) ;
#95 = APPROVAL ( #120, 'UNSPECIFIED' ) ;
#96 = CARTESIAN_POINT ( 'NONE',  ( 16.93700123424630277, 0.000000000000000000, -2.677937650650461486E-15 ) ) ;
#97 = VERTEX_POINT ( 'NONE', #44 ) ;
#98 = VECTOR ( 'NONE', #156, 1000.000000000000000 ) ;
#99 = DIRECTION ( 'NONE',  ( -1.000000000000000000, 0.000000000000000000, 1.224646799147352961E-16 ) ) ;
#100 = ADVANCED_FACE ( 'NONE', ( #227 ), #102, .F. ) ;
#101 = FACE_BOUND ( 'NONE', #198, .T. ) ;
#102 = PLANE ( 'NONE',  #158 ) ;
#103 = PRODUCT_DEFINITION_SHAPE ( 'NONE', 'NONE',  #24 ) ;
#104 = CC_DESIGN_DATE_AND_TIME_ASSIGNMENT ( #196, #19, ( #24 ) ) ;
#105 = CC_DESIGN_APPROVAL ( #48, ( #124 ) ) ;
#106 = APPROVAL_DATE_TIME ( #72, #95 ) ;
#107 = PRODUCT_DEFINITION_FORMATION_WITH_SPECIFIED_SOURCE ( 'ANY', '', #204, .NOT_KNOWN. ) ;
#108 = APPROVAL_DATE_TIME ( #23, #16 ) ;
#109 = VERTEX_POINT ( 'NONE', #9 ) ;
#110 = COORDINATED_UNIVERSAL_TIME_OFFSET ( 1, 0, .AHEAD. ) ;
#111 = AXIS2_PLACEMENT_3D ( 'NONE', #83, #137, #36 ) ;
#112 = CARTESIAN_POINT ( 'NONE',  ( -26.79703951146006702, 4.084321822903638274E-17, 0.000000000000000000 ) ) ;
#113 = DIRECTION ( 'NONE',  ( -0.000000000000000000, 0.000000000000000000, 1.000000000000000000 ) ) ;
#114 = CARTESIAN_POINT ( 'NONE',  ( -26.13001913860688319, 15.00000000000000000, 0.000000000000000000 ) ) ;
#115 = AXIS2_PLACEMENT_3D ( 'NONE', #206, #225, #32 ) ;
#116 = DIRECTION ( 'NONE',  ( -0.000000000000000000, -0.000000000000000000, -1.000000000000000000 ) ) ;
#117 = CARTESIAN_POINT ( 'NONE',  ( -4.930019138606877682, 0.000000000000000000, 21.19999999999999929 ) ) ;
#118 = AXIS2_PLACEMENT_3D ( 'NONE', #46, #200, #191 ) ;
#119 = CYLINDRICAL_SURFACE ( 'NONE', #79, 21.20000000000000284 ) ;
#120 = APPROVAL_STATUS ( 'not_yet_approved' ) ;
#121 = CIRCLE ( 'NONE', #138, 21.20000000000000284 ) ;
#122 = ORIENTED_EDGE ( 'NONE', *, *, #135, .T. ) ;
#123 = EDGE_CURVE ( 'NONE', #53, #109, #21, .T. ) ;
#124 = SECURITY_CLASSIFICATION ( '', '', #90 ) ;
#125 = CARTESIAN_POINT ( 'NONE',  ( -4.930019138606880347, 0.000000000000000000, 0.000000000000000000 ) ) ;
#126 = EDGE_CURVE ( 'NONE', #181, #11, #58, .T. ) ;
#127 = CARTESIAN_POINT ( 'NONE',  ( -4.930019138606880347, 16.67583341285297394, 0.000000000000000000 ) ) ;
#128 = EDGE_LOOP ( 'NONE', ( #26, #219 ) ) ;
#129 = ORIENTED_EDGE ( 'NONE', *, *, #77, .F. ) ;
#130 = FACE_OUTER_BOUND ( 'NONE', #128, .T. ) ;
#131 = EDGE_CURVE ( 'NONE', #109, #162, #85, .T. ) ;
#132 = DIRECTION ( 'NONE',  ( 0.000000000000000000, 0.000000000000000000, -1.000000000000000000 ) ) ;
#133 = ADVANCED_BREP_SHAPE_REPRESENTATION ( '3D_GR1244_42.4x2_188702224', ( #31, #111 ), #182 ) ;
#134 = AXIS2_PLACEMENT_3D ( 'NONE', #175, #65, #88 ) ;
#135 = EDGE_CURVE ( 'NONE', #78, #11, #169, .T. ) ;
#136 =( NAMED_UNIT ( * ) PLANE_ANGLE_UNIT ( ) SI_UNIT ( $, .RADIAN. ) );
#137 = DIRECTION ( 'NONE',  ( 0.000000000000000000, 0.000000000000000000, 1.000000000000000000 ) ) ;
#138 = AXIS2_PLACEMENT_3D ( 'NONE', #173, #49, #132 ) ;
#139 = CALENDAR_DATE ( 2024, 14, 10 ) ;
#140 = ORIENTED_EDGE ( 'NONE', *, *, #77, .T. ) ;
#141 = PERSON_AND_ORGANIZATION ( #64, #54 ) ;
#142 = VECTOR ( 'NONE', #61, 1000.000000000000000 ) ;
#143 = ADVANCED_FACE ( 'NONE', ( #147 ), #168, .T. ) ;
#144 = COORDINATED_UNIVERSAL_TIME_OFFSET ( 1, 0, .AHEAD. ) ;
#145 = EDGE_LOOP ( 'NONE', ( #129, #122, #180, #43 ) ) ;
#146 = EDGE_LOOP ( 'NONE', ( #20, #7, #94 ) ) ;
#147 = FACE_OUTER_BOUND ( 'NONE', #146, .T. ) ;
#148 = ADVANCED_FACE ( 'NONE', ( #101, #130 ), #12, .F. ) ;
#149 = AXIS2_PLACEMENT_3D ( 'NONE', #125, #13, #151 ) ;
#150 = EDGE_LOOP ( 'NONE', ( #199, #93, #163 ) ) ;
#151 = DIRECTION ( 'NONE',  ( 0.000000000000000000, 0.000000000000000000, -1.000000000000000000 ) ) ;
#152 = CARTESIAN_POINT ( 'NONE',  ( -4.930019138606882123, 44.17583341285297394, 0.000000000000000000 ) ) ;
#153 = CC_DESIGN_PERSON_AND_ORGANIZATION_ASSIGNMENT ( #39, #22, ( #107 ) ) ;
#154 = CARTESIAN_POINT ( 'NONE',  ( -4.930019138606877682, 15.00000000000000000, 21.20000000000000284 ) ) ;
#155 = CIRCLE ( 'NONE', #134, 21.19999999999999929 ) ;
#156 = DIRECTION ( 'NONE',  ( -0.000000000000000000, -1.000000000000000000, -0.000000000000000000 ) ) ;
#157 = PERSON_AND_ORGANIZATION_ROLE ( 'creator' ) ;
#158 = AXIS2_PLACEMENT_3D ( 'NONE', #114, #170, #221 ) ;
#159 = EDGE_LOOP ( 'NONE', ( #223, #186, #29, #166 ) ) ;
#160 = PERSON_AND_ORGANIZATION ( #64, #54 ) ;
#161 = PERSON_AND_ORGANIZATION ( #64, #54 ) ;
#162 = VERTEX_POINT ( 'NONE', #96 ) ;
#163 = ORIENTED_EDGE ( 'NONE', *, *, #224, .F. ) ;
#164 = LINE ( 'NONE', #73, #98 ) ;
#165 = EDGE_CURVE ( 'NONE', #97, #181, #164, .T. ) ;
#166 = ORIENTED_EDGE ( 'NONE', *, *, #126, .T. ) ;
#167 = LOCAL_TIME ( 13, 28, 6.000000000000000000, #34 ) ;
#168 = SPHERICAL_SURFACE ( 'NONE', #115, 27.49999999999999645 ) ;
#169 = LINE ( 'NONE', #154, #142 ) ;
#170 = DIRECTION ( 'NONE',  ( 0.000000000000000000, 1.000000000000000000, 0.000000000000000000 ) ) ;
#171 = APPROVAL_PERSON_ORGANIZATION ( #141, #16, #41 ) ;
#172 = CALENDAR_DATE ( 2024, 14, 10 ) ;
#173 = CARTESIAN_POINT ( 'NONE',  ( -4.930019138606880347, 15.00000000000000000, 0.000000000000000000 ) ) ;
#174 = APPLICATION_CONTEXT ( 'configuration controlled 3d designs of mechanical parts and assemblies' ) ;
#175 = CARTESIAN_POINT ( 'NONE',  ( -4.930019138606880347, 0.000000000000000000, 0.000000000000000000 ) ) ;
#176 = CALENDAR_DATE ( 2024, 14, 10 ) ;
#177 = CC_DESIGN_APPROVAL ( #95, ( #24 ) ) ;
#178 = DATE_AND_TIME ( #139, #66 ) ;
#179 = PERSON_AND_ORGANIZATION_ROLE ( 'creator' ) ;
#180 = ORIENTED_EDGE ( 'NONE', *, *, #213, .T. ) ;
#181 = VERTEX_POINT ( 'NONE', #81 ) ;
#182 =( GEOMETRIC_REPRESENTATION_CONTEXT ( 3 ) GLOBAL_UNCERTAINTY_ASSIGNED_CONTEXT ( ( #217 ) ) GLOBAL_UNIT_ASSIGNED_CONTEXT ( ( #15, #136, #209 ) ) REPRESENTATION_CONTEXT ( 'NONE', 'WORKASPACE' ) );
#183 = DESIGN_CONTEXT ( 'detailed design', #174, 'design' ) ;
#184 = CYLINDRICAL_SURFACE ( 'NONE', #51, 21.20000000000000284 ) ;
#185 = CC_DESIGN_PERSON_AND_ORGANIZATION_ASSIGNMENT ( #161, #157, ( #107 ) ) ;
#186 = ORIENTED_EDGE ( 'NONE', *, *, #218, .F. ) ;
#187 = DIRECTION ( 'NONE',  ( -0.000000000000000000, -1.000000000000000000, -0.000000000000000000 ) ) ;
#188 = AXIS2_PLACEMENT_3D ( 'NONE', #127, #113, #45 ) ;
#189 = CARTESIAN_POINT ( 'NONE',  ( -4.930019138606877682, 15.00000000000000000, 21.20000000000000284 ) ) ;
#190 = ADVANCED_FACE ( 'NONE', ( #228 ), #119, .F. ) ;
#191 = DIRECTION ( 'NONE',  ( 0.000000000000000000, 0.000000000000000000, -1.000000000000000000 ) ) ;
#192 = APPROVAL_ROLE ( '' ) ;
#193 = CLOSED_SHELL ( 'NONE', ( #143, #38, #190, #148, #62, #100 ) ) ;
#194 = DIRECTION ( 'NONE',  ( -0.000000000000000000, -1.000000000000000000, -0.000000000000000000 ) ) ;
#195 = APPLICATION_PROTOCOL_DEFINITION ( 'international standard', 'config_control_design', 1994, #220 ) ;
#196 = DATE_AND_TIME ( #56, #74 ) ;
#197 = APPROVAL_PERSON_ORGANIZATION ( #160, #48, #212 ) ;
#198 = EDGE_LOOP ( 'NONE', ( #3, #40 ) ) ;
#199 = ORIENTED_EDGE ( 'NONE', *, *, #55, .F. ) ;
#200 = DIRECTION ( 'NONE',  ( -0.000000000000000000, -1.000000000000000000, -0.000000000000000000 ) ) ;
#201 = DIRECTION ( 'NONE',  ( -1.224646799147353207E-16, 0.000000000000000000, -1.000000000000000000 ) ) ;
#202 = CC_DESIGN_PERSON_AND_ORGANIZATION_ASSIGNMENT ( #2, #69, ( #124 ) ) ;
#203 = FACE_OUTER_BOUND ( 'NONE', #145, .T. ) ;
#204 = PRODUCT ( '3D_GR1244_42.4x2_188702224', '3D_GR1244_42.4x2_188702224', '', ( #18 ) ) ;
#205 = CARTESIAN_POINT ( 'NONE',  ( -4.930019138606880347, 16.67583341285297394, 0.000000000000000000 ) ) ;
#206 = CARTESIAN_POINT ( 'NONE',  ( -4.930019138606880347, 16.67583341285297394, 0.000000000000000000 ) ) ;
#207 = CARTESIAN_POINT ( 'NONE',  ( -4.930019138606880347, 0.000000000000000000, 0.000000000000000000 ) ) ;
#208 = CC_DESIGN_APPROVAL ( #16, ( #107 ) ) ;
#209 =( NAMED_UNIT ( * ) SI_UNIT ( $, .STERADIAN. ) SOLID_ANGLE_UNIT ( ) );
#210 = CC_DESIGN_PERSON_AND_ORGANIZATION_ASSIGNMENT ( #52, #179, ( #24 ) ) ;
#211 = APPLICATION_PROTOCOL_DEFINITION ( 'international standard', 'config_control_design', 1994, #174 ) ;
#212 = APPROVAL_ROLE ( '' ) ;
#213 = EDGE_CURVE ( 'NONE', #11, #181, #155, .T. ) ;
#214 = APPROVAL_STATUS ( 'not_yet_approved' ) ;
#215 = AXIS2_PLACEMENT_3D ( 'NONE', #80, #28, #75 ) ;
#216 = DATE_AND_TIME ( #176, #30 ) ;
#217 = UNCERTAINTY_MEASURE_WITH_UNIT (LENGTH_MEASURE( 1.000000000000000082E-05 ), #15, 'distance_accuracy_value', 'NONE');
#218 = EDGE_CURVE ( 'NONE', #97, #78, #121, .T. ) ;
#219 = ORIENTED_EDGE ( 'NONE', *, *, #224, .T. ) ;
#220 = APPLICATION_CONTEXT ( 'configuration controlled 3d designs of mechanical parts and assemblies' ) ;
#221 = DIRECTION ( 'NONE',  ( 0.000000000000000000, -0.000000000000000000, 1.000000000000000000 ) ) ;
#222 = AXIS2_PLACEMENT_3D ( 'NONE', #207, #231, #84 ) ;
#223 = ORIENTED_EDGE ( 'NONE', *, *, #135, .F. ) ;
#224 = EDGE_CURVE ( 'NONE', #162, #109, #71, .T. ) ;
#225 = DIRECTION ( 'NONE',  ( -0.000000000000000000, -0.000000000000000000, -1.000000000000000000 ) ) ;
#226 = FACE_OUTER_BOUND ( 'NONE', #150, .T. ) ;
#227 = FACE_OUTER_BOUND ( 'NONE', #92, .T. ) ;
#228 = FACE_OUTER_BOUND ( 'NONE', #159, .T. ) ;
#229 = CC_DESIGN_PERSON_AND_ORGANIZATION_ASSIGNMENT ( #86, #230, ( #204 ) ) ;
#230 = PERSON_AND_ORGANIZATION_ROLE ( 'design_owner' ) ;
#231 = DIRECTION ( 'NONE',  ( -0.000000000000000000, -1.000000000000000000, -0.000000000000000000 ) ) ;
ENDSEC;
END-ISO-10303-21;
