ISO-10303-21;
HEADER;
FILE_DESCRIPTION (( 'STEP AP203' ),
    '1' );
FILE_NAME ('3D_R1650_26.9x2_17353160.STEP',
    '2024-08-03T07:39:52',
    ( '' ),
    ( '' ),
    'SwSTEP 2.0',
    'SolidWorks 2024',
    '' );
FILE_SCHEMA (( 'CONFIG_CONTROL_DESIGN' ));
ENDSEC;

DATA;
#1 = ORIENTED_EDGE ( 'NONE', *, *, #141, .F. ) ;
#2 = AXIS2_PLACEMENT_3D ( 'NONE', #169, #83, #245 ) ;
#3 = FACE_OUTER_BOUND ( 'NONE', #178, .T. ) ;
#4 = DIRECTION ( 'NONE',  ( 0.000000000000000000, 0.000000000000000000, 1.000000000000000000 ) ) ;
#5 = ORIENTED_EDGE ( 'NONE', *, *, #135, .F. ) ;
#6 = AXIS2_PLACEMENT_3D ( 'NONE', #41, #214, #23 ) ;
#7 = ORIENTED_EDGE ( 'NONE', *, *, #40, .F. ) ;
#8 = DIRECTION ( 'NONE',  ( 0.7071067811865513475, 0.000000000000000000, 0.7071067811865436870 ) ) ;
#9 = APPROVAL_ROLE ( '' ) ;
#10 = APPLICATION_CONTEXT ( 'configuration controlled 3d designs of mechanical parts and assemblies' ) ;
#11 = APPROVAL_PERSON_ORGANIZATION ( #82, #112, #209 ) ;
#12 = APPROVAL_PERSON_ORGANIZATION ( #133, #92, #246 ) ;
#13 = AXIS2_PLACEMENT_3D ( 'NONE', #35, #192, #80 ) ;
#14 = DIRECTION ( 'NONE',  ( 0.7071067811865514585, 0.000000000000000000, 0.7071067811865436870 ) ) ;
#15 = VERTEX_POINT ( 'NONE', #24 ) ;
#16 = CARTESIAN_POINT ( 'NONE',  ( -28.49999999999999645, 0.000000000000000000, 3.164135620181695746E-15 ) ) ;
#17 = DIRECTION ( 'NONE',  ( 0.000000000000000000, 0.000000000000000000, 1.000000000000000000 ) ) ;
#18 = AXIS2_PLACEMENT_3D ( 'NONE', #145, #119, #21 ) ;
#19 = UNCERTAINTY_MEASURE_WITH_UNIT (LENGTH_MEASURE( 1.000000000000000082E-05 ), #38, 'distance_accuracy_value', 'NONE');
#20 = CALENDAR_DATE ( 2024, 3, 8 ) ;
#21 = DIRECTION ( 'NONE',  ( 0.7071067811865513475, 0.000000000000000000, 0.7071067811865436870 ) ) ;
#22 = DATE_AND_TIME ( #20, #104 ) ;
#23 = DIRECTION ( 'NONE',  ( 0.000000000000000000, 0.000000000000000000, 1.000000000000000000 ) ) ;
#24 = CARTESIAN_POINT ( 'NONE',  ( -17.04999999999999716, 0.000000000000000000, 1.892930256985891586E-15 ) ) ;
#25 = TOROIDAL_SURFACE ( 'NONE', #128, 28.49999999999999645, 13.44999999999999929 ) ;
#26 = APPROVAL_PERSON_ORGANIZATION ( #113, #154, #9 ) ;
#27 = CALENDAR_DATE ( 2024, 3, 8 ) ;
#28 = EDGE_LOOP ( 'NONE', ( #181, #222, #74, #108 ) ) ;
#29 = CARTESIAN_POINT ( 'NONE',  ( 0.000000000000000000, 0.000000000000000000, 0.000000000000000000 ) ) ;
#30 = SECURITY_CLASSIFICATION_LEVEL ( 'unclassified' ) ;
#31 = AXIS2_PLACEMENT_3D ( 'NONE', #68, #62, #184 ) ;
#32 = EDGE_CURVE ( 'NONE', #79, #96, #102, .T. ) ;
#33 = ORIENTED_EDGE ( 'NONE', *, *, #250, .F. ) ;
#34 = CARTESIAN_POINT ( 'NONE',  ( -28.49999999999999645, 0.000000000000000000, 3.164135620181695746E-15 ) ) ;
#35 = CARTESIAN_POINT ( 'NONE',  ( -28.49999999999999289, 0.000000000000000000, -5.204170427930421283E-15 ) ) ;
#36 = EDGE_CURVE ( 'NONE', #159, #166, #118, .T. ) ;
#37 = ORIENTED_EDGE ( 'NONE', *, *, #36, .T. ) ;
#38 =( LENGTH_UNIT ( ) NAMED_UNIT ( * ) SI_UNIT ( .MILLI., .METRE. ) );
#39 = DIRECTION ( 'NONE',  ( 0.000000000000000000, 0.000000000000000000, 1.000000000000000000 ) ) ;
#40 = EDGE_CURVE ( 'NONE', #79, #15, #226, .T. ) ;
#41 = CARTESIAN_POINT ( 'NONE',  ( 0.000000000000000000, 0.000000000000000000, 0.000000000000000000 ) ) ;
#42 = EDGE_LOOP ( 'NONE', ( #156, #217 ) ) ;
#43 = FACE_BOUND ( 'NONE', #231, .T. ) ;
#44 = APPROVAL_STATUS ( 'not_yet_approved' ) ;
#45 = DIRECTION ( 'NONE',  ( -0.7071067811865436870, 0.000000000000000000, 0.7071067811865513475 ) ) ;
#46 = ORIENTED_EDGE ( 'NONE', *, *, #172, .T. ) ;
#47 = DATE_AND_TIME ( #107, #199 ) ;
#48 = PRODUCT_RELATED_PRODUCT_CATEGORY ( 'detail', '', ( #161 ) ) ;
#49 =( GEOMETRIC_REPRESENTATION_CONTEXT ( 3 ) GLOBAL_UNCERTAINTY_ASSIGNED_CONTEXT ( ( #19 ) ) GLOBAL_UNIT_ASSIGNED_CONTEXT ( ( #38, #194, #216 ) ) REPRESENTATION_CONTEXT ( 'NONE', 'WORKASPACE' ) );
#50 = PRODUCT_DEFINITION_SHAPE ( 'NONE', 'NONE',  #219 ) ;
#51 = AXIS2_PLACEMENT_3D ( 'NONE', #186, #223, #69 ) ;
#52 = EDGE_LOOP ( 'NONE', ( #189, #125, #37, #53 ) ) ;
#53 = ORIENTED_EDGE ( 'NONE', *, *, #203, .F. ) ;
#54 = PERSON_AND_ORGANIZATION_ROLE ( 'design_owner' ) ;
#55 = CC_DESIGN_PERSON_AND_ORGANIZATION_ASSIGNMENT ( #84, #225, ( #58 ) ) ;
#56 = DIRECTION ( 'NONE',  ( -0.7071067811865436870, 0.000000000000000000, 0.7071067811865513475 ) ) ;
#57 = CIRCLE ( 'NONE', #215, 11.44999999999999929 ) ;
#58 = SECURITY_CLASSIFICATION ( '', '', #30 ) ;
#59 = APPLICATION_PROTOCOL_DEFINITION ( 'international standard', 'config_control_design', 1994, #10 ) ;
#60 = EDGE_LOOP ( 'NONE', ( #5, #191, #242, #7 ) ) ;
#61 = CC_DESIGN_PERSON_AND_ORGANIZATION_ASSIGNMENT ( #86, #64, ( #130 ) ) ;
#62 = DIRECTION ( 'NONE',  ( 0.000000000000000000, 1.000000000000000000, 0.000000000000000000 ) ) ;
#63 = FACE_OUTER_BOUND ( 'NONE', #94, .T. ) ;
#64 = PERSON_AND_ORGANIZATION_ROLE ( 'design_supplier' ) ;
#65 = CARTESIAN_POINT ( 'NONE',  ( -20.15254326381671035, 0.000000000000000000, -20.15254326381649363 ) ) ;
#66 = DIRECTION ( 'NONE',  ( 0.000000000000000000, 1.000000000000000000, 0.000000000000000000 ) ) ;
#67 = DATE_AND_TIME ( #27, #90 ) ;
#68 = CARTESIAN_POINT ( 'NONE',  ( 0.000000000000000000, -1.647149944853189991E-15, 0.000000000000000000 ) ) ;
#69 = DIRECTION ( 'NONE',  ( 1.000000000000000000, 0.000000000000000000, -1.110223024625156787E-16 ) ) ;
#70 = SHAPE_DEFINITION_REPRESENTATION ( #50, #72 ) ;
#71 = CC_DESIGN_DATE_AND_TIME_ASSIGNMENT ( #47, #123, ( #58 ) ) ;
#72 = ADVANCED_BREP_SHAPE_REPRESENTATION ( '3D_R1650_26.9x2_17353160', ( #205, #204 ), #49 ) ;
#73 = AXIS2_PLACEMENT_3D ( 'NONE', #244, #66, #103 ) ;
#74 = ORIENTED_EDGE ( 'NONE', *, *, #172, .F. ) ;
#75 = AXIS2_PLACEMENT_3D ( 'NONE', #218, #148, #220 ) ;
#76 = PERSON_AND_ORGANIZATION_ROLE ( 'creator' ) ;
#77 = ORIENTED_EDGE ( 'NONE', *, *, #203, .T. ) ;
#78 = DIRECTION ( 'NONE',  ( 1.000000000000000000, 0.000000000000000000, -1.110223024625156540E-16 ) ) ;
#79 = VERTEX_POINT ( 'NONE', #121 ) ;
#80 = DIRECTION ( 'NONE',  ( 1.000000000000000000, 0.000000000000000000, -1.110223024625156787E-16 ) ) ;
#81 = PLANE ( 'NONE',  #18 ) ;
#82 = PERSON_AND_ORGANIZATION ( #175, #230 ) ;
#83 = DIRECTION ( 'NONE',  ( -0.7071067811865436870, 0.000000000000000000, 0.7071067811865513475 ) ) ;
#84 = PERSON_AND_ORGANIZATION ( #175, #230 ) ;
#85 = CARTESIAN_POINT ( 'NONE',  ( 0.000000000000000000, -1.402220585023719497E-15, 0.000000000000000000 ) ) ;
#86 = PERSON_AND_ORGANIZATION ( #175, #230 ) ;
#87 = FACE_OUTER_BOUND ( 'NONE', #28, .T. ) ;
#88 = ADVANCED_FACE ( 'NONE', ( #87 ), #136, .T. ) ;
#89 = COORDINATED_UNIVERSAL_TIME_OFFSET ( 1, 0, .AHEAD. ) ;
#90 = LOCAL_TIME ( 9, 39, 52.00000000000000000, #243 ) ;
#91 = CIRCLE ( 'NONE', #13, 13.44999999999999929 ) ;
#92 = APPROVAL ( #127, 'UNSPECIFIED' ) ;
#93 = DIRECTION ( 'NONE',  ( 1.110223024625156540E-16, 0.000000000000000000, 1.000000000000000000 ) ) ;
#94 = EDGE_LOOP ( 'NONE', ( #162, #168, #129, #142 ) ) ;
#95 = CARTESIAN_POINT ( 'NONE',  ( -20.15254326381670680, 0.000000000000000000, -20.15254326381649719 ) ) ;
#96 = VERTEX_POINT ( 'NONE', #132 ) ;
#97 = APPROVAL_DATE_TIME ( #22, #112 ) ;
#98 = CARTESIAN_POINT ( 'NONE',  ( 0.000000000000000000, 0.000000000000000000, 0.000000000000000000 ) ) ;
#99 = CARTESIAN_POINT ( 'NONE',  ( -41.95000000000000284, 0.000000000000000000, -3.710920459809585421E-15 ) ) ;
#100 = EDGE_LOOP ( 'NONE', ( #46, #77 ) ) ;
#101 = ADVANCED_FACE ( 'NONE', ( #63 ), #182, .F. ) ;
#102 = CIRCLE ( 'NONE', #221, 11.44999999999999929 ) ;
#103 = DIRECTION ( 'NONE',  ( 0.000000000000000000, 0.000000000000000000, 1.000000000000000000 ) ) ;
#104 = LOCAL_TIME ( 9, 39, 52.00000000000000000, #195 ) ;
#105 = APPROVAL_DATE_TIME ( #67, #92 ) ;
#106 = ORIENTED_EDGE ( 'NONE', *, *, #229, .F. ) ;
#107 = CALENDAR_DATE ( 2024, 3, 8 ) ;
#108 = ORIENTED_EDGE ( 'NONE', *, *, #36, .F. ) ;
#109 = EDGE_CURVE ( 'NONE', #96, #177, #251, .T. ) ;
#110 = CLOSED_SHELL ( 'NONE', ( #124, #88, #224, #185, #146, #101 ) ) ;
#111 = CC_DESIGN_PERSON_AND_ORGANIZATION_ASSIGNMENT ( #198, #170, ( #130 ) ) ;
#112 = APPROVAL ( #116, 'UNSPECIFIED' ) ;
#113 = PERSON_AND_ORGANIZATION ( #175, #230 ) ;
#114 = AXIS2_PLACEMENT_3D ( 'NONE', #85, #240, #39 ) ;
#115 = CARTESIAN_POINT ( 'NONE',  ( 0.000000000000000000, 0.000000000000000000, 0.000000000000000000 ) ) ;
#116 = APPROVAL_STATUS ( 'not_yet_approved' ) ;
#117 = MECHANICAL_CONTEXT ( 'NONE', #10, 'mechanical' ) ;
#118 = CIRCLE ( 'NONE', #31, 15.04999999999999716 ) ;
#119 = DIRECTION ( 'NONE',  ( -0.7071067811865436870, 0.000000000000000000, 0.7071067811865513475 ) ) ;
#120 = PERSON_AND_ORGANIZATION ( #175, #230 ) ;
#121 = CARTESIAN_POINT ( 'NONE',  ( -12.05617061923069855, -1.402220585023719497E-15, -12.05617061923057065 ) ) ;
#122 = CARTESIAN_POINT ( 'NONE',  ( -39.95000000000000284, 0.000000000000000000, 4.435340983377500695E-15 ) ) ;
#123 = DATE_TIME_ROLE ( 'classification_date' ) ;
#124 = ADVANCED_FACE ( 'NONE', ( #147 ), #149, .F. ) ;
#125 = ORIENTED_EDGE ( 'NONE', *, *, #250, .T. ) ;
#126 = FACE_OUTER_BOUND ( 'NONE', #100, .T. ) ;
#127 = APPROVAL_STATUS ( 'not_yet_approved' ) ;
#128 = AXIS2_PLACEMENT_3D ( 'NONE', #115, #239, #17 ) ;
#129 = ORIENTED_EDGE ( 'NONE', *, *, #40, .T. ) ;
#130 = PRODUCT_DEFINITION_FORMATION_WITH_SPECIFIED_SOURCE ( 'ANY', '', #161, .NOT_KNOWN. ) ;
#131 = APPROVAL_DATE_TIME ( #167, #154 ) ;
#132 = CARTESIAN_POINT ( 'NONE',  ( -28.24891590840272926, 0.000000000000000000, -28.24891590840242372 ) ) ;
#133 = PERSON_AND_ORGANIZATION ( #175, #230 ) ;
#134 = AXIS2_PLACEMENT_3D ( 'NONE', #16, #93, #234 ) ;
#135 = EDGE_CURVE ( 'NONE', #96, #79, #57, .T. ) ;
#136 = TOROIDAL_SURFACE ( 'NONE', #73, 28.49999999999999645, 13.44999999999999929 ) ;
#137 = DATE_AND_TIME ( #233, #249 ) ;
#138 = AXIS2_PLACEMENT_3D ( 'NONE', #95, #56, #14 ) ;
#139 = APPLICATION_PROTOCOL_DEFINITION ( 'international standard', 'config_control_design', 1994, #176 ) ;
#140 = CC_DESIGN_APPROVAL ( #112, ( #219 ) ) ;
#141 = EDGE_CURVE ( 'NONE', #159, #212, #248, .T. ) ;
#142 = ORIENTED_EDGE ( 'NONE', *, *, #232, .T. ) ;
#143 = DIRECTION ( 'NONE',  ( 0.000000000000000000, 1.000000000000000000, 0.000000000000000000 ) ) ;
#144 = CIRCLE ( 'NONE', #51, 13.44999999999999929 ) ;
#145 = CARTESIAN_POINT ( 'NONE',  ( -20.15254326381670680, 0.000000000000000000, -20.15254326381649719 ) ) ;
#146 = ADVANCED_FACE ( 'NONE', ( #238, #3 ), #81, .F. ) ;
#147 = FACE_OUTER_BOUND ( 'NONE', #60, .T. ) ;
#148 = DIRECTION ( 'NONE',  ( 0.000000000000000000, 1.000000000000000000, 0.000000000000000000 ) ) ;
#149 = TOROIDAL_SURFACE ( 'NONE', #75, 28.49999999999999645, 11.44999999999999929 ) ;
#150 = DIRECTION ( 'NONE',  ( -0.7071067811865436870, 0.000000000000000000, 0.7071067811865513475 ) ) ;
#151 = COORDINATED_UNIVERSAL_TIME_OFFSET ( 1, 0, .AHEAD. ) ;
#152 = AXIS2_PLACEMENT_3D ( 'NONE', #29, #143, #183 ) ;
#153 = CC_DESIGN_SECURITY_CLASSIFICATION ( #58, ( #130 ) ) ;
#154 = APPROVAL ( #44, 'UNSPECIFIED' ) ;
#155 = CIRCLE ( 'NONE', #134, 11.45000000000000107 ) ;
#156 = ORIENTED_EDGE ( 'NONE', *, *, #32, .T. ) ;
#157 = COORDINATED_UNIVERSAL_TIME_OFFSET ( 1, 0, .AHEAD. ) ;
#158 = EDGE_CURVE ( 'NONE', #212, #210, #174, .T. ) ;
#159 = VERTEX_POINT ( 'NONE', #227 ) ;
#160 = DIRECTION ( 'NONE',  ( 1.110223024625156540E-16, 0.000000000000000000, 1.000000000000000000 ) ) ;
#161 = PRODUCT ( '3D_R1650_26.9x2_17353160', '3D_R1650_26.9x2_17353160', '', ( #117 ) ) ;
#162 = ORIENTED_EDGE ( 'NONE', *, *, #109, .F. ) ;
#163 = DIRECTION ( 'NONE',  ( 1.000000000000000000, 0.000000000000000000, -1.110223024625156787E-16 ) ) ;
#164 = CC_DESIGN_DATE_AND_TIME_ASSIGNMENT ( #137, #206, ( #219 ) ) ;
#165 = CARTESIAN_POINT ( 'NONE',  ( -20.15254326381671035, 0.000000000000000000, -20.15254326381649363 ) ) ;
#166 = VERTEX_POINT ( 'NONE', #247 ) ;
#167 = DATE_AND_TIME ( #202, #173 ) ;
#168 = ORIENTED_EDGE ( 'NONE', *, *, #32, .F. ) ;
#169 = CARTESIAN_POINT ( 'NONE',  ( -20.15254326381670680, 0.000000000000000000, -20.15254326381649719 ) ) ;
#170 = PERSON_AND_ORGANIZATION_ROLE ( 'creator' ) ;
#171 = AXIS2_PLACEMENT_3D ( 'NONE', #98, #180, #4 ) ;
#172 = EDGE_CURVE ( 'NONE', #166, #210, #144, .T. ) ;
#173 = LOCAL_TIME ( 9, 39, 52.00000000000000000, #151 ) ;
#174 = CIRCLE ( 'NONE', #171, 41.95000000000000284 ) ;
#175 = PERSON ( 'UNSPECIFIED', 'UNSPECIFIED', 'UNSPECIFIED', ('UNSPECIFIED'), ('UNSPECIFIED'), ('UNSPECIFIED') ) ;
#176 = APPLICATION_CONTEXT ( 'configuration controlled 3d designs of mechanical parts and assemblies' ) ;
#177 = VERTEX_POINT ( 'NONE', #122 ) ;
#178 = EDGE_LOOP ( 'NONE', ( #1, #33 ) ) ;
#179 = CARTESIAN_POINT ( 'NONE',  ( -29.66312947077582507, 0.000000000000000000, -29.66312947077551243 ) ) ;
#180 = DIRECTION ( 'NONE',  ( 0.000000000000000000, 1.000000000000000000, 0.000000000000000000 ) ) ;
#181 = ORIENTED_EDGE ( 'NONE', *, *, #141, .T. ) ;
#182 = TOROIDAL_SURFACE ( 'NONE', #6, 28.49999999999999645, 11.44999999999999929 ) ;
#183 = DIRECTION ( 'NONE',  ( 0.000000000000000000, 0.000000000000000000, 1.000000000000000000 ) ) ;
#184 = DIRECTION ( 'NONE',  ( 0.000000000000000000, 0.000000000000000000, 1.000000000000000000 ) ) ;
#185 = ADVANCED_FACE ( 'NONE', ( #43, #126 ), #197, .T. ) ;
#186 = CARTESIAN_POINT ( 'NONE',  ( -28.49999999999999289, 0.000000000000000000, -5.204170427930421283E-15 ) ) ;
#187 = CIRCLE ( 'NONE', #241, 11.45000000000000107 ) ;
#188 = DIRECTION ( 'NONE',  ( 1.110223024625156787E-16, 0.000000000000000000, 1.000000000000000000 ) ) ;
#189 = ORIENTED_EDGE ( 'NONE', *, *, #158, .F. ) ;
#190 = CC_DESIGN_PERSON_AND_ORGANIZATION_ASSIGNMENT ( #252, #76, ( #219 ) ) ;
#191 = ORIENTED_EDGE ( 'NONE', *, *, #109, .T. ) ;
#192 = DIRECTION ( 'NONE',  ( 1.110223024625156540E-16, 0.000000000000000000, 1.000000000000000000 ) ) ;
#193 = FACE_OUTER_BOUND ( 'NONE', #52, .T. ) ;
#194 =( NAMED_UNIT ( * ) PLANE_ANGLE_UNIT ( ) SI_UNIT ( $, .RADIAN. ) );
#195 = COORDINATED_UNIVERSAL_TIME_OFFSET ( 1, 0, .AHEAD. ) ;
#196 = ORIENTED_EDGE ( 'NONE', *, *, #232, .F. ) ;
#197 = PLANE ( 'NONE',  #235 ) ;
#198 = PERSON_AND_ORGANIZATION ( #175, #230 ) ;
#199 = LOCAL_TIME ( 9, 39, 52.00000000000000000, #89 ) ;
#200 = CC_DESIGN_PERSON_AND_ORGANIZATION_ASSIGNMENT ( #120, #54, ( #161 ) ) ;
#201 = DIRECTION ( 'NONE',  ( 0.7071067811865513475, 0.000000000000000000, 0.7071067811865436870 ) ) ;
#202 = CALENDAR_DATE ( 2024, 3, 8 ) ;
#203 = EDGE_CURVE ( 'NONE', #210, #166, #91, .T. ) ;
#204 = AXIS2_PLACEMENT_3D ( 'NONE', #253, #237, #211 ) ;
#205 = MANIFOLD_SOLID_BREP ( 'Wandung1', #110 ) ;
#206 = DATE_TIME_ROLE ( 'creation_date' ) ;
#207 = CIRCLE ( 'NONE', #138, 13.44999999999999929 ) ;
#208 = CC_DESIGN_APPROVAL ( #154, ( #130 ) ) ;
#209 = APPROVAL_ROLE ( '' ) ;
#210 = VERTEX_POINT ( 'NONE', #99 ) ;
#211 = DIRECTION ( 'NONE',  ( 1.000000000000000000, 0.000000000000000000, 0.000000000000000000 ) ) ;
#212 = VERTEX_POINT ( 'NONE', #179 ) ;
#213 = DESIGN_CONTEXT ( 'detailed design', #176, 'design' ) ;
#214 = DIRECTION ( 'NONE',  ( 0.000000000000000000, 1.000000000000000000, 0.000000000000000000 ) ) ;
#215 = AXIS2_PLACEMENT_3D ( 'NONE', #65, #45, #8 ) ;
#216 =( NAMED_UNIT ( * ) SI_UNIT ( $, .STERADIAN. ) SOLID_ANGLE_UNIT ( ) );
#217 = ORIENTED_EDGE ( 'NONE', *, *, #135, .T. ) ;
#218 = CARTESIAN_POINT ( 'NONE',  ( 0.000000000000000000, 0.000000000000000000, 0.000000000000000000 ) ) ;
#219 = PRODUCT_DEFINITION ( 'UNKNOWN', '', #130, #213 ) ;
#220 = DIRECTION ( 'NONE',  ( 0.000000000000000000, 0.000000000000000000, 1.000000000000000000 ) ) ;
#221 = AXIS2_PLACEMENT_3D ( 'NONE', #165, #150, #201 ) ;
#222 = ORIENTED_EDGE ( 'NONE', *, *, #158, .T. ) ;
#223 = DIRECTION ( 'NONE',  ( 1.110223024625156540E-16, 0.000000000000000000, 1.000000000000000000 ) ) ;
#224 = ADVANCED_FACE ( 'NONE', ( #193 ), #25, .T. ) ;
#225 = PERSON_AND_ORGANIZATION_ROLE ( 'classification_officer' ) ;
#226 = CIRCLE ( 'NONE', #114, 17.04999999999999716 ) ;
#227 = CARTESIAN_POINT ( 'NONE',  ( -10.64195705685759030, -1.647149944853189991E-15, -10.64195705685748727 ) ) ;
#228 = CARTESIAN_POINT ( 'NONE',  ( -28.49999999999999289, 0.000000000000000000, -5.204170427930421283E-15 ) ) ;
#229 = EDGE_CURVE ( 'NONE', #177, #15, #187, .T. ) ;
#230 = ORGANIZATION ( 'UNSPECIFIED', 'UNSPECIFIED', '' ) ;
#231 = EDGE_LOOP ( 'NONE', ( #196, #106 ) ) ;
#232 = EDGE_CURVE ( 'NONE', #15, #177, #155, .T. ) ;
#233 = CALENDAR_DATE ( 2024, 3, 8 ) ;
#234 = DIRECTION ( 'NONE',  ( 1.000000000000000000, 0.000000000000000000, -1.110223024625156540E-16 ) ) ;
#235 = AXIS2_PLACEMENT_3D ( 'NONE', #228, #188, #163 ) ;
#236 = CC_DESIGN_APPROVAL ( #92, ( #58 ) ) ;
#237 = DIRECTION ( 'NONE',  ( 0.000000000000000000, 0.000000000000000000, 1.000000000000000000 ) ) ;
#238 = FACE_BOUND ( 'NONE', #42, .T. ) ;
#239 = DIRECTION ( 'NONE',  ( 0.000000000000000000, 1.000000000000000000, 0.000000000000000000 ) ) ;
#240 = DIRECTION ( 'NONE',  ( 0.000000000000000000, 1.000000000000000000, 0.000000000000000000 ) ) ;
#241 = AXIS2_PLACEMENT_3D ( 'NONE', #34, #160, #78 ) ;
#242 = ORIENTED_EDGE ( 'NONE', *, *, #229, .T. ) ;
#243 = COORDINATED_UNIVERSAL_TIME_OFFSET ( 1, 0, .AHEAD. ) ;
#244 = CARTESIAN_POINT ( 'NONE',  ( 0.000000000000000000, 0.000000000000000000, 0.000000000000000000 ) ) ;
#245 = DIRECTION ( 'NONE',  ( 0.7071067811865514585, 0.000000000000000000, 0.7071067811865436870 ) ) ;
#246 = APPROVAL_ROLE ( '' ) ;
#247 = CARTESIAN_POINT ( 'NONE',  ( -15.04999999999999538, 0.000000000000000000, -6.697420396051257146E-15 ) ) ;
#248 = CIRCLE ( 'NONE', #2, 13.44999999999999929 ) ;
#249 = LOCAL_TIME ( 9, 39, 52.00000000000000000, #157 ) ;
#250 = EDGE_CURVE ( 'NONE', #212, #159, #207, .T. ) ;
#251 = CIRCLE ( 'NONE', #152, 39.95000000000000284 ) ;
#252 = PERSON_AND_ORGANIZATION ( #175, #230 ) ;
#253 = CARTESIAN_POINT ( 'NONE',  ( 0.000000000000000000, 0.000000000000000000, 0.000000000000000000 ) ) ;
ENDSEC;
END-ISO-10303-21;
