ISO-10303-21;
HEADER;
/****************************************************************
 * Generated by software with PDElib inside                    *
 * PDElib Version v51a, created Wed 07/06/2011                  *
 * ITI Transcendata (http://www.transcendata.com/)              *
 ****************************************************************/
FILE_DESCRIPTION((''),'2;1');
FILE_NAME('\\\\Dwgcad\\cad\\Projekte\\N0006_001 - Reduzierung konzentrisch\\N0006_001_001 - WW (2 Anschwei\S\_enden)\\N0006_001_001_001 - DW-BMT_Sonder\\N0006_001_001_001_Step\\RC_48,3x2-26,9x1,6_L90_V10.ipt.step','2013-11-10T19:43:10',(''),(''),'Autodesk Inventor 2012','Autodesk Inventor 2012','');
FILE_SCHEMA(('AUTOMOTIVE_DESIGN { 1 0 10303 214 1 1 1 1 }'));
ENDSEC;
DATA;
#5=APPLICATION_CONTEXT('automotive design');
#6=APPLICATION_PROTOCOL_DEFINITION('International Standard','automotive_design',2001,#5);
#7=PRODUCT_CONTEXT('',#5,'mechanical');
#8=PRODUCT('RC_48,3x2-26,9x1,6_L90_V10','RC_48,3x2-26,9x1,6_L90_V10',$,(#7));
#9=PRODUCT_RELATED_PRODUCT_CATEGORY('part',$,(#8));
#10=PRODUCT_DEFINITION_FORMATION('',$,#8);
#11=PRODUCT_DEFINITION_CONTEXT('part definition',#5,'design');
#12=PRODUCT_DEFINITION('',$,#10,#11);
#18=(NAMED_UNIT(*)PLANE_ANGLE_UNIT()SI_UNIT($,.RADIAN.));
#19=DIMENSIONAL_EXPONENTS(0.0,0.0,0.0,0.0,0.0,0.0,0.0);
#20=PLANE_ANGLE_MEASURE_WITH_UNIT(PLANE_ANGLE_MEASURE(0.0174532925),#18);
#24=(CONVERSION_BASED_UNIT('DEGREE',#20)NAMED_UNIT(#19)PLANE_ANGLE_UNIT());
#28=(NAMED_UNIT(*)SI_UNIT($,.STERADIAN.)SOLID_ANGLE_UNIT());
#32=(LENGTH_UNIT()NAMED_UNIT(*)SI_UNIT(.MILLI.,.METRE.));
#34=UNCERTAINTY_MEASURE_WITH_UNIT(LENGTH_MEASURE(0.01),#32,'DISTANCE_ACCURACY_VALUE','');
#36=(GEOMETRIC_REPRESENTATION_CONTEXT(3)GLOBAL_UNCERTAINTY_ASSIGNED_CONTEXT((#34))GLOBAL_UNIT_ASSIGNED_CONTEXT((#24,#28,#32))REPRESENTATION_CONTEXT('None','None'));
#37=AXIS2_PLACEMENT_3D('',#38,#39,#40);
#38=CARTESIAN_POINT('',(0.0,0.0,0.0));
#39=DIRECTION('',(0.0,0.0,1.0));
#40=DIRECTION('',(1.0,0.0,0.0));
#41=SHAPE_REPRESENTATION('',(#37),#36);
#42=PRODUCT_DEFINITION_SHAPE('','',#12);
#43=SHAPE_DEFINITION_REPRESENTATION(#42,#41);
#49=(NAMED_UNIT(*)PLANE_ANGLE_UNIT()SI_UNIT($,.RADIAN.));
#50=DIMENSIONAL_EXPONENTS(0.0,0.0,0.0,0.0,0.0,0.0,0.0);
#51=PLANE_ANGLE_MEASURE_WITH_UNIT(PLANE_ANGLE_MEASURE(0.0174532925),#49);
#55=(CONVERSION_BASED_UNIT('DEGREE',#51)NAMED_UNIT(#50)PLANE_ANGLE_UNIT());
#59=(NAMED_UNIT(*)SI_UNIT($,.STERADIAN.)SOLID_ANGLE_UNIT());
#63=(LENGTH_UNIT()NAMED_UNIT(*)SI_UNIT(.MILLI.,.METRE.));
#65=UNCERTAINTY_MEASURE_WITH_UNIT(LENGTH_MEASURE(0.000001),#63,'DISTANCE_ACCURACY_VALUE','');
#67=(GEOMETRIC_REPRESENTATION_CONTEXT(3)GLOBAL_UNCERTAINTY_ASSIGNED_CONTEXT((#65))GLOBAL_UNIT_ASSIGNED_CONTEXT((#55,#59,#63))REPRESENTATION_CONTEXT('','3D'));
#68=CARTESIAN_POINT('',(-1.540744E-033,23.149999999999995,0.0));
#69=DIRECTION('',(-1.0,0.0,0.0));
#70=DIRECTION('',(0.0,0.0,1.0));
#71=AXIS2_PLACEMENT_3D('',#68,#69,#70);
#72=PLANE('',#71);
#73=CARTESIAN_POINT('',(0.0,24.149999999999999,0.0));
#74=VERTEX_POINT('',#73);
#75=CARTESIAN_POINT('',(0.0,0.0,0.0));
#76=DIRECTION('',(1.0,0.0,0.0));
#77=DIRECTION('',(0.0,1.0,0.0));
#78=AXIS2_PLACEMENT_3D('',#75,#76,#77);
#79=CIRCLE('',#78,24.149999999999999);
#80=EDGE_CURVE('',#74,#74,#79,.T.);
#81=ORIENTED_EDGE('',*,*,#80,.F.);
#82=EDGE_LOOP('',(#81));
#83=FACE_OUTER_BOUND('',#82,.T.);
#84=CARTESIAN_POINT('',(-3.081488E-033,22.149999999999991,0.0));
#85=VERTEX_POINT('',#84);
#86=CARTESIAN_POINT('',(0.0,0.0,0.0));
#87=DIRECTION('',(1.0,0.0,0.0));
#88=DIRECTION('',(0.0,1.0,0.0));
#89=AXIS2_PLACEMENT_3D('',#86,#87,#88);
#90=CIRCLE('',#89,22.149999999999991);
#91=EDGE_CURVE('',#85,#85,#90,.T.);
#92=ORIENTED_EDGE('',*,*,#91,.T.);
#93=EDGE_LOOP('',(#92));
#94=FACE_BOUND('',#93,.T.);
#95=ADVANCED_FACE('',(#83,#94),#72,.T.);
#96=CARTESIAN_POINT('',(15.0,0.0,0.0));
#97=DIRECTION('',(1.0,0.0,0.0));
#98=DIRECTION('',(0.0,1.0,0.0));
#99=AXIS2_PLACEMENT_3D('',#96,#97,#98);
#100=CYLINDRICAL_SURFACE('',#99,24.149999999999999);
#101=CARTESIAN_POINT('',(30.0,24.149999999999999,0.0));
#102=VERTEX_POINT('',#101);
#103=CARTESIAN_POINT('',(30.0,0.0,0.0));
#104=DIRECTION('',(1.0,0.0,0.0));
#105=DIRECTION('',(0.0,1.0,0.0));
#106=AXIS2_PLACEMENT_3D('',#103,#104,#105);
#107=CIRCLE('',#106,24.149999999999999);
#108=EDGE_CURVE('',#102,#102,#107,.T.);
#109=ORIENTED_EDGE('',*,*,#108,.F.);
#110=EDGE_LOOP('',(#109));
#111=FACE_OUTER_BOUND('',#110,.T.);
#112=ORIENTED_EDGE('',*,*,#80,.T.);
#113=EDGE_LOOP('',(#112));
#114=FACE_BOUND('',#113,.T.);
#115=ADVANCED_FACE('',(#111,#114),#100,.T.);
#116=CARTESIAN_POINT('',(47.5,0.0,0.0));
#117=DIRECTION('',(-1.0,0.0,0.0));
#118=DIRECTION('',(0.0,1.0,0.0));
#119=AXIS2_PLACEMENT_3D('',#116,#117,#118);
#120=CONICAL_SURFACE('',#119,18.799999999999997,16.999140890753768);
#121=CARTESIAN_POINT('',(65.0,13.449999999999998,0.0));
#122=VERTEX_POINT('',#121);
#123=CARTESIAN_POINT('',(65.0,0.0,0.0));
#124=DIRECTION('',(1.0,0.0,0.0));
#125=DIRECTION('',(0.0,1.0,0.0));
#126=AXIS2_PLACEMENT_3D('',#123,#124,#125);
#127=CIRCLE('',#126,13.449999999999998);
#128=EDGE_CURVE('',#122,#122,#127,.T.);
#129=ORIENTED_EDGE('',*,*,#128,.F.);
#130=EDGE_LOOP('',(#129));
#131=FACE_OUTER_BOUND('',#130,.T.);
#132=ORIENTED_EDGE('',*,*,#108,.T.);
#133=EDGE_LOOP('',(#132));
#134=FACE_BOUND('',#133,.T.);
#135=ADVANCED_FACE('',(#131,#134),#120,.T.);
#136=CARTESIAN_POINT('',(77.5,0.0,0.0));
#137=DIRECTION('',(1.0,0.0,0.0));
#138=DIRECTION('',(0.0,1.0,0.0));
#139=AXIS2_PLACEMENT_3D('',#136,#137,#138);
#140=CYLINDRICAL_SURFACE('',#139,13.449999999999998);
#141=CARTESIAN_POINT('',(90.0,13.449999999999999,0.0));
#142=VERTEX_POINT('',#141);
#143=CARTESIAN_POINT('',(90.0,0.0,0.0));
#144=DIRECTION('',(1.0,0.0,0.0));
#145=DIRECTION('',(0.0,1.0,0.0));
#146=AXIS2_PLACEMENT_3D('',#143,#144,#145);
#147=CIRCLE('',#146,13.449999999999999);
#148=EDGE_CURVE('',#142,#142,#147,.T.);
#149=ORIENTED_EDGE('',*,*,#148,.F.);
#150=EDGE_LOOP('',(#149));
#151=FACE_OUTER_BOUND('',#150,.T.);
#152=ORIENTED_EDGE('',*,*,#128,.T.);
#153=EDGE_LOOP('',(#152));
#154=FACE_BOUND('',#153,.T.);
#155=ADVANCED_FACE('',(#151,#154),#140,.T.);
#156=CARTESIAN_POINT('',(90.0,12.650000000000002,0.0));
#157=DIRECTION('',(1.0,0.0,0.0));
#158=DIRECTION('',(0.0,0.0,-1.0));
#159=AXIS2_PLACEMENT_3D('',#156,#157,#158);
#160=PLANE('',#159);
#161=ORIENTED_EDGE('',*,*,#148,.T.);
#162=EDGE_LOOP('',(#161));
#163=FACE_OUTER_BOUND('',#162,.T.);
#164=CARTESIAN_POINT('',(90.0,11.850000000000003,0.0));
#165=VERTEX_POINT('',#164);
#166=CARTESIAN_POINT('',(90.0,0.0,0.0));
#167=DIRECTION('',(1.0,0.0,0.0));
#168=DIRECTION('',(0.0,1.0,0.0));
#169=AXIS2_PLACEMENT_3D('',#166,#167,#168);
#170=CIRCLE('',#169,11.850000000000003);
#171=EDGE_CURVE('',#165,#165,#170,.T.);
#172=ORIENTED_EDGE('',*,*,#171,.F.);
#173=EDGE_LOOP('',(#172));
#174=FACE_BOUND('',#173,.T.);
#175=ADVANCED_FACE('',(#163,#174),#160,.T.);
#176=CARTESIAN_POINT('',(76.5,0.0,0.0));
#177=DIRECTION('',(1.0,0.0,0.0));
#178=DIRECTION('',(0.0,1.0,0.0));
#179=AXIS2_PLACEMENT_3D('',#176,#177,#178);
#180=CYLINDRICAL_SURFACE('',#179,11.850000000000001);
#181=CARTESIAN_POINT('',(63.0,11.849999999999996,0.0));
#182=VERTEX_POINT('',#181);
#183=CARTESIAN_POINT('',(62.999999999999986,0.0,0.0));
#184=DIRECTION('',(1.0,0.0,0.0));
#185=DIRECTION('',(0.0,1.0,0.0));
#186=AXIS2_PLACEMENT_3D('',#183,#184,#185);
#187=CIRCLE('',#186,11.849999999999996);
#188=EDGE_CURVE('',#182,#182,#187,.T.);
#189=ORIENTED_EDGE('',*,*,#188,.F.);
#190=EDGE_LOOP('',(#189));
#191=FACE_OUTER_BOUND('',#190,.T.);
#192=ORIENTED_EDGE('',*,*,#171,.T.);
#193=EDGE_LOOP('',(#192));
#194=FACE_BOUND('',#193,.T.);
#195=ADVANCED_FACE('',(#191,#194),#180,.F.);
#196=CARTESIAN_POINT('',(36.5,0.0,0.0));
#197=DIRECTION('',(-1.0,0.0,0.0));
#198=DIRECTION('',(0.0,1.0,0.0));
#199=AXIS2_PLACEMENT_3D('',#196,#197,#198);
#200=CONICAL_SURFACE('',#199,16.999999999999996,10.997753691573939);
#201=CARTESIAN_POINT('',(9.999999999999998,22.149999999999999,0.0));
#202=VERTEX_POINT('',#201);
#203=CARTESIAN_POINT('',(9.999999999999998,0.0,0.0));
#204=DIRECTION('',(1.0,0.0,0.0));
#205=DIRECTION('',(0.0,1.0,0.0));
#206=AXIS2_PLACEMENT_3D('',#203,#204,#205);
#207=CIRCLE('',#206,22.149999999999999);
#208=EDGE_CURVE('',#202,#202,#207,.T.);
#209=ORIENTED_EDGE('',*,*,#208,.F.);
#210=EDGE_LOOP('',(#209));
#211=FACE_OUTER_BOUND('',#210,.T.);
#212=ORIENTED_EDGE('',*,*,#188,.T.);
#213=EDGE_LOOP('',(#212));
#214=FACE_BOUND('',#213,.T.);
#215=ADVANCED_FACE('',(#211,#214),#200,.F.);
#216=CARTESIAN_POINT('',(4.999999999999999,0.0,0.0));
#217=DIRECTION('',(1.0,0.0,0.0));
#218=DIRECTION('',(0.0,1.0,0.0));
#219=AXIS2_PLACEMENT_3D('',#216,#217,#218);
#220=CYLINDRICAL_SURFACE('',#219,22.149999999999995);
#221=ORIENTED_EDGE('',*,*,#91,.F.);
#222=EDGE_LOOP('',(#221));
#223=FACE_OUTER_BOUND('',#222,.T.);
#224=ORIENTED_EDGE('',*,*,#208,.T.);
#225=EDGE_LOOP('',(#224));
#226=FACE_BOUND('',#225,.T.);
#227=ADVANCED_FACE('',(#223,#226),#220,.F.);
#228=CLOSED_SHELL('',(#95,#115,#135,#155,#175,#195,#215,#227));
#229=MANIFOLD_SOLID_BREP('Volumenk\S\vrper1',#228);
#230=COLOUR_RGB('',0.639216005802155,0.639216005802155,0.686275005340576);
#231=FILL_AREA_STYLE_COLOUR('',#230);
#232=FILL_AREA_STYLE('',(#231));
#233=SURFACE_STYLE_FILL_AREA(#232);
#234=SURFACE_SIDE_STYLE('',(#233));
#235=SURFACE_STYLE_USAGE(.BOTH.,#234);
#236=PRESENTATION_STYLE_ASSIGNMENT((#235));
#237=STYLED_ITEM('',(#236),#95);
#238=STYLED_ITEM('',(#236),#115);
#239=STYLED_ITEM('',(#236),#135);
#240=STYLED_ITEM('',(#236),#155);
#241=STYLED_ITEM('',(#236),#175);
#242=STYLED_ITEM('',(#236),#195);
#243=STYLED_ITEM('',(#236),#215);
#244=STYLED_ITEM('',(#236),#227);
#245=MECHANICAL_DESIGN_GEOMETRIC_PRESENTATION_REPRESENTATION('',(#237,#238,#239,#240,#241,#242,#243,#244,#253),#67);
#246=COLOUR_RGB('Metall - Stahl',0.639216005802155,0.639216005802155,0.686275005340576);
#247=FILL_AREA_STYLE_COLOUR('Metall - Stahl',#246);
#248=FILL_AREA_STYLE('Metall - Stahl',(#247));
#249=SURFACE_STYLE_FILL_AREA(#248);
#250=SURFACE_SIDE_STYLE('Metall - Stahl',(#249));
#251=SURFACE_STYLE_USAGE(.BOTH.,#250);
#252=PRESENTATION_STYLE_ASSIGNMENT((#251));
#253=STYLED_ITEM('',(#252),#229);
#254=ADVANCED_BREP_SHAPE_REPRESENTATION('ABSR',(#229),#36);
#255=SHAPE_REPRESENTATION_RELATIONSHIP('SRR','None',#254,#41);
ENDSEC;
END-ISO-10303-21;
