ISO-10303-21;
HEADER;
FILE_DESCRIPTION (( 'STEP AP203' ),
    '1' );
FILE_NAME ('3D_GB3092_100_188706900.STEP',
    '2024-10-17T11:49:29',
    ( '' ),
    ( '' ),
    'SwSTEP 2.0',
    'SolidWorks 2024',
    '' );
FILE_SCHEMA (( 'CONFIG_CONTROL_DESIGN' ));
ENDSEC;

DATA;
#1 = ADVANCED_FACE ( 'NONE', ( #366, #117, #27, #212 ), #334, .T. ) ;
#2 = CIRCLE ( 'NONE', #77, 5.499999999999998224 ) ;
#3 = CARTESIAN_POINT ( 'NONE',  ( 0.000000000000000000, 0.000000000000000000, -32.00000000000000711 ) ) ;
#4 = DIRECTION ( 'NONE',  ( 0.000000000000000000, 1.000000000000000000, 0.000000000000000000 ) ) ;
#5 = CARTESIAN_POINT ( 'NONE',  ( 0.000000000000000000, 8.000000000000000000, 0.000000000000000000 ) ) ;
#6 = CYLINDRICAL_SURFACE ( 'NONE', #108, 5.499999999999994671 ) ;
#7 = EDGE_CURVE ( 'NONE', #287, #88, #44, .T. ) ;
#8 = APPLICATION_CONTEXT ( 'configuration controlled 3d designs of mechanical parts and assemblies' ) ;
#9 = DIRECTION ( 'NONE',  ( 0.000000000000000000, 0.000000000000000000, 1.000000000000000000 ) ) ;
#10 = VERTEX_POINT ( 'NONE', #29 ) ;
#11 = CIRCLE ( 'NONE', #113, 50.00000000000000000 ) ;
#12 = APPROVAL_STATUS ( 'not_yet_approved' ) ;
#13 = ORIENTED_EDGE ( 'NONE', *, *, #79, .T. ) ;
#14 = EDGE_CURVE ( 'NONE', #387, #50, #82, .T. ) ;
#15 = DIRECTION ( 'NONE',  ( 0.000000000000000000, 1.000000000000000000, 0.000000000000000000 ) ) ;
#16 = VECTOR ( 'NONE', #34, 1000.000000000000000 ) ;
#17 = ORIENTED_EDGE ( 'NONE', *, *, #104, .F. ) ;
#18 =( GEOMETRIC_REPRESENTATION_CONTEXT ( 3 ) GLOBAL_UNCERTAINTY_ASSIGNED_CONTEXT ( ( #23 ) ) GLOBAL_UNIT_ASSIGNED_CONTEXT ( ( #164, #351, #284 ) ) REPRESENTATION_CONTEXT ( 'NONE', 'WORKASPACE' ) );
#19 = DIRECTION ( 'NONE',  ( 0.000000000000000000, 1.000000000000000000, 0.000000000000000000 ) ) ;
#20 = ORIENTED_EDGE ( 'NONE', *, *, #185, .T. ) ;
#21 = DIRECTION ( 'NONE',  ( 0.000000000000000000, 0.000000000000000000, 1.000000000000000000 ) ) ;
#22 = ORIENTED_EDGE ( 'NONE', *, *, #42, .F. ) ;
#23 = UNCERTAINTY_MEASURE_WITH_UNIT (LENGTH_MEASURE( 1.000000000000000082E-05 ), #164, 'distance_accuracy_value', 'NONE');
#24 = APPROVAL_ROLE ( '' ) ;
#25 = CYLINDRICAL_SURFACE ( 'NONE', #369, 5.499999999999994671 ) ;
#26 = CIRCLE ( 'NONE', #250, 5.499999999999998224 ) ;
#27 = FACE_BOUND ( 'NONE', #52, .T. ) ;
#28 = PERSON_AND_ORGANIZATION_ROLE ( 'classification_officer' ) ;
#29 = CARTESIAN_POINT ( 'NONE',  ( 0.000000000000000000, 8.000000000000000000, -50.00000000000000000 ) ) ;
#30 = EDGE_CURVE ( 'NONE', #10, #385, #56, .T. ) ;
#31 = CC_DESIGN_PERSON_AND_ORGANIZATION_ASSIGNMENT ( #300, #242, ( #314 ) ) ;
#32 = ORIENTED_EDGE ( 'NONE', *, *, #272, .T. ) ;
#33 = ORIENTED_EDGE ( 'NONE', *, *, #243, .T. ) ;
#34 = DIRECTION ( 'NONE',  ( -0.000000000000000000, 1.000000000000000000, -0.000000000000000000 ) ) ;
#35 = CARTESIAN_POINT ( 'NONE',  ( -32.47595264191662778, 8.000000000000000000, 13.24999999999970512 ) ) ;
#36 = CARTESIAN_POINT ( 'NONE',  ( 32.47595264191637199, 8.000000000000000000, 18.75000000000015632 ) ) ;
#37 = DIRECTION ( 'NONE',  ( 0.000000000000000000, 0.000000000000000000, 1.000000000000000000 ) ) ;
#38 = EDGE_CURVE ( 'NONE', #287, #174, #390, .T. ) ;
#39 = CARTESIAN_POINT ( 'NONE',  ( -32.47595264191662778, 8.000000000000000000, 18.74999999999970157 ) ) ;
#40 = DIRECTION ( 'NONE',  ( 0.000000000000000000, -0.000000000000000000, 1.000000000000000000 ) ) ;
#41 = DIRECTION ( 'NONE',  ( -0.000000000000000000, 1.000000000000000000, -0.000000000000000000 ) ) ;
#42 = EDGE_CURVE ( 'NONE', #385, #73, #285, .T. ) ;
#43 = ORIENTED_EDGE ( 'NONE', *, *, #340, .F. ) ;
#44 = CIRCLE ( 'NONE', #338, 5.499999999999994671 ) ;
#45 = DIRECTION ( 'NONE',  ( 0.000000000000000000, 0.000000000000000000, 1.000000000000000000 ) ) ;
#46 = ORIENTED_EDGE ( 'NONE', *, *, #141, .F. ) ;
#47 = PLANE ( 'NONE',  #173 ) ;
#48 = ORIENTED_EDGE ( 'NONE', *, *, #106, .F. ) ;
#49 = CC_DESIGN_SECURITY_CLASSIFICATION ( #110, ( #314 ) ) ;
#50 = VERTEX_POINT ( 'NONE', #90 ) ;
#51 = DATE_TIME_ROLE ( 'classification_date' ) ;
#52 = EDGE_LOOP ( 'NONE', ( #48, #74 ) ) ;
#53 = CARTESIAN_POINT ( 'NONE',  ( 32.47595264191637199, 0.000000000000000000, 18.75000000000015632 ) ) ;
#54 = FACE_OUTER_BOUND ( 'NONE', #78, .T. ) ;
#55 = PERSON_AND_ORGANIZATION ( #319, #257 ) ;
#56 = LINE ( 'NONE', #150, #151 ) ;
#57 = CARTESIAN_POINT ( 'NONE',  ( 6.123233995736766085E-15, 0.000000000000000000, 50.00000000000000000 ) ) ;
#58 = PRODUCT_DEFINITION_SHAPE ( 'NONE', 'NONE',  #345 ) ;
#59 = EDGE_LOOP ( 'NONE', ( #43, #33, #20, #378 ) ) ;
#60 = PRODUCT_RELATED_PRODUCT_CATEGORY ( 'detail', '', ( #215 ) ) ;
#61 = CIRCLE ( 'NONE', #157, 5.499999999999994671 ) ;
#62 = CARTESIAN_POINT ( 'NONE',  ( 0.000000000000000000, 8.000000000000000000, 0.000000000000000000 ) ) ;
#63 = CARTESIAN_POINT ( 'NONE',  ( 32.47595264191637199, 8.000000000000000000, 18.75000000000015632 ) ) ;
#64 = AXIS2_PLACEMENT_3D ( 'NONE', #39, #163, #190 ) ;
#65 = LOCAL_TIME ( 13, 49, 29.00000000000000000, #182 ) ;
#66 = CYLINDRICAL_SURFACE ( 'NONE', #180, 5.499999999999998224 ) ;
#67 = EDGE_CURVE ( 'NONE', #237, #326, #131, .T. ) ;
#68 = DIRECTION ( 'NONE',  ( 0.000000000000000000, 0.000000000000000000, 1.000000000000000000 ) ) ;
#69 = CARTESIAN_POINT ( 'NONE',  ( -32.47595264191662778, 0.000000000000000000, 24.24999999999969447 ) ) ;
#70 = EDGE_CURVE ( 'NONE', #50, #217, #166, .T. ) ;
#71 = APPLICATION_PROTOCOL_DEFINITION ( 'international standard', 'config_control_design', 1994, #135 ) ;
#72 = CIRCLE ( 'NONE', #381, 5.499999999999998224 ) ;
#73 = VERTEX_POINT ( 'NONE', #57 ) ;
#74 = ORIENTED_EDGE ( 'NONE', *, *, #67, .F. ) ;
#75 = FACE_OUTER_BOUND ( 'NONE', #268, .T. ) ;
#76 = ORIENTED_EDGE ( 'NONE', *, *, #160, .T. ) ;
#77 = AXIS2_PLACEMENT_3D ( 'NONE', #280, #125, #368 ) ;
#78 = EDGE_LOOP ( 'NONE', ( #306, #216, #209, #144 ) ) ;
#79 = EDGE_CURVE ( 'NONE', #10, #183, #11, .T. ) ;
#80 = EDGE_LOOP ( 'NONE', ( #200, #102, #205, #105 ) ) ;
#81 = AXIS2_PLACEMENT_3D ( 'NONE', #332, #296, #112 ) ;
#82 = LINE ( 'NONE', #336, #376 ) ;
#83 = SHAPE_DEFINITION_REPRESENTATION ( #58, #134 ) ;
#84 = ADVANCED_FACE ( 'NONE', ( #54 ), #25, .F. ) ;
#85 = CARTESIAN_POINT ( 'NONE',  ( 0.000000000000000000, 8.000000000000000000, -37.50000000000000711 ) ) ;
#86 = CIRCLE ( 'NONE', #372, 5.499999999999994671 ) ;
#87 = AXIS2_PLACEMENT_3D ( 'NONE', #263, #197, #107 ) ;
#88 = VERTEX_POINT ( 'NONE', #210 ) ;
#89 = CARTESIAN_POINT ( 'NONE',  ( 32.47595264191637199, 8.000000000000000000, 18.75000000000015632 ) ) ;
#90 = CARTESIAN_POINT ( 'NONE',  ( 32.47595264191637199, 8.000000000000000000, 13.25000000000015810 ) ) ;
#91 = CARTESIAN_POINT ( 'NONE',  ( 6.123233995736766085E-15, 8.000000000000000000, 50.00000000000000000 ) ) ;
#92 = AXIS2_PLACEMENT_3D ( 'NONE', #356, #358, #271 ) ;
#93 = FACE_OUTER_BOUND ( 'NONE', #292, .T. ) ;
#94 = DIRECTION ( 'NONE',  ( -0.000000000000000000, 1.000000000000000000, -0.000000000000000000 ) ) ;
#95 = LINE ( 'NONE', #283, #297 ) ;
#96 = DIRECTION ( 'NONE',  ( -0.000000000000000000, -1.000000000000000000, -0.000000000000000000 ) ) ;
#97 = APPLICATION_PROTOCOL_DEFINITION ( 'international standard', 'config_control_design', 1994, #8 ) ;
#98 = EDGE_LOOP ( 'NONE', ( #22, #348 ) ) ;
#99 = CALENDAR_DATE ( 2024, 17, 10 ) ;
#100 = VERTEX_POINT ( 'NONE', #329 ) ;
#101 = DIRECTION ( 'NONE',  ( 0.000000000000000000, 0.000000000000000000, 1.000000000000000000 ) ) ;
#102 = ORIENTED_EDGE ( 'NONE', *, *, #79, .F. ) ;
#103 = CARTESIAN_POINT ( 'NONE',  ( 32.47595264191637199, 0.000000000000000000, 13.25000000000016165 ) ) ;
#104 = EDGE_CURVE ( 'NONE', #323, #387, #61, .T. ) ;
#105 = ORIENTED_EDGE ( 'NONE', *, *, #42, .T. ) ;
#106 = EDGE_CURVE ( 'NONE', #326, #237, #155, .T. ) ;
#107 = DIRECTION ( 'NONE',  ( 0.000000000000000000, 0.000000000000000000, 1.000000000000000000 ) ) ;
#108 = AXIS2_PLACEMENT_3D ( 'NONE', #63, #195, #281 ) ;
#109 = ORIENTED_EDGE ( 'NONE', *, *, #170, .T. ) ;
#110 = SECURITY_CLASSIFICATION ( '', '', #361 ) ;
#111 = APPROVAL_DATE_TIME ( #388, #251 ) ;
#112 = DIRECTION ( 'NONE',  ( 0.000000000000000000, -0.000000000000000000, 1.000000000000000000 ) ) ;
#113 = AXIS2_PLACEMENT_3D ( 'NONE', #396, #120, #248 ) ;
#114 = ADVANCED_FACE ( 'NONE', ( #344 ), #6, .F. ) ;
#115 = DIRECTION ( 'NONE',  ( -0.000000000000000000, 1.000000000000000000, -0.000000000000000000 ) ) ;
#116 = COORDINATED_UNIVERSAL_TIME_OFFSET ( 1, 0, .AHEAD. ) ;
#117 = FACE_BOUND ( 'NONE', #228, .T. ) ;
#118 = CC_DESIGN_APPROVAL ( #251, ( #110 ) ) ;
#119 = ORIENTED_EDGE ( 'NONE', *, *, #225, .T. ) ;
#120 = DIRECTION ( 'NONE',  ( 0.000000000000000000, 1.000000000000000000, 0.000000000000000000 ) ) ;
#121 = EDGE_CURVE ( 'NONE', #323, #217, #127, .T. ) ;
#122 = EDGE_CURVE ( 'NONE', #387, #323, #86, .T. ) ;
#123 = DIRECTION ( 'NONE',  ( -0.000000000000000000, 1.000000000000000000, -0.000000000000000000 ) ) ;
#124 = CIRCLE ( 'NONE', #64, 5.499999999999998224 ) ;
#125 = DIRECTION ( 'NONE',  ( -0.000000000000000000, 1.000000000000000000, -0.000000000000000000 ) ) ;
#126 = ADVANCED_FACE ( 'NONE', ( #397 ), #191, .T. ) ;
#127 = LINE ( 'NONE', #129, #16 ) ;
#128 = DIRECTION ( 'NONE',  ( 0.000000000000000000, 0.000000000000000000, 1.000000000000000000 ) ) ;
#129 = CARTESIAN_POINT ( 'NONE',  ( 32.47595264191637199, 8.000000000000000000, 24.25000000000014921 ) ) ;
#130 = CARTESIAN_POINT ( 'NONE',  ( 0.000000000000000000, 0.000000000000000000, 0.000000000000000000 ) ) ;
#131 = CIRCLE ( 'NONE', #92, 5.499999999999998224 ) ;
#132 = VERTEX_POINT ( 'NONE', #253 ) ;
#133 = CC_DESIGN_PERSON_AND_ORGANIZATION_ASSIGNMENT ( #213, #179, ( #314 ) ) ;
#134 = ADVANCED_BREP_SHAPE_REPRESENTATION ( '3D_GB3092_100_188706900', ( #310, #290 ), #18 ) ;
#135 = APPLICATION_CONTEXT ( 'configuration controlled 3d designs of mechanical parts and assemblies' ) ;
#136 = APPROVAL_ROLE ( '' ) ;
#137 = ORIENTED_EDGE ( 'NONE', *, *, #70, .F. ) ;
#138 = CYLINDRICAL_SURFACE ( 'NONE', #87, 5.499999999999994671 ) ;
#139 = LOCAL_TIME ( 13, 49, 29.00000000000000000, #116 ) ;
#140 = EDGE_LOOP ( 'NONE', ( #259, #266, #176, #325 ) ) ;
#141 = EDGE_CURVE ( 'NONE', #232, #326, #308, .T. ) ;
#142 = APPROVAL ( #12, 'UNSPECIFIED' ) ;
#143 = CARTESIAN_POINT ( 'NONE',  ( 0.000000000000000000, 0.000000000000000000, 0.000000000000000000 ) ) ;
#144 = ORIENTED_EDGE ( 'NONE', *, *, #38, .F. ) ;
#145 = EDGE_LOOP ( 'NONE', ( #392, #235, #303, #299 ) ) ;
#146 = APPROVAL_DATE_TIME ( #395, #365 ) ;
#147 = CARTESIAN_POINT ( 'NONE',  ( -32.47595264191662778, 8.000000000000000000, 18.74999999999970157 ) ) ;
#148 = ADVANCED_FACE ( 'NONE', ( #224 ), #66, .F. ) ;
#149 = CALENDAR_DATE ( 2024, 17, 10 ) ;
#150 = CARTESIAN_POINT ( 'NONE',  ( 0.000000000000000000, 8.000000000000000000, -50.00000000000000000 ) ) ;
#151 = VECTOR ( 'NONE', #184, 1000.000000000000000 ) ;
#152 = APPROVAL_STATUS ( 'not_yet_approved' ) ;
#153 = DIRECTION ( 'NONE',  ( -0.000000000000000000, 1.000000000000000000, -0.000000000000000000 ) ) ;
#154 = CARTESIAN_POINT ( 'NONE',  ( -32.47595264191662778, 8.000000000000000000, 24.24999999999969447 ) ) ;
#155 = CIRCLE ( 'NONE', #305, 5.499999999999998224 ) ;
#156 = CARTESIAN_POINT ( 'NONE',  ( -32.47595264191662778, 0.000000000000000000, 18.74999999999970157 ) ) ;
#157 = AXIS2_PLACEMENT_3D ( 'NONE', #53, #181, #241 ) ;
#158 = DIRECTION ( 'NONE',  ( 0.000000000000000000, 1.000000000000000000, 0.000000000000000000 ) ) ;
#159 = CARTESIAN_POINT ( 'NONE',  ( 32.47595264191637199, 8.000000000000000000, 24.25000000000015277 ) ) ;
#160 = EDGE_CURVE ( 'NONE', #100, #237, #370, .T. ) ;
#161 = CYLINDRICAL_SURFACE ( 'NONE', #244, 50.00000000000000000 ) ;
#162 = DIRECTION ( 'NONE',  ( -0.000000000000000000, -1.000000000000000000, -0.000000000000000000 ) ) ;
#163 = DIRECTION ( 'NONE',  ( -0.000000000000000000, 1.000000000000000000, -0.000000000000000000 ) ) ;
#164 =( LENGTH_UNIT ( ) NAMED_UNIT ( * ) SI_UNIT ( .MILLI., .METRE. ) );
#165 = CC_DESIGN_PERSON_AND_ORGANIZATION_ASSIGNMENT ( #55, #353, ( #345 ) ) ;
#166 = CIRCLE ( 'NONE', #189, 5.499999999999998224 ) ;
#167 = ORIENTED_EDGE ( 'NONE', *, *, #104, .T. ) ;
#168 = CARTESIAN_POINT ( 'NONE',  ( 32.47595264191637199, 8.000000000000000000, 18.75000000000015632 ) ) ;
#169 = ORIENTED_EDGE ( 'NONE', *, *, #121, .T. ) ;
#170 = EDGE_CURVE ( 'NONE', #100, #232, #218, .T. ) ;
#171 = VECTOR ( 'NONE', #252, 1000.000000000000000 ) ;
#172 = CARTESIAN_POINT ( 'NONE',  ( 0.000000000000000000, 8.000000000000000000, -37.50000000000000711 ) ) ;
#173 = AXIS2_PLACEMENT_3D ( 'NONE', #143, #386, #40 ) ;
#174 = VERTEX_POINT ( 'NONE', #279 ) ;
#175 = FACE_BOUND ( 'NONE', #270, .T. ) ;
#176 = ORIENTED_EDGE ( 'NONE', *, *, #38, .T. ) ;
#177 = APPROVAL_DATE_TIME ( #231, #142 ) ;
#178 = ORIENTED_EDGE ( 'NONE', *, *, #121, .F. ) ;
#179 = PERSON_AND_ORGANIZATION_ROLE ( 'design_supplier' ) ;
#180 = AXIS2_PLACEMENT_3D ( 'NONE', #258, #188, #68 ) ;
#181 = DIRECTION ( 'NONE',  ( 0.000000000000000000, 1.000000000000000000, 0.000000000000000000 ) ) ;
#182 = COORDINATED_UNIVERSAL_TIME_OFFSET ( 1, 0, .AHEAD. ) ;
#183 = VERTEX_POINT ( 'NONE', #91 ) ;
#184 = DIRECTION ( 'NONE',  ( -0.000000000000000000, -1.000000000000000000, -0.000000000000000000 ) ) ;
#185 = EDGE_CURVE ( 'NONE', #73, #385, #192, .T. ) ;
#186 = EDGE_CURVE ( 'NONE', #232, #100, #26, .T. ) ;
#187 = EDGE_LOOP ( 'NONE', ( #13, #261 ) ) ;
#188 = DIRECTION ( 'NONE',  ( -0.000000000000000000, 1.000000000000000000, -0.000000000000000000 ) ) ;
#189 = AXIS2_PLACEMENT_3D ( 'NONE', #89, #115, #330 ) ;
#190 = DIRECTION ( 'NONE',  ( 0.000000000000000000, 0.000000000000000000, 1.000000000000000000 ) ) ;
#191 = CYLINDRICAL_SURFACE ( 'NONE', #313, 50.00000000000000000 ) ;
#192 = CIRCLE ( 'NONE', #198, 50.00000000000000000 ) ;
#193 = AXIS2_PLACEMENT_3D ( 'NONE', #172, #233, #45 ) ;
#194 = CARTESIAN_POINT ( 'NONE',  ( 0.000000000000000000, 0.000000000000000000, -37.50000000000000711 ) ) ;
#195 = DIRECTION ( 'NONE',  ( -0.000000000000000000, 1.000000000000000000, -0.000000000000000000 ) ) ;
#196 = ADVANCED_FACE ( 'NONE', ( #337 ), #161, .T. ) ;
#197 = DIRECTION ( 'NONE',  ( -0.000000000000000000, 1.000000000000000000, -0.000000000000000000 ) ) ;
#198 = AXIS2_PLACEMENT_3D ( 'NONE', #343, #341, #221 ) ;
#199 = CARTESIAN_POINT ( 'NONE',  ( -32.47595264191662778, 0.000000000000000000, 18.74999999999970157 ) ) ;
#200 = ORIENTED_EDGE ( 'NONE', *, *, #243, .F. ) ;
#201 = DIRECTION ( 'NONE',  ( 1.000000000000000000, 0.000000000000000000, 0.000000000000000000 ) ) ;
#202 = EDGE_CURVE ( 'NONE', #174, #132, #124, .T. ) ;
#203 = ORIENTED_EDGE ( 'NONE', *, *, #70, .T. ) ;
#204 = CARTESIAN_POINT ( 'NONE',  ( 0.000000000000000000, 8.000000000000000000, -32.00000000000000711 ) ) ;
#205 = ORIENTED_EDGE ( 'NONE', *, *, #30, .T. ) ;
#206 = CYLINDRICAL_SURFACE ( 'NONE', #193, 5.499999999999998224 ) ;
#207 = CC_DESIGN_APPROVAL ( #365, ( #314 ) ) ;
#208 = ORIENTED_EDGE ( 'NONE', *, *, #7, .T. ) ;
#209 = ORIENTED_EDGE ( 'NONE', *, *, #255, .T. ) ;
#210 = CARTESIAN_POINT ( 'NONE',  ( -32.47595264191662778, 0.000000000000000000, 13.24999999999970512 ) ) ;
#211 = PERSON_AND_ORGANIZATION ( #319, #257 ) ;
#212 = FACE_OUTER_BOUND ( 'NONE', #187, .T. ) ;
#213 = PERSON_AND_ORGANIZATION ( #319, #257 ) ;
#214 = DIRECTION ( 'NONE',  ( 0.000000000000000000, 0.000000000000000000, 1.000000000000000000 ) ) ;
#215 = PRODUCT ( '3D_GB3092_100_188706900', '3D_GB3092_100_188706900', '', ( #227 ) ) ;
#216 = ORIENTED_EDGE ( 'NONE', *, *, #230, .T. ) ;
#217 = VERTEX_POINT ( 'NONE', #159 ) ;
#218 = CIRCLE ( 'NONE', #359, 5.499999999999998224 ) ;
#219 = AXIS2_PLACEMENT_3D ( 'NONE', #377, #15, #9 ) ;
#220 = DIRECTION ( 'NONE',  ( 0.000000000000000000, 1.000000000000000000, 0.000000000000000000 ) ) ;
#221 = DIRECTION ( 'NONE',  ( 0.000000000000000000, 0.000000000000000000, 1.000000000000000000 ) ) ;
#222 = CARTESIAN_POINT ( 'NONE',  ( 0.000000000000000000, 0.000000000000000000, -37.50000000000000711 ) ) ;
#223 = LOCAL_TIME ( 13, 49, 29.00000000000000000, #327 ) ;
#224 = FACE_OUTER_BOUND ( 'NONE', #145, .T. ) ;
#225 = EDGE_CURVE ( 'NONE', #217, #50, #72, .T. ) ;
#226 = DIRECTION ( 'NONE',  ( 0.000000000000000000, 0.000000000000000000, 1.000000000000000000 ) ) ;
#227 = MECHANICAL_CONTEXT ( 'NONE', #8, 'mechanical' ) ;
#228 = EDGE_LOOP ( 'NONE', ( #349, #137 ) ) ;
#229 = CIRCLE ( 'NONE', #393, 5.499999999999994671 ) ;
#230 = EDGE_CURVE ( 'NONE', #88, #132, #254, .T. ) ;
#231 = DATE_AND_TIME ( #99, #236 ) ;
#232 = VERTEX_POINT ( 'NONE', #3 ) ;
#233 = DIRECTION ( 'NONE',  ( -0.000000000000000000, 1.000000000000000000, -0.000000000000000000 ) ) ;
#234 = ORIENTED_EDGE ( 'NONE', *, *, #202, .F. ) ;
#235 = ORIENTED_EDGE ( 'NONE', *, *, #186, .F. ) ;
#236 = LOCAL_TIME ( 13, 49, 29.00000000000000000, #379 ) ;
#237 = VERTEX_POINT ( 'NONE', #371 ) ;
#238 = CC_DESIGN_PERSON_AND_ORGANIZATION_ASSIGNMENT ( #346, #320, ( #215 ) ) ;
#239 = CALENDAR_DATE ( 2024, 17, 10 ) ;
#240 = DIRECTION ( 'NONE',  ( 0.000000000000000000, 0.000000000000000000, 1.000000000000000000 ) ) ;
#241 = DIRECTION ( 'NONE',  ( 0.000000000000000000, 0.000000000000000000, 1.000000000000000000 ) ) ;
#242 = PERSON_AND_ORGANIZATION_ROLE ( 'creator' ) ;
#243 = EDGE_CURVE ( 'NONE', #183, #73, #95, .T. ) ;
#244 = AXIS2_PLACEMENT_3D ( 'NONE', #62, #162, #311 ) ;
#245 = APPROVAL_PERSON_ORGANIZATION ( #286, #142, #136 ) ;
#246 = DIRECTION ( 'NONE',  ( 0.000000000000000000, 1.000000000000000000, 0.000000000000000000 ) ) ;
#247 = DIRECTION ( 'NONE',  ( 0.000000000000000000, 0.000000000000000000, 1.000000000000000000 ) ) ;
#248 = DIRECTION ( 'NONE',  ( 0.000000000000000000, 0.000000000000000000, 1.000000000000000000 ) ) ;
#249 = CARTESIAN_POINT ( 'NONE',  ( 0.000000000000000000, 8.000000000000000000, -32.00000000000000711 ) ) ;
#250 = AXIS2_PLACEMENT_3D ( 'NONE', #194, #220, #316 ) ;
#251 = APPROVAL ( #269, 'UNSPECIFIED' ) ;
#252 = DIRECTION ( 'NONE',  ( -0.000000000000000000, 1.000000000000000000, -0.000000000000000000 ) ) ;
#253 = CARTESIAN_POINT ( 'NONE',  ( -32.47595264191662778, 8.000000000000000000, 13.24999999999970335 ) ) ;
#254 = LINE ( 'NONE', #35, #171 ) ;
#255 = EDGE_CURVE ( 'NONE', #132, #174, #2, .T. ) ;
#256 = CIRCLE ( 'NONE', #219, 50.00000000000000000 ) ;
#257 = ORGANIZATION ( 'UNSPECIFIED', 'UNSPECIFIED', '' ) ;
#258 = CARTESIAN_POINT ( 'NONE',  ( 0.000000000000000000, 8.000000000000000000, -37.50000000000000711 ) ) ;
#259 = ORIENTED_EDGE ( 'NONE', *, *, #230, .F. ) ;
#260 = CARTESIAN_POINT ( 'NONE',  ( 32.47595264191637199, 0.000000000000000000, 24.25000000000014921 ) ) ;
#261 = ORIENTED_EDGE ( 'NONE', *, *, #340, .T. ) ;
#262 = AXIS2_PLACEMENT_3D ( 'NONE', #168, #41, #101 ) ;
#263 = CARTESIAN_POINT ( 'NONE',  ( -32.47595264191662778, 8.000000000000000000, 18.74999999999970157 ) ) ;
#264 = ORIENTED_EDGE ( 'NONE', *, *, #67, .T. ) ;
#265 = CARTESIAN_POINT ( 'NONE',  ( 0.000000000000000000, 0.000000000000000000, -50.00000000000000000 ) ) ;
#266 = ORIENTED_EDGE ( 'NONE', *, *, #7, .F. ) ;
#267 = ADVANCED_FACE ( 'NONE', ( #93 ), #339, .F. ) ;
#268 = EDGE_LOOP ( 'NONE', ( #363, #76, #264, #46 ) ) ;
#269 = APPROVAL_STATUS ( 'not_yet_approved' ) ;
#270 = EDGE_LOOP ( 'NONE', ( #167, #383 ) ) ;
#271 = DIRECTION ( 'NONE',  ( 0.000000000000000000, 0.000000000000000000, 1.000000000000000000 ) ) ;
#272 = EDGE_CURVE ( 'NONE', #88, #287, #229, .T. ) ;
#273 = CALENDAR_DATE ( 2024, 17, 10 ) ;
#274 = DIRECTION ( 'NONE',  ( 0.000000000000000000, 0.000000000000000000, 1.000000000000000000 ) ) ;
#275 = VECTOR ( 'NONE', #94, 1000.000000000000000 ) ;
#276 = LOCAL_TIME ( 13, 49, 29.00000000000000000, #333 ) ;
#277 = DIRECTION ( 'NONE',  ( -0.000000000000000000, 1.000000000000000000, -0.000000000000000000 ) ) ;
#278 = CARTESIAN_POINT ( 'NONE',  ( 0.000000000000000000, 0.000000000000000000, 0.000000000000000000 ) ) ;
#279 = CARTESIAN_POINT ( 'NONE',  ( -32.47595264191662778, 8.000000000000000000, 24.24999999999969802 ) ) ;
#280 = CARTESIAN_POINT ( 'NONE',  ( -32.47595264191662778, 8.000000000000000000, 18.74999999999970157 ) ) ;
#281 = DIRECTION ( 'NONE',  ( 0.000000000000000000, 0.000000000000000000, 1.000000000000000000 ) ) ;
#282 = DIRECTION ( 'NONE',  ( -0.000000000000000000, 1.000000000000000000, -0.000000000000000000 ) ) ;
#283 = CARTESIAN_POINT ( 'NONE',  ( 6.123233995736766085E-15, 8.000000000000000000, 50.00000000000000000 ) ) ;
#284 =( NAMED_UNIT ( * ) SI_UNIT ( $, .STERADIAN. ) SOLID_ANGLE_UNIT ( ) );
#285 = CIRCLE ( 'NONE', #322, 50.00000000000000000 ) ;
#286 = PERSON_AND_ORGANIZATION ( #319, #257 ) ;
#287 = VERTEX_POINT ( 'NONE', #69 ) ;
#288 = DIRECTION ( 'NONE',  ( 0.000000000000000000, 0.000000000000000000, 1.000000000000000000 ) ) ;
#289 = EDGE_LOOP ( 'NONE', ( #234, #328 ) ) ;
#290 = AXIS2_PLACEMENT_3D ( 'NONE', #130, #21, #201 ) ;
#291 = FACE_OUTER_BOUND ( 'NONE', #98, .T. ) ;
#292 = EDGE_LOOP ( 'NONE', ( #347, #17, #169, #119 ) ) ;
#293 = DESIGN_CONTEXT ( 'detailed design', #135, 'design' ) ;
#294 = ORIENTED_EDGE ( 'NONE', *, *, #186, .T. ) ;
#295 = PERSON_AND_ORGANIZATION ( #319, #257 ) ;
#296 = DIRECTION ( 'NONE',  ( 0.000000000000000000, 1.000000000000000000, 0.000000000000000000 ) ) ;
#297 = VECTOR ( 'NONE', #96, 1000.000000000000000 ) ;
#298 = APPROVAL_ROLE ( '' ) ;
#299 = ORIENTED_EDGE ( 'NONE', *, *, #106, .T. ) ;
#300 = PERSON_AND_ORGANIZATION ( #319, #257 ) ;
#301 = DIRECTION ( 'NONE',  ( -0.000000000000000000, 1.000000000000000000, -0.000000000000000000 ) ) ;
#302 = DATE_AND_TIME ( #239, #139 ) ;
#303 = ORIENTED_EDGE ( 'NONE', *, *, #141, .T. ) ;
#304 = PERSON_AND_ORGANIZATION ( #319, #257 ) ;
#305 = AXIS2_PLACEMENT_3D ( 'NONE', #85, #153, #274 ) ;
#306 = ORIENTED_EDGE ( 'NONE', *, *, #272, .F. ) ;
#307 = CC_DESIGN_DATE_AND_TIME_ASSIGNMENT ( #302, #51, ( #110 ) ) ;
#308 = LINE ( 'NONE', #249, #342 ) ;
#309 = VECTOR ( 'NONE', #277, 1000.000000000000000 ) ;
#310 = MANIFOLD_SOLID_BREP ( 'Kreismuster1', #355 ) ;
#311 = DIRECTION ( 'NONE',  ( 0.000000000000000000, 0.000000000000000000, -1.000000000000000000 ) ) ;
#312 = CARTESIAN_POINT ( 'NONE',  ( 32.47595264191637199, 0.000000000000000000, 18.75000000000015632 ) ) ;
#313 = AXIS2_PLACEMENT_3D ( 'NONE', #5, #367, #317 ) ;
#314 = PRODUCT_DEFINITION_FORMATION_WITH_SPECIFIED_SOURCE ( 'ANY', '', #215, .NOT_KNOWN. ) ;
#315 = ADVANCED_FACE ( 'NONE', ( #75 ), #206, .F. ) ;
#316 = DIRECTION ( 'NONE',  ( 0.000000000000000000, 0.000000000000000000, 1.000000000000000000 ) ) ;
#317 = DIRECTION ( 'NONE',  ( 0.000000000000000000, 0.000000000000000000, -1.000000000000000000 ) ) ;
#318 = FACE_BOUND ( 'NONE', #354, .T. ) ;
#319 = PERSON ( 'UNSPECIFIED', 'UNSPECIFIED', 'UNSPECIFIED', ('UNSPECIFIED'), ('UNSPECIFIED'), ('UNSPECIFIED') ) ;
#320 = PERSON_AND_ORGANIZATION_ROLE ( 'design_owner' ) ;
#321 = ORIENTED_EDGE ( 'NONE', *, *, #122, .F. ) ;
#322 = AXIS2_PLACEMENT_3D ( 'NONE', #278, #394, #247 ) ;
#323 = VERTEX_POINT ( 'NONE', #260 ) ;
#324 = FACE_BOUND ( 'NONE', #380, .T. ) ;
#325 = ORIENTED_EDGE ( 'NONE', *, *, #202, .T. ) ;
#326 = VERTEX_POINT ( 'NONE', #204 ) ;
#327 = COORDINATED_UNIVERSAL_TIME_OFFSET ( 1, 0, .AHEAD. ) ;
#328 = ORIENTED_EDGE ( 'NONE', *, *, #255, .F. ) ;
#329 = CARTESIAN_POINT ( 'NONE',  ( 6.735557395310436107E-16, 0.000000000000000000, -43.00000000000000000 ) ) ;
#330 = DIRECTION ( 'NONE',  ( 0.000000000000000000, 0.000000000000000000, 1.000000000000000000 ) ) ;
#331 = CALENDAR_DATE ( 2024, 17, 10 ) ;
#332 = CARTESIAN_POINT ( 'NONE',  ( 0.000000000000000000, 8.000000000000000000, 0.000000000000000000 ) ) ;
#333 = COORDINATED_UNIVERSAL_TIME_OFFSET ( 1, 0, .AHEAD. ) ;
#334 = PLANE ( 'NONE',  #81 ) ;
#335 = CC_DESIGN_APPROVAL ( #142, ( #345 ) ) ;
#336 = CARTESIAN_POINT ( 'NONE',  ( 32.47595264191637199, 8.000000000000000000, 13.25000000000016165 ) ) ;
#337 = FACE_OUTER_BOUND ( 'NONE', #59, .T. ) ;
#338 = AXIS2_PLACEMENT_3D ( 'NONE', #156, #246, #214 ) ;
#339 = CYLINDRICAL_SURFACE ( 'NONE', #262, 5.499999999999994671 ) ;
#340 = EDGE_CURVE ( 'NONE', #183, #10, #256, .T. ) ;
#341 = DIRECTION ( 'NONE',  ( 0.000000000000000000, 1.000000000000000000, 0.000000000000000000 ) ) ;
#342 = VECTOR ( 'NONE', #123, 1000.000000000000000 ) ;
#343 = CARTESIAN_POINT ( 'NONE',  ( 0.000000000000000000, 0.000000000000000000, 0.000000000000000000 ) ) ;
#344 = FACE_OUTER_BOUND ( 'NONE', #362, .T. ) ;
#345 = PRODUCT_DEFINITION ( 'UNKNOWN', '', #314, #293 ) ;
#346 = PERSON_AND_ORGANIZATION ( #319, #257 ) ;
#347 = ORIENTED_EDGE ( 'NONE', *, *, #14, .F. ) ;
#348 = ORIENTED_EDGE ( 'NONE', *, *, #185, .F. ) ;
#349 = ORIENTED_EDGE ( 'NONE', *, *, #225, .F. ) ;
#350 = CC_DESIGN_PERSON_AND_ORGANIZATION_ASSIGNMENT ( #304, #28, ( #110 ) ) ;
#351 =( NAMED_UNIT ( * ) PLANE_ANGLE_UNIT ( ) SI_UNIT ( $, .RADIAN. ) );
#352 = ORIENTED_EDGE ( 'NONE', *, *, #14, .T. ) ;
#353 = PERSON_AND_ORGANIZATION_ROLE ( 'creator' ) ;
#354 = EDGE_LOOP ( 'NONE', ( #208, #32 ) ) ;
#355 = CLOSED_SHELL ( 'NONE', ( #84, #114, #315, #196, #126, #1, #382, #148, #267, #364 ) ) ;
#356 = CARTESIAN_POINT ( 'NONE',  ( 0.000000000000000000, 8.000000000000000000, -37.50000000000000711 ) ) ;
#357 = DATE_TIME_ROLE ( 'creation_date' ) ;
#358 = DIRECTION ( 'NONE',  ( -0.000000000000000000, 1.000000000000000000, -0.000000000000000000 ) ) ;
#359 = AXIS2_PLACEMENT_3D ( 'NONE', #222, #158, #226 ) ;
#360 = APPROVAL_PERSON_ORGANIZATION ( #211, #251, #298 ) ;
#361 = SECURITY_CLASSIFICATION_LEVEL ( 'unclassified' ) ;
#362 = EDGE_LOOP ( 'NONE', ( #321, #352, #203, #178 ) ) ;
#363 = ORIENTED_EDGE ( 'NONE', *, *, #170, .F. ) ;
#364 = ADVANCED_FACE ( 'NONE', ( #384 ), #138, .F. ) ;
#365 = APPROVAL ( #152, 'UNSPECIFIED' ) ;
#366 = FACE_BOUND ( 'NONE', #289, .T. ) ;
#367 = DIRECTION ( 'NONE',  ( -0.000000000000000000, -1.000000000000000000, -0.000000000000000000 ) ) ;
#368 = DIRECTION ( 'NONE',  ( 0.000000000000000000, 0.000000000000000000, 1.000000000000000000 ) ) ;
#369 = AXIS2_PLACEMENT_3D ( 'NONE', #147, #389, #240 ) ;
#370 = LINE ( 'NONE', #374, #275 ) ;
#371 = CARTESIAN_POINT ( 'NONE',  ( 6.735557395310437093E-16, 8.000000000000000000, -43.00000000000000000 ) ) ;
#372 = AXIS2_PLACEMENT_3D ( 'NONE', #312, #4, #37 ) ;
#373 = APPROVAL_PERSON_ORGANIZATION ( #295, #365, #24 ) ;
#374 = CARTESIAN_POINT ( 'NONE',  ( 6.735557395310438079E-16, 8.000000000000000000, -43.00000000000000000 ) ) ;
#375 = CC_DESIGN_DATE_AND_TIME_ASSIGNMENT ( #391, #357, ( #345 ) ) ;
#376 = VECTOR ( 'NONE', #301, 1000.000000000000000 ) ;
#377 = CARTESIAN_POINT ( 'NONE',  ( 0.000000000000000000, 8.000000000000000000, 0.000000000000000000 ) ) ;
#378 = ORIENTED_EDGE ( 'NONE', *, *, #30, .F. ) ;
#379 = COORDINATED_UNIVERSAL_TIME_OFFSET ( 1, 0, .AHEAD. ) ;
#380 = EDGE_LOOP ( 'NONE', ( #294, #109 ) ) ;
#381 = AXIS2_PLACEMENT_3D ( 'NONE', #36, #282, #128 ) ;
#382 = ADVANCED_FACE ( 'NONE', ( #318, #175, #324, #291 ), #47, .F. ) ;
#383 = ORIENTED_EDGE ( 'NONE', *, *, #122, .T. ) ;
#384 = FACE_OUTER_BOUND ( 'NONE', #140, .T. ) ;
#385 = VERTEX_POINT ( 'NONE', #265 ) ;
#386 = DIRECTION ( 'NONE',  ( 0.000000000000000000, 1.000000000000000000, 0.000000000000000000 ) ) ;
#387 = VERTEX_POINT ( 'NONE', #103 ) ;
#388 = DATE_AND_TIME ( #273, #223 ) ;
#389 = DIRECTION ( 'NONE',  ( -0.000000000000000000, 1.000000000000000000, -0.000000000000000000 ) ) ;
#390 = LINE ( 'NONE', #154, #309 ) ;
#391 = DATE_AND_TIME ( #149, #276 ) ;
#392 = ORIENTED_EDGE ( 'NONE', *, *, #160, .F. ) ;
#393 = AXIS2_PLACEMENT_3D ( 'NONE', #199, #19, #288 ) ;
#394 = DIRECTION ( 'NONE',  ( 0.000000000000000000, 1.000000000000000000, 0.000000000000000000 ) ) ;
#395 = DATE_AND_TIME ( #331, #65 ) ;
#396 = CARTESIAN_POINT ( 'NONE',  ( 0.000000000000000000, 8.000000000000000000, 0.000000000000000000 ) ) ;
#397 = FACE_OUTER_BOUND ( 'NONE', #80, .T. ) ;
ENDSEC;
END-ISO-10303-21;
