ISO-10303-21;
HEADER;
FILE_DESCRIPTION (( 'STEP AP203' ),
    '1' );
FILE_NAME ('3D_R1620_48.3x2_173630130_173631120.STEP',
    '2024-08-27T11:06:03',
    ( '' ),
    ( '' ),
    'SwSTEP 2.0',
    'SolidWorks 2024',
    '' );
FILE_SCHEMA (( 'CONFIG_CONTROL_DESIGN' ));
ENDSEC;

DATA;
#1 = DIRECTION ( 'NONE',  ( 3.098866694770613061E-15, 0.000000000000000000, 1.000000000000000000 ) ) ;
#2 = DIRECTION ( 'NONE',  ( 3.098866694770613061E-15, 0.000000000000000000, 1.000000000000000000 ) ) ;
#3 = CC_DESIGN_SECURITY_CLASSIFICATION ( #133, ( #246 ) ) ;
#4 = EDGE_CURVE ( 'NONE', #91, #88, #57, .T. ) ;
#5 = DIRECTION ( 'NONE',  ( 0.000000000000000000, 0.000000000000000000, 1.000000000000000000 ) ) ;
#6 = CARTESIAN_POINT ( 'NONE',  ( -1.177569344012833231E-13, 0.000000000000000000, -38.00000000000000000 ) ) ;
#7 = APPLICATION_CONTEXT ( 'configuration controlled 3d designs of mechanical parts and assemblies' ) ;
#8 = CLOSED_SHELL ( 'NONE', ( #54, #235, #248, #62, #213, #187 ) ) ;
#9 = DATE_AND_TIME ( #157, #217 ) ;
#10 = VERTEX_POINT ( 'NONE', #98 ) ;
#11 = EDGE_CURVE ( 'NONE', #88, #202, #27, .T. ) ;
#12 = SECURITY_CLASSIFICATION_LEVEL ( 'unclassified' ) ;
#13 = ORIENTED_EDGE ( 'NONE', *, *, #174, .F. ) ;
#14 = APPROVAL_PERSON_ORGANIZATION ( #26, #154, #210 ) ;
#15 = CC_DESIGN_DATE_AND_TIME_ASSIGNMENT ( #199, #122, ( #133 ) ) ;
#16 = APPROVAL_STATUS ( 'not_yet_approved' ) ;
#17 = CARTESIAN_POINT ( 'NONE',  ( -13.85000000000000142, 0.000000000000000000, -5.266075498726727807E-15 ) ) ;
#18 = CC_DESIGN_APPROVAL ( #245, ( #133 ) ) ;
#19 = DIRECTION ( 'NONE',  ( -1.000000000000000000, 0.000000000000000000, 3.098866694770613455E-15 ) ) ;
#20 = CARTESIAN_POINT ( 'NONE',  ( 0.000000000000000000, -2.957522019940857930E-15, 0.000000000000000000 ) ) ;
#21 = VERTEX_POINT ( 'NONE', #141 ) ;
#22 = AXIS2_PLACEMENT_3D ( 'NONE', #113, #55, #128 ) ;
#23 = CARTESIAN_POINT ( 'NONE',  ( -38.00000000000000000, 0.000000000000000000, -2.697624337213327404E-15 ) ) ;
#24 = PRODUCT_DEFINITION_SHAPE ( 'NONE', 'NONE',  #222 ) ;
#25 = PERSON_AND_ORGANIZATION ( #201, #104 ) ;
#26 = PERSON_AND_ORGANIZATION ( #201, #104 ) ;
#27 = CIRCLE ( 'NONE', #22, 22.14999999999999503 ) ;
#28 = DIRECTION ( 'NONE',  ( -1.000000000000000000, 0.000000000000000000, 3.098866694770613455E-15 ) ) ;
#29 = DESIGN_CONTEXT ( 'detailed design', #7, 'design' ) ;
#30 = PRODUCT_RELATED_PRODUCT_CATEGORY ( 'detail', '', ( #211 ) ) ;
#31 = ORIENTED_EDGE ( 'NONE', *, *, #46, .T. ) ;
#32 = LOCAL_TIME ( 13, 6, 3.000000000000000000, #241 ) ;
#33 = AXIS2_PLACEMENT_3D ( 'NONE', #92, #36, #185 ) ;
#34 = VERTEX_POINT ( 'NONE', #111 ) ;
#35 = DIRECTION ( 'NONE',  ( -7.099011413719282643E-17, 0.000000000000000000, 1.000000000000000000 ) ) ;
#36 = DIRECTION ( 'NONE',  ( 0.000000000000000000, 1.000000000000000000, 0.000000000000000000 ) ) ;
#37 = CIRCLE ( 'NONE', #93, 62.14999999999999858 ) ;
#38 = PLANE ( 'NONE',  #189 ) ;
#39 = EDGE_CURVE ( 'NONE', #21, #179, #37, .T. ) ;
#40 = FACE_BOUND ( 'NONE', #195, .T. ) ;
#41 = CIRCLE ( 'NONE', #167, 15.85000000000000320 ) ;
#42 = DIRECTION ( 'NONE',  ( 0.000000000000000000, 0.000000000000000000, 1.000000000000000000 ) ) ;
#43 = DIRECTION ( 'NONE',  ( 0.000000000000000000, 1.000000000000000000, 0.000000000000000000 ) ) ;
#44 = AXIS2_PLACEMENT_3D ( 'NONE', #165, #43, #5 ) ;
#45 = PLANE ( 'NONE',  #61 ) ;
#46 = EDGE_CURVE ( 'NONE', #10, #21, #243, .T. ) ;
#47 = PERSON_AND_ORGANIZATION_ROLE ( 'creator' ) ;
#48 = ORIENTED_EDGE ( 'NONE', *, *, #4, .F. ) ;
#49 = CIRCLE ( 'NONE', #159, 24.14999999999999858 ) ;
#50 = SHAPE_DEFINITION_REPRESENTATION ( #24, #182 ) ;
#51 = PERSON_AND_ORGANIZATION ( #201, #104 ) ;
#52 = EDGE_LOOP ( 'NONE', ( #77, #73, #87, #13 ) ) ;
#53 = DIRECTION ( 'NONE',  ( 0.000000000000000000, 1.000000000000000000, 0.000000000000000000 ) ) ;
#54 = ADVANCED_FACE ( 'NONE', ( #249 ), #144, .F. ) ;
#55 = DIRECTION ( 'NONE',  ( -7.099011413719282643E-17, 0.000000000000000000, 1.000000000000000000 ) ) ;
#56 = ORIENTED_EDGE ( 'NONE', *, *, #46, .F. ) ;
#57 = CIRCLE ( 'NONE', #33, 60.14999999999999858 ) ;
#58 = DIRECTION ( 'NONE',  ( 1.000000000000000000, 0.000000000000000000, 7.099011413719282643E-17 ) ) ;
#59 = ORIENTED_EDGE ( 'NONE', *, *, #174, .T. ) ;
#60 = DIRECTION ( 'NONE',  ( 3.098866694770613061E-15, 0.000000000000000000, 1.000000000000000000 ) ) ;
#61 = AXIS2_PLACEMENT_3D ( 'NONE', #186, #78, #60 ) ;
#62 = ADVANCED_FACE ( 'NONE', ( #40, #164 ), #38, .T. ) ;
#63 = FACE_OUTER_BOUND ( 'NONE', #250, .T. ) ;
#64 =( NAMED_UNIT ( * ) SI_UNIT ( $, .STERADIAN. ) SOLID_ANGLE_UNIT ( ) );
#65 = LOCAL_TIME ( 13, 6, 3.000000000000000000, #219 ) ;
#66 = COORDINATED_UNIVERSAL_TIME_OFFSET ( 1, 0, .AHEAD. ) ;
#67 = UNCERTAINTY_MEASURE_WITH_UNIT (LENGTH_MEASURE( 1.000000000000000082E-05 ), #102, 'distance_accuracy_value', 'NONE');
#68 = PERSON_AND_ORGANIZATION_ROLE ( 'creator' ) ;
#69 = PERSON_AND_ORGANIZATION ( #201, #104 ) ;
#70 = ORIENTED_EDGE ( 'NONE', *, *, #11, .T. ) ;
#71 = APPROVAL ( #108, 'UNSPECIFIED' ) ;
#72 = AXIS2_PLACEMENT_3D ( 'NONE', #166, #149, #2 ) ;
#73 = ORIENTED_EDGE ( 'NONE', *, *, #208, .T. ) ;
#74 = CARTESIAN_POINT ( 'NONE',  ( 0.000000000000000000, -2.712592660111386845E-15, 0.000000000000000000 ) ) ;
#75 = DIRECTION ( 'NONE',  ( -7.099011413719283875E-17, 0.000000000000000000, 1.000000000000000000 ) ) ;
#76 = CIRCLE ( 'NONE', #89, 13.85000000000000142 ) ;
#77 = ORIENTED_EDGE ( 'NONE', *, *, #39, .F. ) ;
#78 = DIRECTION ( 'NONE',  ( -1.000000000000000000, 0.000000000000000000, 3.098866694770613061E-15 ) ) ;
#79 = FACE_OUTER_BOUND ( 'NONE', #52, .T. ) ;
#80 =( GEOMETRIC_REPRESENTATION_CONTEXT ( 3 ) GLOBAL_UNCERTAINTY_ASSIGNED_CONTEXT ( ( #67 ) ) GLOBAL_UNIT_ASSIGNED_CONTEXT ( ( #102, #232, #64 ) ) REPRESENTATION_CONTEXT ( 'NONE', 'WORKASPACE' ) );
#81 = DIRECTION ( 'NONE',  ( -7.099011413719282643E-17, 0.000000000000000000, 1.000000000000000000 ) ) ;
#82 = CALENDAR_DATE ( 2024, 27, 8 ) ;
#83 = PERSON_AND_ORGANIZATION_ROLE ( 'design_owner' ) ;
#84 = CALENDAR_DATE ( 2024, 27, 8 ) ;
#85 = APPROVAL_PERSON_ORGANIZATION ( #51, #71, #239 ) ;
#86 = PERSON_AND_ORGANIZATION_ROLE ( 'classification_officer' ) ;
#87 = ORIENTED_EDGE ( 'NONE', *, *, #170, .T. ) ;
#88 = VERTEX_POINT ( 'NONE', #253 ) ;
#89 = AXIS2_PLACEMENT_3D ( 'NONE', #20, #143, #229 ) ;
#90 = APPROVAL_DATE_TIME ( #9, #71 ) ;
#91 = VERTEX_POINT ( 'NONE', #200 ) ;
#92 = CARTESIAN_POINT ( 'NONE',  ( 0.000000000000000000, 0.000000000000000000, 0.000000000000000000 ) ) ;
#93 = AXIS2_PLACEMENT_3D ( 'NONE', #145, #180, #183 ) ;
#94 = CARTESIAN_POINT ( 'NONE',  ( -38.00000000000000000, 0.000000000000000000, -6.980486755139934999E-15 ) ) ;
#95 = CC_DESIGN_DATE_AND_TIME_ASSIGNMENT ( #196, #137, ( #222 ) ) ;
#96 = DIRECTION ( 'NONE',  ( 0.000000000000000000, 1.000000000000000000, 0.000000000000000000 ) ) ;
#97 = VERTEX_POINT ( 'NONE', #17 ) ;
#98 = CARTESIAN_POINT ( 'NONE',  ( -3.863644130464640345E-14, 0.000000000000000000, -13.85000000000000142 ) ) ;
#99 = FACE_OUTER_BOUND ( 'NONE', #252, .T. ) ;
#100 = TOROIDAL_SURFACE ( 'NONE', #172, 38.00000000000000000, 22.14999999999999503 ) ;
#101 = DIRECTION ( 'NONE',  ( 3.098866694770613061E-15, 0.000000000000000000, 1.000000000000000000 ) ) ;
#102 =( LENGTH_UNIT ( ) NAMED_UNIT ( * ) SI_UNIT ( .MILLI., .METRE. ) );
#103 = APPROVAL_DATE_TIME ( #152, #245 ) ;
#104 = ORGANIZATION ( 'UNSPECIFIED', 'UNSPECIFIED', '' ) ;
#105 = PERSON_AND_ORGANIZATION ( #201, #104 ) ;
#106 = CC_DESIGN_PERSON_AND_ORGANIZATION_ASSIGNMENT ( #105, #194, ( #246 ) ) ;
#107 = EDGE_LOOP ( 'NONE', ( #156, #221, #70, #197 ) ) ;
#108 = APPROVAL_STATUS ( 'not_yet_approved' ) ;
#109 = ORIENTED_EDGE ( 'NONE', *, *, #11, .F. ) ;
#110 = CARTESIAN_POINT ( 'NONE',  ( -62.14999999999999858, 0.000000000000000000, -8.694898011553141402E-15 ) ) ;
#111 = CARTESIAN_POINT ( 'NONE',  ( -4.911703711211424348E-14, 0.000000000000000000, -15.85000000000000320 ) ) ;
#112 = APPROVAL_PERSON_ORGANIZATION ( #218, #245, #173 ) ;
#113 = CARTESIAN_POINT ( 'NONE',  ( -38.00000000000000000, 0.000000000000000000, -2.697624337213327404E-15 ) ) ;
#114 = CARTESIAN_POINT ( 'NONE',  ( -38.00000000000000000, 0.000000000000000000, -6.980486755139934999E-15 ) ) ;
#115 = ORIENTED_EDGE ( 'NONE', *, *, #226, .F. ) ;
#116 = CIRCLE ( 'NONE', #124, 24.14999999999999858 ) ;
#117 = EDGE_CURVE ( 'NONE', #97, #179, #49, .T. ) ;
#118 = DIRECTION ( 'NONE',  ( 0.000000000000000000, 0.000000000000000000, 1.000000000000000000 ) ) ;
#119 = APPLICATION_PROTOCOL_DEFINITION ( 'international standard', 'config_control_design', 1994, #190 ) ;
#120 = CC_DESIGN_PERSON_AND_ORGANIZATION_ASSIGNMENT ( #69, #86, ( #133 ) ) ;
#121 = AXIS2_PLACEMENT_3D ( 'NONE', #23, #81, #236 ) ;
#122 = DATE_TIME_ROLE ( 'classification_date' ) ;
#123 = CC_DESIGN_PERSON_AND_ORGANIZATION_ASSIGNMENT ( #25, #83, ( #211 ) ) ;
#124 = AXIS2_PLACEMENT_3D ( 'NONE', #132, #35, #58 ) ;
#125 = ORIENTED_EDGE ( 'NONE', *, *, #226, .T. ) ;
#126 = TOROIDAL_SURFACE ( 'NONE', #44, 38.00000000000000000, 24.14999999999999858 ) ;
#127 = CARTESIAN_POINT ( 'NONE',  ( 0.000000000000000000, 0.000000000000000000, 0.000000000000000000 ) ) ;
#128 = DIRECTION ( 'NONE',  ( 1.000000000000000000, 0.000000000000000000, 7.099011413719283875E-17 ) ) ;
#129 = ORIENTED_EDGE ( 'NONE', *, *, #240, .T. ) ;
#130 = CC_DESIGN_APPROVAL ( #154, ( #222 ) ) ;
#131 = EDGE_LOOP ( 'NONE', ( #129, #162 ) ) ;
#132 = CARTESIAN_POINT ( 'NONE',  ( -38.00000000000000000, 0.000000000000000000, -6.980486755139934999E-15 ) ) ;
#133 = SECURITY_CLASSIFICATION ( '', '', #12 ) ;
#134 = EDGE_CURVE ( 'NONE', #34, #202, #41, .T. ) ;
#135 = DIRECTION ( 'NONE',  ( -1.000000000000000000, 0.000000000000000000, 3.098866694770613455E-15 ) ) ;
#136 = COORDINATED_UNIVERSAL_TIME_OFFSET ( 1, 0, .AHEAD. ) ;
#137 = DATE_TIME_ROLE ( 'creation_date' ) ;
#138 = DIRECTION ( 'NONE',  ( -7.099011413719282643E-17, 0.000000000000000000, 1.000000000000000000 ) ) ;
#139 = CIRCLE ( 'NONE', #176, 22.14999999999999503 ) ;
#140 = ORIENTED_EDGE ( 'NONE', *, *, #240, .F. ) ;
#141 = CARTESIAN_POINT ( 'NONE',  ( -1.883117026620670182E-13, 0.000000000000000000, -62.14999999999999858 ) ) ;
#142 = MANIFOLD_SOLID_BREP ( 'Wandung1', #8 ) ;
#143 = DIRECTION ( 'NONE',  ( 0.000000000000000000, 1.000000000000000000, 0.000000000000000000 ) ) ;
#144 = TOROIDAL_SURFACE ( 'NONE', #207, 38.00000000000000000, 22.14999999999999503 ) ;
#145 = CARTESIAN_POINT ( 'NONE',  ( 0.000000000000000000, 0.000000000000000000, 0.000000000000000000 ) ) ;
#146 = CC_DESIGN_PERSON_AND_ORGANIZATION_ASSIGNMENT ( #216, #68, ( #246 ) ) ;
#147 = DIRECTION ( 'NONE',  ( 0.000000000000000000, 1.000000000000000000, 0.000000000000000000 ) ) ;
#148 = APPROVAL_STATUS ( 'not_yet_approved' ) ;
#149 = DIRECTION ( 'NONE',  ( -1.000000000000000000, 0.000000000000000000, 3.098866694770613455E-15 ) ) ;
#150 = CALENDAR_DATE ( 2024, 27, 8 ) ;
#151 = CC_DESIGN_PERSON_AND_ORGANIZATION_ASSIGNMENT ( #192, #47, ( #222 ) ) ;
#152 = DATE_AND_TIME ( #84, #193 ) ;
#153 = ORIENTED_EDGE ( 'NONE', *, *, #170, .F. ) ;
#154 = APPROVAL ( #148, 'UNSPECIFIED' ) ;
#155 = AXIS2_PLACEMENT_3D ( 'NONE', #230, #19, #205 ) ;
#156 = ORIENTED_EDGE ( 'NONE', *, *, #204, .F. ) ;
#157 = CALENDAR_DATE ( 2024, 27, 8 ) ;
#158 = EDGE_LOOP ( 'NONE', ( #175, #59 ) ) ;
#159 = AXIS2_PLACEMENT_3D ( 'NONE', #94, #138, #224 ) ;
#160 = DIRECTION ( 'NONE',  ( 1.000000000000000000, 0.000000000000000000, 7.099011413719283875E-17 ) ) ;
#161 = ORIENTED_EDGE ( 'NONE', *, *, #134, .T. ) ;
#162 = ORIENTED_EDGE ( 'NONE', *, *, #204, .T. ) ;
#163 = AXIS2_PLACEMENT_3D ( 'NONE', #212, #206, #42 ) ;
#164 = FACE_OUTER_BOUND ( 'NONE', #158, .T. ) ;
#165 = CARTESIAN_POINT ( 'NONE',  ( 0.000000000000000000, 0.000000000000000000, 0.000000000000000000 ) ) ;
#166 = CARTESIAN_POINT ( 'NONE',  ( -1.177569344012833231E-13, 0.000000000000000000, -38.00000000000000000 ) ) ;
#167 = AXIS2_PLACEMENT_3D ( 'NONE', #74, #53, #227 ) ;
#168 = FACE_BOUND ( 'NONE', #131, .T. ) ;
#169 = DIRECTION ( 'NONE',  ( 1.000000000000000000, 0.000000000000000000, 0.000000000000000000 ) ) ;
#170 = EDGE_CURVE ( 'NONE', #10, #97, #76, .T. ) ;
#171 = CARTESIAN_POINT ( 'NONE',  ( 0.000000000000000000, 0.000000000000000000, 0.000000000000000000 ) ) ;
#172 = AXIS2_PLACEMENT_3D ( 'NONE', #171, #147, #118 ) ;
#173 = APPROVAL_ROLE ( '' ) ;
#174 = EDGE_CURVE ( 'NONE', #179, #97, #116, .T. ) ;
#175 = ORIENTED_EDGE ( 'NONE', *, *, #117, .T. ) ;
#176 = AXIS2_PLACEMENT_3D ( 'NONE', #6, #28, #1 ) ;
#177 = CALENDAR_DATE ( 2024, 27, 8 ) ;
#178 = ORIENTED_EDGE ( 'NONE', *, *, #39, .T. ) ;
#179 = VERTEX_POINT ( 'NONE', #110 ) ;
#180 = DIRECTION ( 'NONE',  ( 0.000000000000000000, 1.000000000000000000, 0.000000000000000000 ) ) ;
#181 = CIRCLE ( 'NONE', #198, 24.14999999999999858 ) ;
#182 = ADVANCED_BREP_SHAPE_REPRESENTATION ( '3D_R1620_48.3x2_173630130_173631120', ( #142, #251 ), #80 ) ;
#183 = DIRECTION ( 'NONE',  ( 0.000000000000000000, 0.000000000000000000, 1.000000000000000000 ) ) ;
#184 = FACE_OUTER_BOUND ( 'NONE', #242, .T. ) ;
#185 = DIRECTION ( 'NONE',  ( 0.000000000000000000, 0.000000000000000000, 1.000000000000000000 ) ) ;
#186 = CARTESIAN_POINT ( 'NONE',  ( -1.134740719833567076E-13, 0.000000000000000000, -38.00000000000000000 ) ) ;
#187 = ADVANCED_FACE ( 'NONE', ( #184 ), #100, .F. ) ;
#188 = CARTESIAN_POINT ( 'NONE',  ( 0.000000000000000000, 0.000000000000000000, 0.000000000000000000 ) ) ;
#189 = AXIS2_PLACEMENT_3D ( 'NONE', #114, #75, #160 ) ;
#190 = APPLICATION_CONTEXT ( 'configuration controlled 3d designs of mechanical parts and assemblies' ) ;
#191 = MECHANICAL_CONTEXT ( 'NONE', #190, 'mechanical' ) ;
#192 = PERSON_AND_ORGANIZATION ( #201, #104 ) ;
#193 = LOCAL_TIME ( 13, 6, 3.000000000000000000, #66 ) ;
#194 = PERSON_AND_ORGANIZATION_ROLE ( 'design_supplier' ) ;
#195 = EDGE_LOOP ( 'NONE', ( #115, #109 ) ) ;
#196 = DATE_AND_TIME ( #150, #65 ) ;
#197 = ORIENTED_EDGE ( 'NONE', *, *, #134, .F. ) ;
#198 = AXIS2_PLACEMENT_3D ( 'NONE', #234, #135, #101 ) ;
#199 = DATE_AND_TIME ( #177, #32 ) ;
#200 = CARTESIAN_POINT ( 'NONE',  ( -1.863968316904523775E-13, 0.000000000000000000, -60.14999999999999858 ) ) ;
#201 = PERSON ( 'UNSPECIFIED', 'UNSPECIFIED', 'UNSPECIFIED', ('UNSPECIFIED'), ('UNSPECIFIED'), ('UNSPECIFIED') ) ;
#202 = VERTEX_POINT ( 'NONE', #231 ) ;
#203 = DIRECTION ( 'NONE',  ( 0.000000000000000000, 0.000000000000000000, 1.000000000000000000 ) ) ;
#204 = EDGE_CURVE ( 'NONE', #91, #34, #228, .T. ) ;
#205 = DIRECTION ( 'NONE',  ( 3.098866694770613061E-15, 0.000000000000000000, 1.000000000000000000 ) ) ;
#206 = DIRECTION ( 'NONE',  ( 0.000000000000000000, 1.000000000000000000, 0.000000000000000000 ) ) ;
#207 = AXIS2_PLACEMENT_3D ( 'NONE', #127, #96, #203 ) ;
#208 = EDGE_CURVE ( 'NONE', #21, #10, #181, .T. ) ;
#209 = DIRECTION ( 'NONE',  ( 0.000000000000000000, 0.000000000000000000, 1.000000000000000000 ) ) ;
#210 = APPROVAL_ROLE ( '' ) ;
#211 = PRODUCT ( '3D_R1620_48.3x2_173630130_173631120', '3D_R1620_48.3x2_173630130_173631120', '', ( #191 ) ) ;
#212 = CARTESIAN_POINT ( 'NONE',  ( 0.000000000000000000, 0.000000000000000000, 0.000000000000000000 ) ) ;
#213 = ADVANCED_FACE ( 'NONE', ( #168, #99 ), #45, .F. ) ;
#214 = CIRCLE ( 'NONE', #121, 22.14999999999999503 ) ;
#215 = DATE_AND_TIME ( #82, #238 ) ;
#216 = PERSON_AND_ORGANIZATION ( #201, #104 ) ;
#217 = LOCAL_TIME ( 13, 6, 3.000000000000000000, #220 ) ;
#218 = PERSON_AND_ORGANIZATION ( #201, #104 ) ;
#219 = COORDINATED_UNIVERSAL_TIME_OFFSET ( 1, 0, .AHEAD. ) ;
#220 = COORDINATED_UNIVERSAL_TIME_OFFSET ( 1, 0, .AHEAD. ) ;
#221 = ORIENTED_EDGE ( 'NONE', *, *, #4, .T. ) ;
#222 = PRODUCT_DEFINITION ( 'UNKNOWN', '', #246, #29 ) ;
#223 = CC_DESIGN_APPROVAL ( #71, ( #246 ) ) ;
#224 = DIRECTION ( 'NONE',  ( 1.000000000000000000, 0.000000000000000000, 7.099011413719282643E-17 ) ) ;
#225 = ORIENTED_EDGE ( 'NONE', *, *, #208, .F. ) ;
#226 = EDGE_CURVE ( 'NONE', #202, #88, #214, .T. ) ;
#227 = DIRECTION ( 'NONE',  ( 0.000000000000000000, 0.000000000000000000, 1.000000000000000000 ) ) ;
#228 = CIRCLE ( 'NONE', #72, 22.14999999999999503 ) ;
#229 = DIRECTION ( 'NONE',  ( 0.000000000000000000, 0.000000000000000000, 1.000000000000000000 ) ) ;
#230 = CARTESIAN_POINT ( 'NONE',  ( -1.134740719833567076E-13, 0.000000000000000000, -38.00000000000000000 ) ) ;
#231 = CARTESIAN_POINT ( 'NONE',  ( -15.85000000000000320, 0.000000000000000000, -1.125193309074506457E-15 ) ) ;
#232 =( NAMED_UNIT ( * ) PLANE_ANGLE_UNIT ( ) SI_UNIT ( $, .RADIAN. ) );
#233 = TOROIDAL_SURFACE ( 'NONE', #163, 38.00000000000000000, 24.14999999999999858 ) ;
#234 = CARTESIAN_POINT ( 'NONE',  ( -1.134740719833567076E-13, 0.000000000000000000, -38.00000000000000000 ) ) ;
#235 = ADVANCED_FACE ( 'NONE', ( #63 ), #126, .T. ) ;
#236 = DIRECTION ( 'NONE',  ( 1.000000000000000000, 0.000000000000000000, 7.099011413719283875E-17 ) ) ;
#237 = APPLICATION_PROTOCOL_DEFINITION ( 'international standard', 'config_control_design', 1994, #7 ) ;
#238 = LOCAL_TIME ( 13, 6, 3.000000000000000000, #136 ) ;
#239 = APPROVAL_ROLE ( '' ) ;
#240 = EDGE_CURVE ( 'NONE', #34, #91, #139, .T. ) ;
#241 = COORDINATED_UNIVERSAL_TIME_OFFSET ( 1, 0, .AHEAD. ) ;
#242 = EDGE_LOOP ( 'NONE', ( #48, #140, #161, #125 ) ) ;
#243 = CIRCLE ( 'NONE', #155, 24.14999999999999858 ) ;
#244 = APPROVAL_DATE_TIME ( #215, #154 ) ;
#245 = APPROVAL ( #16, 'UNSPECIFIED' ) ;
#246 = PRODUCT_DEFINITION_FORMATION_WITH_SPECIFIED_SOURCE ( 'ANY', '', #211, .NOT_KNOWN. ) ;
#247 = ORIENTED_EDGE ( 'NONE', *, *, #117, .F. ) ;
#248 = ADVANCED_FACE ( 'NONE', ( #79 ), #233, .T. ) ;
#249 = FACE_OUTER_BOUND ( 'NONE', #107, .T. ) ;
#250 = EDGE_LOOP ( 'NONE', ( #31, #178, #247, #153 ) ) ;
#251 = AXIS2_PLACEMENT_3D ( 'NONE', #188, #209, #169 ) ;
#252 = EDGE_LOOP ( 'NONE', ( #56, #225 ) ) ;
#253 = CARTESIAN_POINT ( 'NONE',  ( -60.14999999999999858, 0.000000000000000000, -4.270055365352148155E-15 ) ) ;
ENDSEC;
END-ISO-10303-21;
