ISO-10303-21;
HEADER;
FILE_DESCRIPTION (( 'STEP AP203' ),
    '1' );
FILE_NAME ('3D_R1655_48.3x3.2_17362190.STEP',
    '2024-08-05T08:51:51',
    ( '' ),
    ( '' ),
    'SwSTEP 2.0',
    'SolidWorks 2024',
    '' );
FILE_SCHEMA (( 'CONFIG_CONTROL_DESIGN' ));
ENDSEC;

DATA;
#1 = APPROVAL ( #234, 'UNSPECIFIED' ) ;
#2 = DATE_TIME_ROLE ( 'classification_date' ) ;
#3 = APPROVAL_STATUS ( 'not_yet_approved' ) ;
#4 = FACE_OUTER_BOUND ( 'NONE', #87, .T. ) ;
#5 = DIRECTION ( 'NONE',  ( 0.000000000000000000, 1.000000000000000000, 0.000000000000000000 ) ) ;
#6 = DATE_AND_TIME ( #26, #129 ) ;
#7 = DIRECTION ( 'NONE',  ( 2.998440459291938353E-15, 0.000000000000000000, 1.000000000000000000 ) ) ;
#8 = CARTESIAN_POINT ( 'NONE',  ( 0.000000000000000000, 0.000000000000000000, 0.000000000000000000 ) ) ;
#9 = DIRECTION ( 'NONE',  ( 1.000000000000000000, 0.000000000000000000, 1.714163496158702705E-16 ) ) ;
#10 =( LENGTH_UNIT ( ) NAMED_UNIT ( * ) SI_UNIT ( .MILLI., .METRE. ) );
#11 = ORIENTED_EDGE ( 'NONE', *, *, #151, .F. ) ;
#12 = MECHANICAL_CONTEXT ( 'NONE', #213, 'mechanical' ) ;
#13 = AXIS2_PLACEMENT_3D ( 'NONE', #202, #182, #185 ) ;
#14 = CARTESIAN_POINT ( 'NONE',  ( -3.225052572158559418E-13, 0.000000000000000000, -108.0000000000000000 ) ) ;
#15 = ADVANCED_FACE ( 'NONE', ( #104, #35 ), #180, .F. ) ;
#16 = ORIENTED_EDGE ( 'NONE', *, *, #241, .T. ) ;
#17 = AXIS2_PLACEMENT_3D ( 'NONE', #214, #100, #83 ) ;
#18 = CARTESIAN_POINT ( 'NONE',  ( -3.225052572158559418E-13, 0.000000000000000000, -108.0000000000000000 ) ) ;
#19 = ADVANCED_FACE ( 'NONE', ( #252 ), #45, .F. ) ;
#20 = EDGE_CURVE ( 'NONE', #200, #85, #58, .T. ) ;
#21 = DATE_AND_TIME ( #119, #51 ) ;
#22 = DIRECTION ( 'NONE',  ( 0.000000000000000000, 1.000000000000000000, 0.000000000000000000 ) ) ;
#23 = ORGANIZATION ( 'UNSPECIFIED', 'UNSPECIFIED', '' ) ;
#24 = DATE_TIME_ROLE ( 'creation_date' ) ;
#25 = PERSON_AND_ORGANIZATION ( #195, #23 ) ;
#26 = CALENDAR_DATE ( 2024, 5, 8 ) ;
#27 = CARTESIAN_POINT ( 'NONE',  ( 0.000000000000000000, 0.000000000000000000, 0.000000000000000000 ) ) ;
#28 = ORIENTED_EDGE ( 'NONE', *, *, #20, .T. ) ;
#29 = FACE_OUTER_BOUND ( 'NONE', #152, .T. ) ;
#30 = VERTEX_POINT ( 'NONE', #116 ) ;
#31 = APPLICATION_PROTOCOL_DEFINITION ( 'international standard', 'config_control_design', 1994, #213 ) ;
#32 = ORIENTED_EDGE ( 'NONE', *, *, #98, .F. ) ;
#33 = DIRECTION ( 'NONE',  ( -1.714163496158702951E-16, 0.000000000000000000, 1.000000000000000000 ) ) ;
#34 = CC_DESIGN_PERSON_AND_ORGANIZATION_ASSIGNMENT ( #62, #141, ( #105 ) ) ;
#35 = FACE_OUTER_BOUND ( 'NONE', #136, .T. ) ;
#36 =( GEOMETRIC_REPRESENTATION_CONTEXT ( 3 ) GLOBAL_UNCERTAINTY_ASSIGNED_CONTEXT ( ( #132 ) ) GLOBAL_UNIT_ASSIGNED_CONTEXT ( ( #10, #161, #107 ) ) REPRESENTATION_CONTEXT ( 'NONE', 'WORKASPACE' ) );
#37 = ORIENTED_EDGE ( 'NONE', *, *, #70, .T. ) ;
#38 = DIRECTION ( 'NONE',  ( 1.000000000000000000, 0.000000000000000000, 1.714163496158703198E-16 ) ) ;
#39 = DATE_AND_TIME ( #126, #96 ) ;
#40 = APPLICATION_PROTOCOL_DEFINITION ( 'international standard', 'config_control_design', 1994, #251 ) ;
#41 = PRODUCT_DEFINITION_FORMATION_WITH_SPECIFIED_SOURCE ( 'ANY', '', #105, .NOT_KNOWN. ) ;
#42 = PERSON_AND_ORGANIZATION ( #195, #23 ) ;
#43 = FACE_OUTER_BOUND ( 'NONE', #134, .T. ) ;
#44 = CARTESIAN_POINT ( 'NONE',  ( -87.05000000000001137, 0.000000000000000000, -1.492179323406150880E-14 ) ) ;
#45 = TOROIDAL_SURFACE ( 'NONE', #222, 108.0000000000000000, 20.94999999999998863 ) ;
#46 = CC_DESIGN_PERSON_AND_ORGANIZATION_ASSIGNMENT ( #239, #242, ( #120 ) ) ;
#47 = FACE_BOUND ( 'NONE', #187, .T. ) ;
#48 = DIRECTION ( 'NONE',  ( 0.000000000000000000, 0.000000000000000000, 1.000000000000000000 ) ) ;
#49 = CIRCLE ( 'NONE', #79, 128.9499999999999886 ) ;
#50 = CALENDAR_DATE ( 2024, 5, 8 ) ;
#51 = LOCAL_TIME ( 10, 51, 51.00000000000000000, #244 ) ;
#52 = EDGE_LOOP ( 'NONE', ( #55, #226, #148, #109 ) ) ;
#53 = EDGE_CURVE ( 'NONE', #68, #30, #125, .T. ) ;
#54 = ORIENTED_EDGE ( 'NONE', *, *, #157, .T. ) ;
#55 = ORIENTED_EDGE ( 'NONE', *, *, #53, .F. ) ;
#56 = CARTESIAN_POINT ( 'NONE',  ( 0.000000000000000000, 0.000000000000000000, 0.000000000000000000 ) ) ;
#57 = CC_DESIGN_APPROVAL ( #1, ( #120 ) ) ;
#58 = CIRCLE ( 'NONE', #198, 20.94999999999998153 ) ;
#59 = ADVANCED_BREP_SHAPE_REPRESENTATION ( '3D_R1655_48.3x3.2_17362190', ( #133, #207 ), #36 ) ;
#60 = TOROIDAL_SURFACE ( 'NONE', #179, 108.0000000000000000, 20.94999999999998863 ) ;
#61 = CARTESIAN_POINT ( 'NONE',  ( -3.866488972256951889E-13, 0.000000000000000000, -128.9499999999999886 ) ) ;
#62 = PERSON_AND_ORGANIZATION ( #195, #23 ) ;
#63 = DATE_AND_TIME ( #50, #111 ) ;
#64 = DIRECTION ( 'NONE',  ( 0.000000000000000000, 1.000000000000000000, 0.000000000000000000 ) ) ;
#65 = APPROVAL_ROLE ( '' ) ;
#66 = DIRECTION ( 'NONE',  ( -1.714163496158702951E-16, 0.000000000000000000, 1.000000000000000000 ) ) ;
#67 = CARTESIAN_POINT ( 'NONE',  ( -3.949175943077561860E-13, 0.000000000000000000, -132.1499999999999773 ) ) ;
#68 = VERTEX_POINT ( 'NONE', #61 ) ;
#69 = CARTESIAN_POINT ( 'NONE',  ( 0.000000000000000000, -2.957522019940857141E-15, 0.000000000000000000 ) ) ;
#70 = EDGE_CURVE ( 'NONE', #30, #68, #71, .T. ) ;
#71 = CIRCLE ( 'NONE', #208, 20.94999999999998153 ) ;
#72 = PERSON_AND_ORGANIZATION ( #195, #23 ) ;
#73 = CIRCLE ( 'NONE', #108, 24.14999999999999147 ) ;
#74 = VERTEX_POINT ( 'NONE', #118 ) ;
#75 = ORIENTED_EDGE ( 'NONE', *, *, #53, .T. ) ;
#76 = CC_DESIGN_APPROVAL ( #169, ( #101 ) ) ;
#77 = ADVANCED_FACE ( 'NONE', ( #43 ), #193, .T. ) ;
#78 = AXIS2_PLACEMENT_3D ( 'NONE', #14, #90, #232 ) ;
#79 = AXIS2_PLACEMENT_3D ( 'NONE', #240, #22, #163 ) ;
#80 = COORDINATED_UNIVERSAL_TIME_OFFSET ( 1, 0, .AHEAD. ) ;
#81 = AXIS2_PLACEMENT_3D ( 'NONE', #140, #66, #215 ) ;
#82 = SHAPE_DEFINITION_REPRESENTATION ( #197, #59 ) ;
#83 = DIRECTION ( 'NONE',  ( 0.000000000000000000, 0.000000000000000000, 1.000000000000000000 ) ) ;
#84 = FACE_OUTER_BOUND ( 'NONE', #154, .T. ) ;
#85 = VERTEX_POINT ( 'NONE', #220 ) ;
#86 = ORIENTED_EDGE ( 'NONE', *, *, #217, .T. ) ;
#87 = EDGE_LOOP ( 'NONE', ( #16, #183 ) ) ;
#88 = CIRCLE ( 'NONE', #236, 24.14999999999999147 ) ;
#89 = LOCAL_TIME ( 10, 51, 51.00000000000000000, #80 ) ;
#90 = DIRECTION ( 'NONE',  ( -1.000000000000000000, 0.000000000000000000, 2.998440459291936381E-15 ) ) ;
#91 = ORIENTED_EDGE ( 'NONE', *, *, #177, .T. ) ;
#92 = EDGE_CURVE ( 'NONE', #68, #85, #49, .T. ) ;
#93 = DIRECTION ( 'NONE',  ( 0.000000000000000000, 1.000000000000000000, 0.000000000000000000 ) ) ;
#94 = DIRECTION ( 'NONE',  ( -1.000000000000000000, 0.000000000000000000, 2.998440459291936381E-15 ) ) ;
#95 = DIRECTION ( 'NONE',  ( -1.000000000000000000, 0.000000000000000000, 2.998440459291936381E-15 ) ) ;
#96 = LOCAL_TIME ( 10, 51, 51.00000000000000000, #225 ) ;
#97 = CIRCLE ( 'NONE', #13, 24.14999999999999147 ) ;
#98 = EDGE_CURVE ( 'NONE', #206, #74, #250, .T. ) ;
#99 = PERSON_AND_ORGANIZATION ( #195, #23 ) ;
#100 = DIRECTION ( 'NONE',  ( 0.000000000000000000, 1.000000000000000000, 0.000000000000000000 ) ) ;
#101 = SECURITY_CLASSIFICATION ( '', '', #184 ) ;
#102 = PERSON_AND_ORGANIZATION_ROLE ( 'classification_officer' ) ;
#103 = DIRECTION ( 'NONE',  ( 0.000000000000000000, 1.000000000000000000, 0.000000000000000000 ) ) ;
#104 = FACE_BOUND ( 'NONE', #190, .T. ) ;
#105 = PRODUCT ( '3D_R1655_48.3x3.2_17362190', '3D_R1655_48.3x3.2_17362190', '', ( #12 ) ) ;
#106 = CARTESIAN_POINT ( 'NONE',  ( -108.0000000000000000, 0.000000000000000000, -1.983927814618715080E-14 ) ) ;
#107 =( NAMED_UNIT ( * ) SI_UNIT ( $, .STERADIAN. ) SOLID_ANGLE_UNIT ( ) );
#108 = AXIS2_PLACEMENT_3D ( 'NONE', #18, #94, #131 ) ;
#109 = ORIENTED_EDGE ( 'NONE', *, *, #177, .F. ) ;
#110 = APPROVAL_STATUS ( 'not_yet_approved' ) ;
#111 = LOCAL_TIME ( 10, 51, 51.00000000000000000, #192 ) ;
#112 = VERTEX_POINT ( 'NONE', #176 ) ;
#113 = PRODUCT_RELATED_PRODUCT_CATEGORY ( 'detail', '', ( #105 ) ) ;
#114 = DIRECTION ( 'NONE',  ( -1.714163496158702951E-16, 0.000000000000000000, 1.000000000000000000 ) ) ;
#115 = AXIS2_PLACEMENT_3D ( 'NONE', #210, #95, #223 ) ;
#116 = CARTESIAN_POINT ( 'NONE',  ( -2.610142419813630379E-13, 0.000000000000000000, -87.05000000000001137 ) ) ;
#117 = CC_DESIGN_PERSON_AND_ORGANIZATION_ASSIGNMENT ( #139, #102, ( #101 ) ) ;
#118 = CARTESIAN_POINT ( 'NONE',  ( -83.85000000000000853, 0.000000000000000000, -1.569957330296388593E-14 ) ) ;
#119 = CALENDAR_DATE ( 2024, 5, 8 ) ;
#120 = PRODUCT_DEFINITION ( 'UNKNOWN', '', #41, #230 ) ;
#121 = CIRCLE ( 'NONE', #142, 132.1499999999999773 ) ;
#122 = CALENDAR_DATE ( 2024, 5, 8 ) ;
#123 = APPROVAL_ROLE ( '' ) ;
#124 = CARTESIAN_POINT ( 'NONE',  ( 0.000000000000000000, -2.565635044213703799E-15, 0.000000000000000000 ) ) ;
#125 = CIRCLE ( 'NONE', #115, 20.94999999999998153 ) ;
#126 = CALENDAR_DATE ( 2024, 5, 8 ) ;
#127 = PLANE ( 'NONE',  #153 ) ;
#128 = PERSON_AND_ORGANIZATION_ROLE ( 'design_supplier' ) ;
#129 = LOCAL_TIME ( 10, 51, 51.00000000000000000, #201 ) ;
#130 = ORIENTED_EDGE ( 'NONE', *, *, #217, .F. ) ;
#131 = DIRECTION ( 'NONE',  ( 2.998440459291935592E-15, 0.000000000000000000, 1.000000000000000000 ) ) ;
#132 = UNCERTAINTY_MEASURE_WITH_UNIT (LENGTH_MEASURE( 1.000000000000000082E-05 ), #10, 'distance_accuracy_value', 'NONE');
#133 = MANIFOLD_SOLID_BREP ( 'Wandung1', #247 ) ;
#134 = EDGE_LOOP ( 'NONE', ( #188, #150, #86, #32 ) ) ;
#135 = ADVANCED_FACE ( 'NONE', ( #47, #4 ), #127, .T. ) ;
#136 = EDGE_LOOP ( 'NONE', ( #166, #11 ) ) ;
#137 = AXIS2_PLACEMENT_3D ( 'NONE', #69, #146, #199 ) ;
#138 = CC_DESIGN_PERSON_AND_ORGANIZATION_ASSIGNMENT ( #219, #128, ( #41 ) ) ;
#139 = PERSON_AND_ORGANIZATION ( #195, #23 ) ;
#140 = CARTESIAN_POINT ( 'NONE',  ( -108.0000000000000000, 0.000000000000000000, -1.983927814618715080E-14 ) ) ;
#141 = PERSON_AND_ORGANIZATION_ROLE ( 'design_owner' ) ;
#142 = AXIS2_PLACEMENT_3D ( 'NONE', #27, #103, #165 ) ;
#143 = PERSON_AND_ORGANIZATION_ROLE ( 'creator' ) ;
#144 = DIRECTION ( 'NONE',  ( -1.000000000000000000, 0.000000000000000000, 2.998440459291936381E-15 ) ) ;
#145 = DIRECTION ( 'NONE',  ( 0.000000000000000000, 0.000000000000000000, 1.000000000000000000 ) ) ;
#146 = DIRECTION ( 'NONE',  ( 0.000000000000000000, 1.000000000000000000, 0.000000000000000000 ) ) ;
#147 = ORIENTED_EDGE ( 'NONE', *, *, #70, .F. ) ;
#148 = ORIENTED_EDGE ( 'NONE', *, *, #203, .T. ) ;
#149 = DIRECTION ( 'NONE',  ( 0.000000000000000000, 0.000000000000000000, 1.000000000000000000 ) ) ;
#150 = ORIENTED_EDGE ( 'NONE', *, *, #151, .T. ) ;
#151 = EDGE_CURVE ( 'NONE', #229, #112, #88, .T. ) ;
#152 = EDGE_LOOP ( 'NONE', ( #54, #172, #204, #130 ) ) ;
#153 = AXIS2_PLACEMENT_3D ( 'NONE', #106, #181, #9 ) ;
#154 = EDGE_LOOP ( 'NONE', ( #168, #147, #91, #28 ) ) ;
#155 = CC_DESIGN_SECURITY_CLASSIFICATION ( #101, ( #41 ) ) ;
#156 = TOROIDAL_SURFACE ( 'NONE', #246, 108.0000000000000000, 24.14999999999999147 ) ;
#157 = EDGE_CURVE ( 'NONE', #112, #229, #73, .T. ) ;
#158 = CARTESIAN_POINT ( 'NONE',  ( -3.225052572158559418E-13, 0.000000000000000000, -108.0000000000000000 ) ) ;
#159 = CARTESIAN_POINT ( 'NONE',  ( -3.238315696035291134E-13, 0.000000000000000000, -108.0000000000000000 ) ) ;
#160 = CARTESIAN_POINT ( 'NONE',  ( 0.000000000000000000, 0.000000000000000000, 0.000000000000000000 ) ) ;
#161 =( NAMED_UNIT ( * ) PLANE_ANGLE_UNIT ( ) SI_UNIT ( $, .RADIAN. ) );
#162 = APPROVAL_ROLE ( '' ) ;
#163 = DIRECTION ( 'NONE',  ( 0.000000000000000000, 0.000000000000000000, 1.000000000000000000 ) ) ;
#164 = CARTESIAN_POINT ( 'NONE',  ( -132.1499999999999773, 0.000000000000000000, -2.397898298941041566E-14 ) ) ;
#165 = DIRECTION ( 'NONE',  ( 0.000000000000000000, 0.000000000000000000, 1.000000000000000000 ) ) ;
#166 = ORIENTED_EDGE ( 'NONE', *, *, #157, .F. ) ;
#167 = APPROVAL_DATE_TIME ( #39, #1 ) ;
#168 = ORIENTED_EDGE ( 'NONE', *, *, #92, .F. ) ;
#169 = APPROVAL ( #3, 'UNSPECIFIED' ) ;
#170 = APPROVAL_PERSON_ORGANIZATION ( #25, #1, #65 ) ;
#171 = CIRCLE ( 'NONE', #218, 20.94999999999998153 ) ;
#172 = ORIENTED_EDGE ( 'NONE', *, *, #231, .T. ) ;
#173 = CARTESIAN_POINT ( 'NONE',  ( -108.0000000000000000, 0.000000000000000000, -1.851296575851398872E-14 ) ) ;
#174 = ADVANCED_FACE ( 'NONE', ( #84 ), #60, .F. ) ;
#175 = CC_DESIGN_APPROVAL ( #209, ( #41 ) ) ;
#176 = CARTESIAN_POINT ( 'NONE',  ( -2.500929201239557482E-13, 0.000000000000000000, -83.85000000000000853 ) ) ;
#177 = EDGE_CURVE ( 'NONE', #30, #200, #211, .T. ) ;
#178 = DIRECTION ( 'NONE',  ( 0.000000000000000000, 1.000000000000000000, 0.000000000000000000 ) ) ;
#179 = AXIS2_PLACEMENT_3D ( 'NONE', #160, #5, #145 ) ;
#180 = PLANE ( 'NONE',  #78 ) ;
#181 = DIRECTION ( 'NONE',  ( -1.714163496158702705E-16, 0.000000000000000000, 1.000000000000000000 ) ) ;
#182 = DIRECTION ( 'NONE',  ( -1.714163496158702951E-16, 0.000000000000000000, 1.000000000000000000 ) ) ;
#183 = ORIENTED_EDGE ( 'NONE', *, *, #98, .T. ) ;
#184 = SECURITY_CLASSIFICATION_LEVEL ( 'unclassified' ) ;
#185 = DIRECTION ( 'NONE',  ( 1.000000000000000000, 0.000000000000000000, 1.714163496158702458E-16 ) ) ;
#186 = CC_DESIGN_DATE_AND_TIME_ASSIGNMENT ( #194, #24, ( #120 ) ) ;
#187 = EDGE_LOOP ( 'NONE', ( #249, #228 ) ) ;
#188 = ORIENTED_EDGE ( 'NONE', *, *, #231, .F. ) ;
#189 = APPROVAL_PERSON_ORGANIZATION ( #42, #209, #162 ) ;
#190 = EDGE_LOOP ( 'NONE', ( #37, #75 ) ) ;
#191 = CC_DESIGN_DATE_AND_TIME_ASSIGNMENT ( #21, #2, ( #101 ) ) ;
#192 = COORDINATED_UNIVERSAL_TIME_OFFSET ( 1, 0, .AHEAD. ) ;
#193 = TOROIDAL_SURFACE ( 'NONE', #17, 108.0000000000000000, 24.14999999999999147 ) ;
#194 = DATE_AND_TIME ( #122, #89 ) ;
#195 = PERSON ( 'UNSPECIFIED', 'UNSPECIFIED', 'UNSPECIFIED', ('UNSPECIFIED'), ('UNSPECIFIED'), ('UNSPECIFIED') ) ;
#196 = APPROVAL_DATE_TIME ( #63, #209 ) ;
#197 = PRODUCT_DEFINITION_SHAPE ( 'NONE', 'NONE',  #120 ) ;
#198 = AXIS2_PLACEMENT_3D ( 'NONE', #173, #114, #38 ) ;
#199 = DIRECTION ( 'NONE',  ( 0.000000000000000000, 0.000000000000000000, 1.000000000000000000 ) ) ;
#200 = VERTEX_POINT ( 'NONE', #44 ) ;
#201 = COORDINATED_UNIVERSAL_TIME_OFFSET ( 1, 0, .AHEAD. ) ;
#202 = CARTESIAN_POINT ( 'NONE',  ( -108.0000000000000000, 0.000000000000000000, -1.983927814618715080E-14 ) ) ;
#203 = EDGE_CURVE ( 'NONE', #85, #200, #171, .T. ) ;
#204 = ORIENTED_EDGE ( 'NONE', *, *, #241, .F. ) ;
#205 = CARTESIAN_POINT ( 'NONE',  ( -108.0000000000000000, 0.000000000000000000, -1.851296575851398872E-14 ) ) ;
#206 = VERTEX_POINT ( 'NONE', #164 ) ;
#207 = AXIS2_PLACEMENT_3D ( 'NONE', #245, #149, #227 ) ;
#208 = AXIS2_PLACEMENT_3D ( 'NONE', #159, #144, #7 ) ;
#209 = APPROVAL ( #110, 'UNSPECIFIED' ) ;
#210 = CARTESIAN_POINT ( 'NONE',  ( -3.238315696035291134E-13, 0.000000000000000000, -108.0000000000000000 ) ) ;
#211 = CIRCLE ( 'NONE', #224, 87.05000000000001137 ) ;
#212 = DIRECTION ( 'NONE',  ( 2.998440459291935592E-15, 0.000000000000000000, 1.000000000000000000 ) ) ;
#213 = APPLICATION_CONTEXT ( 'configuration controlled 3d designs of mechanical parts and assemblies' ) ;
#214 = CARTESIAN_POINT ( 'NONE',  ( 0.000000000000000000, 0.000000000000000000, 0.000000000000000000 ) ) ;
#215 = DIRECTION ( 'NONE',  ( 1.000000000000000000, 0.000000000000000000, 1.714163496158702458E-16 ) ) ;
#216 = DIRECTION ( 'NONE',  ( 0.000000000000000000, 0.000000000000000000, 1.000000000000000000 ) ) ;
#217 = EDGE_CURVE ( 'NONE', #112, #74, #237, .T. ) ;
#218 = AXIS2_PLACEMENT_3D ( 'NONE', #205, #33, #243 ) ;
#219 = PERSON_AND_ORGANIZATION ( #195, #23 ) ;
#220 = CARTESIAN_POINT ( 'NONE',  ( -128.9499999999999886, 0.000000000000000000, -2.210413828296647179E-14 ) ) ;
#221 = APPROVAL_DATE_TIME ( #6, #169 ) ;
#222 = AXIS2_PLACEMENT_3D ( 'NONE', #56, #93, #235 ) ;
#223 = DIRECTION ( 'NONE',  ( 2.998440459291938353E-15, 0.000000000000000000, 1.000000000000000000 ) ) ;
#224 = AXIS2_PLACEMENT_3D ( 'NONE', #124, #64, #216 ) ;
#225 = COORDINATED_UNIVERSAL_TIME_OFFSET ( 1, 0, .AHEAD. ) ;
#226 = ORIENTED_EDGE ( 'NONE', *, *, #92, .T. ) ;
#227 = DIRECTION ( 'NONE',  ( 1.000000000000000000, 0.000000000000000000, 0.000000000000000000 ) ) ;
#228 = ORIENTED_EDGE ( 'NONE', *, *, #203, .F. ) ;
#229 = VERTEX_POINT ( 'NONE', #67 ) ;
#230 = DESIGN_CONTEXT ( 'detailed design', #251, 'design' ) ;
#231 = EDGE_CURVE ( 'NONE', #229, #206, #121, .T. ) ;
#232 = DIRECTION ( 'NONE',  ( 2.998440459291936381E-15, 0.000000000000000000, 1.000000000000000000 ) ) ;
#233 = APPROVAL_PERSON_ORGANIZATION ( #72, #169, #123 ) ;
#234 = APPROVAL_STATUS ( 'not_yet_approved' ) ;
#235 = DIRECTION ( 'NONE',  ( 0.000000000000000000, 0.000000000000000000, 1.000000000000000000 ) ) ;
#236 = AXIS2_PLACEMENT_3D ( 'NONE', #158, #238, #212 ) ;
#237 = CIRCLE ( 'NONE', #137, 83.85000000000000853 ) ;
#238 = DIRECTION ( 'NONE',  ( -1.000000000000000000, 0.000000000000000000, 2.998440459291936381E-15 ) ) ;
#239 = PERSON_AND_ORGANIZATION ( #195, #23 ) ;
#240 = CARTESIAN_POINT ( 'NONE',  ( 0.000000000000000000, 0.000000000000000000, 0.000000000000000000 ) ) ;
#241 = EDGE_CURVE ( 'NONE', #74, #206, #97, .T. ) ;
#242 = PERSON_AND_ORGANIZATION_ROLE ( 'creator' ) ;
#243 = DIRECTION ( 'NONE',  ( 1.000000000000000000, 0.000000000000000000, 1.714163496158703198E-16 ) ) ;
#244 = COORDINATED_UNIVERSAL_TIME_OFFSET ( 1, 0, .AHEAD. ) ;
#245 = CARTESIAN_POINT ( 'NONE',  ( 0.000000000000000000, 0.000000000000000000, 0.000000000000000000 ) ) ;
#246 = AXIS2_PLACEMENT_3D ( 'NONE', #8, #178, #48 ) ;
#247 = CLOSED_SHELL ( 'NONE', ( #19, #248, #77, #135, #15, #174 ) ) ;
#248 = ADVANCED_FACE ( 'NONE', ( #29 ), #156, .T. ) ;
#249 = ORIENTED_EDGE ( 'NONE', *, *, #20, .F. ) ;
#250 = CIRCLE ( 'NONE', #81, 24.14999999999999147 ) ;
#251 = APPLICATION_CONTEXT ( 'configuration controlled 3d designs of mechanical parts and assemblies' ) ;
#252 = FACE_OUTER_BOUND ( 'NONE', #52, .T. ) ;
#253 = CC_DESIGN_PERSON_AND_ORGANIZATION_ASSIGNMENT ( #99, #143, ( #41 ) ) ;
ENDSEC;
END-ISO-10303-21;
