ISO-10303-21;
HEADER;
FILE_DESCRIPTION (( 'STEP AP203' ),
    '1' );
FILE_NAME ('11-0232-03_outokumpu.step',
    '2015-08-11T14:06:11',
    ( '' ),
    ( '' ),
    'SwSTEP 2.0',
    'SolidWorks 2008',
    '' );
FILE_SCHEMA (( 'CONFIG_CONTROL_DESIGN' ));
ENDSEC;

DATA;
#1 = EDGE_LOOP ( 'NONE', ( #10, #4 ) ) ;
#2 = ORIENTED_EDGE ( 'NONE', *, *, #29, .F. ) ;
#3 = EDGE_LOOP ( 'NONE', ( #5, #12, #7, #11 ) ) ;
#4 = ORIENTED_EDGE ( 'NONE', *, *, #31, .F. ) ;
#5 = ORIENTED_EDGE ( 'NONE', *, *, #34, .F. ) ;
#6 = ADVANCED_FACE ( 'NONE', ( #169 ), #194, .F. ) ;
#7 = ORIENTED_EDGE ( 'NONE', *, *, #29, .T. ) ;
#8 = EDGE_CURVE ( 'NONE', #45, #47, #209, .T. ) ;
#9 = EDGE_LOOP ( 'NONE', ( #21, #14, #89, #171 ) ) ;
#10 = ORIENTED_EDGE ( 'NONE', *, *, #15, .F. ) ;
#11 = ORIENTED_EDGE ( 'NONE', *, *, #15, .T. ) ;
#12 = ORIENTED_EDGE ( 'NONE', *, *, #8, .F. ) ;
#13 = ADVANCED_FACE ( 'NONE', ( #210 ), #203, .F. ) ;
#14 = ORIENTED_EDGE ( 'NONE', *, *, #8, .T. ) ;
#15 = EDGE_CURVE ( 'NONE', #32, #35, #181, .T. ) ;
#16 = ADVANCED_FACE ( 'NONE', ( #182 ), #176, .F. ) ;
#17 = EDGE_CURVE ( 'NONE', #24, #22, #202, .T. ) ;
#18 = MANIFOLD_SOLID_BREP ( 'NONE', #112 ) ;
#19 = EDGE_LOOP ( 'NONE', ( #25, #20, #55, #53 ) ) ;
#20 = ORIENTED_EDGE ( 'NONE', *, *, #17, .T. ) ;
#21 = ORIENTED_EDGE ( 'NONE', *, *, #40, .F. ) ;
#22 = VERTEX_POINT ( 'NONE', #196 ) ;
#23 = VERTEX_POINT ( 'NONE', #195 ) ;
#24 = VERTEX_POINT ( 'NONE', #133 ) ;
#25 = ORIENTED_EDGE ( 'NONE', *, *, #26, .T. ) ;
#26 = EDGE_CURVE ( 'NONE', #23, #24, #131, .T. ) ;
#27 = ADVANCED_FACE ( 'NONE', ( #132 ), #125, .T. ) ;
#28 = EDGE_LOOP ( 'NONE', ( #172, #135 ) ) ;
#29 = EDGE_CURVE ( 'NONE', #45, #32, #121, .T. ) ;
#30 = ORIENTED_EDGE ( 'NONE', *, *, #31, .T. ) ;
#31 = EDGE_CURVE ( 'NONE', #35, #32, #117, .T. ) ;
#32 = VERTEX_POINT ( 'NONE', #105 ) ;
#33 = ORIENTED_EDGE ( 'NONE', *, *, #34, .T. ) ;
#34 = EDGE_CURVE ( 'NONE', #47, #35, #104, .T. ) ;
#35 = VERTEX_POINT ( 'NONE', #100 ) ;
#36 = EDGE_LOOP ( 'NONE', ( #37, #33, #30, #2 ) ) ;
#37 = ORIENTED_EDGE ( 'NONE', *, *, #51, .F. ) ;
#38 = EDGE_CURVE ( 'NONE', #47, #44, #99, .T. ) ;
#39 = ADVANCED_FACE ( 'NONE', ( #95 ), #94, .F. ) ;
#40 = EDGE_CURVE ( 'NONE', #45, #41, #166, .T. ) ;
#41 = VERTEX_POINT ( 'NONE', #162 ) ;
#42 = EDGE_CURVE ( 'NONE', #44, #41, #161, .T. ) ;
#43 = ORIENTED_EDGE ( 'NONE', *, *, #42, .F. ) ;
#44 = VERTEX_POINT ( 'NONE', #156 ) ;
#45 = VERTEX_POINT ( 'NONE', #155 ) ;
#46 = ORIENTED_EDGE ( 'NONE', *, *, #40, .T. ) ;
#47 = VERTEX_POINT ( 'NONE', #154 ) ;
#48 = ADVANCED_FACE ( 'NONE', ( #153 ), #151, .F. ) ;
#49 = EDGE_LOOP ( 'NONE', ( #50, #46, #43, #57 ) ) ;
#50 = ORIENTED_EDGE ( 'NONE', *, *, #51, .T. ) ;
#51 = EDGE_CURVE ( 'NONE', #47, #45, #147, .T. ) ;
#52 = EDGE_CURVE ( 'NONE', #23, #56, #142, .T. ) ;
#53 = ORIENTED_EDGE ( 'NONE', *, *, #52, .F. ) ;
#54 = EDGE_CURVE ( 'NONE', #56, #22, #88, .T. ) ;
#55 = ORIENTED_EDGE ( 'NONE', *, *, #54, .F. ) ;
#56 = VERTEX_POINT ( 'NONE', #83 ) ;
#57 = ORIENTED_EDGE ( 'NONE', *, *, #38, .F. ) ;
#58 = AXIS2_PLACEMENT_3D ( 'NONE', #228, #227, #226 ) ;
#59 = CIRCLE ( 'NONE', #58, 8.621924930635689300 ) ;
#60 = DIRECTION ( 'NONE',  ( 0.0000000000000000000, -1.000000000000000000, 1.613696256722611200E-016 ) ) ;
#61 = DIRECTION ( 'NONE',  ( -0.0000000000000000000, 8.164311994315688900E-017, 1.000000000000000000 ) ) ;
#62 = CARTESIAN_POINT ( 'NONE',  ( 0.0000000000000000000, -7.347880794884118800E-016, -8.999999999999998200 ) ) ;
#63 = AXIS2_PLACEMENT_3D ( 'NONE', #62, #61, #60 ) ;
#64 = CIRCLE ( 'NONE', #63, 10.75000000000000000 ) ;
#65 = DIRECTION ( 'NONE',  ( 0.0000000000000000000, -1.000000000000000000, 1.613696256722611200E-016 ) ) ;
#66 = DIRECTION ( 'NONE',  ( -0.0000000000000000000, 8.164311994315688900E-017, 1.000000000000000000 ) ) ;
#67 = AXIS2_PLACEMENT_3D ( 'NONE', #73, #66, #65 ) ;
#68 = CIRCLE ( 'NONE', #67, 10.75000000000000000 ) ;
#69 = DIRECTION ( 'NONE',  ( 0.0000000000000000000, -1.000000000000000000, 8.164311994315688900E-017 ) ) ;
#70 = DIRECTION ( 'NONE',  ( -0.0000000000000000000, 8.164311994315688900E-017, 1.000000000000000000 ) ) ;
#71 = CARTESIAN_POINT ( 'NONE',  ( 0.0000000000000000000, 10.75000000000000000, -9.000000000000000000 ) ) ;
#72 = AXIS2_PLACEMENT_3D ( 'NONE', #71, #70, #69 ) ;
#73 = CARTESIAN_POINT ( 'NONE',  ( 0.0000000000000000000, 7.347880794884121700E-016, 9.000000000000001800 ) ) ;
#74 = PLANE ( 'NONE',  #72 ) ;
#75 = DIRECTION ( 'NONE',  ( 0.0000000000000000000, -1.000000000000000000, 8.164311994315688900E-017 ) ) ;
#76 = DIRECTION ( 'NONE',  ( -0.0000000000000000000, 8.164311994315688900E-017, 1.000000000000000000 ) ) ;
#77 = AXIS2_PLACEMENT_3D ( 'NONE', #81, #76, #75 ) ;
#78 = CYLINDRICAL_SURFACE ( 'NONE', #77, 10.75000000000000000 ) ;
#79 = FACE_BOUND ( 'NONE', #109, .T. ) ;
#80 = FACE_OUTER_BOUND ( 'NONE', #28, .T. ) ;
#81 = CARTESIAN_POINT ( 'NONE',  ( 0.0000000000000000000, 0.0000000000000000000, 0.0000000000000000000 ) ) ;
#82 = FACE_OUTER_BOUND ( 'NONE', #115, .T. ) ;
#83 = CARTESIAN_POINT ( 'NONE',  ( 0.0000000000000000000, -10.75000000000000000, 9.000000000000003600 ) ) ;
#84 = DIRECTION ( 'NONE',  ( 0.0000000000000000000, -1.000000000000000000, 1.613696256722611200E-016 ) ) ;
#85 = DIRECTION ( 'NONE',  ( -0.0000000000000000000, 8.164311994315688900E-017, 1.000000000000000000 ) ) ;
#86 = CARTESIAN_POINT ( 'NONE',  ( 0.0000000000000000000, 7.347880794884121700E-016, 9.000000000000001800 ) ) ;
#87 = AXIS2_PLACEMENT_3D ( 'NONE', #86, #85, #84 ) ;
#88 = CIRCLE ( 'NONE', #87, 10.75000000000000000 ) ;
#89 = ORIENTED_EDGE ( 'NONE', *, *, #38, .T. ) ;
#90 = DIRECTION ( 'NONE',  ( 0.0000000000000000000, -1.000000000000000000, 8.164311994315688900E-017 ) ) ;
#91 = DIRECTION ( 'NONE',  ( -0.0000000000000000000, 8.164311994315688900E-017, 1.000000000000000000 ) ) ;
#92 = CARTESIAN_POINT ( 'NONE',  ( 0.0000000000000000000, 0.0000000000000000000, 0.0000000000000000000 ) ) ;
#93 = AXIS2_PLACEMENT_3D ( 'NONE', #92, #91, #90 ) ;
#94 = CYLINDRICAL_SURFACE ( 'NONE', #93, 8.330999999999997700 ) ;
#95 = FACE_OUTER_BOUND ( 'NONE', #36, .T. ) ;
#96 = DIRECTION ( 'NONE',  ( 0.0000000000000000000, 0.7071067811865452400, -0.7071067811865497900 ) ) ;
#97 = VECTOR ( 'NONE', #96, 1000.000000000000000 ) ;
#98 = CARTESIAN_POINT ( 'NONE',  ( 0.0000000000000000000, 8.330999999999999500, -8.709075069364308400 ) ) ;
#99 = LINE ( 'NONE', #98, #97 ) ;
#100 = CARTESIAN_POINT ( 'NONE',  ( 1.020219553369422300E-015, 8.330999999999997700, 5.000000000000000900 ) ) ;
#101 = DIRECTION ( 'NONE',  ( -0.0000000000000000000, 8.164311994315688900E-017, 1.000000000000000000 ) ) ;
#102 = VECTOR ( 'NONE', #101, 1000.000000000000000 ) ;
#103 = CARTESIAN_POINT ( 'NONE',  ( 1.020219553369422300E-015, 8.330999999999997700, -6.801688322464398700E-016 ) ) ;
#104 = LINE ( 'NONE', #103, #102 ) ;
#105 = CARTESIAN_POINT ( 'NONE',  ( 0.0000000000000000000, -8.330999999999997700, 5.000000000000002700 ) ) ;
#106 = DIRECTION ( 'NONE',  ( 0.0000000000000000000, -1.000000000000000000, 1.041125600754295700E-016 ) ) ;
#107 = DIRECTION ( 'NONE',  ( -0.0000000000000000000, 8.164311994315688900E-017, 1.000000000000000000 ) ) ;
#108 = CARTESIAN_POINT ( 'NONE',  ( 0.0000000000000000000, 4.082155997157845700E-016, 5.000000000000001800 ) ) ;
#109 = EDGE_LOOP ( 'NONE', ( #189, #113 ) ) ;
#110 = ORIENTED_EDGE ( 'NONE', *, *, #54, .T. ) ;
#111 = ORIENTED_EDGE ( 'NONE', *, *, #136, .T. ) ;
#112 = CLOSED_SHELL ( 'NONE', ( #27, #48, #39, #16, #6, #13, #134, #114, #186 ) ) ;
#113 = ORIENTED_EDGE ( 'NONE', *, *, #173, .T. ) ;
#114 = ADVANCED_FACE ( 'NONE', ( #82 ), #78, .T. ) ;
#115 = EDGE_LOOP ( 'NONE', ( #190, #137, #138, #188 ) ) ;
#116 = AXIS2_PLACEMENT_3D ( 'NONE', #108, #107, #106 ) ;
#117 = CIRCLE ( 'NONE', #116, 8.330999999999997700 ) ;
#118 = DIRECTION ( 'NONE',  ( -0.0000000000000000000, 8.164311994315688900E-017, 1.000000000000000000 ) ) ;
#119 = VECTOR ( 'NONE', #118, 1000.000000000000000 ) ;
#120 = CARTESIAN_POINT ( 'NONE',  ( 0.0000000000000000000, -8.330999999999997700, 6.801688322464398700E-016 ) ) ;
#121 = LINE ( 'NONE', #120, #119 ) ;
#122 = DIRECTION ( 'NONE',  ( 0.0000000000000000000, -1.000000000000000000, 8.164311994315688900E-017 ) ) ;
#123 = DIRECTION ( 'NONE',  ( -0.0000000000000000000, 8.164311994315688900E-017, 1.000000000000000000 ) ) ;
#124 = AXIS2_PLACEMENT_3D ( 'NONE', #126, #123, #122 ) ;
#125 = CYLINDRICAL_SURFACE ( 'NONE', #124, 10.75000000000000000 ) ;
#126 = CARTESIAN_POINT ( 'NONE',  ( 0.0000000000000000000, 0.0000000000000000000, 0.0000000000000000000 ) ) ;
#127 = DIRECTION ( 'NONE',  ( 0.0000000000000000000, -1.000000000000000000, 1.613696256722611200E-016 ) ) ;
#128 = DIRECTION ( 'NONE',  ( -0.0000000000000000000, 8.164311994315688900E-017, 1.000000000000000000 ) ) ;
#129 = CARTESIAN_POINT ( 'NONE',  ( 0.0000000000000000000, -7.347880794884118800E-016, -8.999999999999998200 ) ) ;
#130 = AXIS2_PLACEMENT_3D ( 'NONE', #129, #128, #127 ) ;
#131 = CIRCLE ( 'NONE', #130, 10.75000000000000000 ) ;
#132 = FACE_OUTER_BOUND ( 'NONE', #19, .T. ) ;
#133 = CARTESIAN_POINT ( 'NONE',  ( 1.316451830359055400E-015, 10.75000000000000000, -9.000000000000000000 ) ) ;
#134 = ADVANCED_FACE ( 'NONE', ( #80, #79 ), #74, .F. ) ;
#135 = ORIENTED_EDGE ( 'NONE', *, *, #167, .F. ) ;
#136 = EDGE_CURVE ( 'NONE', #22, #56, #68, .T. ) ;
#137 = ORIENTED_EDGE ( 'NONE', *, *, #167, .T. ) ;
#138 = ORIENTED_EDGE ( 'NONE', *, *, #52, .T. ) ;
#139 = DIRECTION ( 'NONE',  ( -0.0000000000000000000, 8.164311994315688900E-017, 1.000000000000000000 ) ) ;
#140 = VECTOR ( 'NONE', #139, 1000.000000000000000 ) ;
#141 = CARTESIAN_POINT ( 'NONE',  ( 0.0000000000000000000, -10.75000000000000000, 8.776635393889365100E-016 ) ) ;
#142 = LINE ( 'NONE', #141, #140 ) ;
#143 = DIRECTION ( 'NONE',  ( 0.0000000000000000000, -1.000000000000000000, 0.0000000000000000000 ) ) ;
#144 = DIRECTION ( 'NONE',  ( -0.0000000000000000000, 8.164311994315688900E-017, 1.000000000000000000 ) ) ;
#145 = CARTESIAN_POINT ( 'NONE',  ( 0.0000000000000000000, -7.110360604820675100E-016, -8.709075069364308400 ) ) ;
#146 = AXIS2_PLACEMENT_3D ( 'NONE', #145, #144, #143 ) ;
#147 = CIRCLE ( 'NONE', #146, 8.330999999999999500 ) ;
#148 = DIRECTION ( 'NONE',  ( 0.0000000000000000000, 1.000000000000000000, 0.0000000000000000000 ) ) ;
#149 = DIRECTION ( 'NONE',  ( 0.0000000000000000000, -8.164311994315688900E-017, -1.000000000000000000 ) ) ;
#150 = AXIS2_PLACEMENT_3D ( 'NONE', #152, #149, #148 ) ;
#151 = CONICAL_SURFACE ( 'NONE', #150, 8.330999999999999500, 0.7853981633974452800 ) ;
#152 = CARTESIAN_POINT ( 'NONE',  ( 0.0000000000000000000, -7.110360604820675100E-016, -8.709075069364308400 ) ) ;
#153 = FACE_OUTER_BOUND ( 'NONE', #49, .T. ) ;
#154 = CARTESIAN_POINT ( 'NONE',  ( 1.020219553369422500E-015, 8.330999999999999500, -8.709075069364308400 ) ) ;
#155 = CARTESIAN_POINT ( 'NONE',  ( 0.0000000000000000000, -8.330999999999999500, -8.709075069364308400 ) ) ;
#156 = CARTESIAN_POINT ( 'NONE',  ( 0.0000000000000000000, 8.621924930635689300, -9.000000000000000000 ) ) ;
#157 = DIRECTION ( 'NONE',  ( 0.0000000000000000000, -1.000000000000000000, 0.0000000000000000000 ) ) ;
#158 = DIRECTION ( 'NONE',  ( -0.0000000000000000000, 8.164311994315688900E-017, 1.000000000000000000 ) ) ;
#159 = CARTESIAN_POINT ( 'NONE',  ( 0.0000000000000000000, -7.347880794884119700E-016, -9.000000000000000000 ) ) ;
#160 = AXIS2_PLACEMENT_3D ( 'NONE', #159, #158, #157 ) ;
#161 = CIRCLE ( 'NONE', #160, 8.621924930635689300 ) ;
#162 = CARTESIAN_POINT ( 'NONE',  ( 1.055846405223602300E-015, -8.621924930635689300, -9.000000000000000000 ) ) ;
#163 = DIRECTION ( 'NONE',  ( 8.659274570719328300E-017, -0.7071067811865454600, -0.7071067811865495700 ) ) ;
#164 = VECTOR ( 'NONE', #163, 1000.000000000000000 ) ;
#165 = CARTESIAN_POINT ( 'NONE',  ( 1.020219553369422500E-015, -8.330999999999999500, -8.709075069364308400 ) ) ;
#166 = LINE ( 'NONE', #165, #164 ) ;
#167 = EDGE_CURVE ( 'NONE', #24, #23, #64, .T. ) ;
#168 = CARTESIAN_POINT ( 'NONE',  ( 0.0000000000000000000, 0.0000000000000000000, 0.0000000000000000000 ) ) ;
#169 = FACE_OUTER_BOUND ( 'NONE', #3, .T. ) ;
#170 =( LENGTH_UNIT ( ) NAMED_UNIT ( * ) SI_UNIT ( .MILLI., .METRE. ) );
#171 = ORIENTED_EDGE ( 'NONE', *, *, #173, .F. ) ;
#172 = ORIENTED_EDGE ( 'NONE', *, *, #26, .F. ) ;
#173 = EDGE_CURVE ( 'NONE', #41, #44, #59, .T. ) ;
#174 = CARTESIAN_POINT ( 'NONE',  ( 0.0000000000000000000, 8.330999999999997700, 5.000000000000000900 ) ) ;
#175 = AXIS2_PLACEMENT_3D ( 'NONE', #174, #201, #200 ) ;
#176 = PLANE ( 'NONE',  #175 ) ;
#177 = DIRECTION ( 'NONE',  ( 0.0000000000000000000, -1.000000000000000000, 1.041125600754295700E-016 ) ) ;
#178 = DIRECTION ( 'NONE',  ( -0.0000000000000000000, 8.164311994315688900E-017, 1.000000000000000000 ) ) ;
#179 = CARTESIAN_POINT ( 'NONE',  ( 0.0000000000000000000, 4.082155997157845700E-016, 5.000000000000001800 ) ) ;
#180 = AXIS2_PLACEMENT_3D ( 'NONE', #179, #178, #177 ) ;
#181 = CIRCLE ( 'NONE', #180, 8.330999999999997700 ) ;
#182 = FACE_OUTER_BOUND ( 'NONE', #1, .T. ) ;
#183 = DIRECTION ( 'NONE',  ( 0.0000000000000000000, 1.000000000000000000, 0.0000000000000000000 ) ) ;
#184 = DIRECTION ( 'NONE',  ( 0.0000000000000000000, -8.164311994315688900E-017, -1.000000000000000000 ) ) ;
#185 = AXIS2_PLACEMENT_3D ( 'NONE', #204, #184, #183 ) ;
#186 = ADVANCED_FACE ( 'NONE', ( #225 ), #224, .F. ) ;
#187 = EDGE_LOOP ( 'NONE', ( #110, #111 ) ) ;
#188 = ORIENTED_EDGE ( 'NONE', *, *, #136, .F. ) ;
#189 = ORIENTED_EDGE ( 'NONE', *, *, #42, .T. ) ;
#190 = ORIENTED_EDGE ( 'NONE', *, *, #17, .F. ) ;
#191 = DIRECTION ( 'NONE',  ( 0.0000000000000000000, -1.000000000000000000, 8.164311994315688900E-017 ) ) ;
#192 = DIRECTION ( 'NONE',  ( -0.0000000000000000000, 8.164311994315688900E-017, 1.000000000000000000 ) ) ;
#193 = AXIS2_PLACEMENT_3D ( 'NONE', #168, #192, #191 ) ;
#194 = CYLINDRICAL_SURFACE ( 'NONE', #193, 8.330999999999997700 ) ;
#195 = CARTESIAN_POINT ( 'NONE',  ( 0.0000000000000000000, -10.75000000000000000, -8.999999999999996400 ) ) ;
#196 = CARTESIAN_POINT ( 'NONE',  ( 1.316451830359055400E-015, 10.75000000000000000, 9.000000000000000000 ) ) ;
#197 = DIRECTION ( 'NONE',  ( -0.0000000000000000000, 8.164311994315688900E-017, 1.000000000000000000 ) ) ;
#198 = VECTOR ( 'NONE', #197, 1000.000000000000000 ) ;
#199 = CARTESIAN_POINT ( 'NONE',  ( 1.316451830359055400E-015, 10.75000000000000000, -8.776635393889365100E-016 ) ) ;
#200 = DIRECTION ( 'NONE',  ( 0.0000000000000000000, -1.000000000000000000, 8.164311994315688900E-017 ) ) ;
#201 = DIRECTION ( 'NONE',  ( -0.0000000000000000000, 8.164311994315688900E-017, 1.000000000000000000 ) ) ;
#202 = LINE ( 'NONE', #199, #198 ) ;
#203 = CONICAL_SURFACE ( 'NONE', #185, 8.330999999999999500, 0.7853981633974452800 ) ;
#204 = CARTESIAN_POINT ( 'NONE',  ( 0.0000000000000000000, -7.110360604820675100E-016, -8.709075069364308400 ) ) ;
#205 = DIRECTION ( 'NONE',  ( 0.0000000000000000000, -1.000000000000000000, 0.0000000000000000000 ) ) ;
#206 = DIRECTION ( 'NONE',  ( -0.0000000000000000000, 8.164311994315688900E-017, 1.000000000000000000 ) ) ;
#207 = CARTESIAN_POINT ( 'NONE',  ( 0.0000000000000000000, -7.110360604820675100E-016, -8.709075069364308400 ) ) ;
#208 = AXIS2_PLACEMENT_3D ( 'NONE', #207, #206, #205 ) ;
#209 = CIRCLE ( 'NONE', #208, 8.330999999999999500 ) ;
#210 = FACE_OUTER_BOUND ( 'NONE', #9, .T. ) ;
#211 = DIRECTION ( 'NONE',  ( 1.000000000000000000, 0.0000000000000000000, 0.0000000000000000000 ) ) ;
#212 = DIRECTION ( 'NONE',  ( 0.0000000000000000000, 0.0000000000000000000, 1.000000000000000000 ) ) ;
#213 = AXIS2_PLACEMENT_3D ( 'NONE', #222, #212, #211 ) ;
#214 = ADVANCED_BREP_SHAPE_REPRESENTATION ( '11-0232-03_outokumpu', ( #18, #213 ), #215 ) ;
#215 =( GEOMETRIC_REPRESENTATION_CONTEXT ( 3 ) GLOBAL_UNCERTAINTY_ASSIGNED_CONTEXT ( ( #216 ) ) GLOBAL_UNIT_ASSIGNED_CONTEXT ( ( #170, #218, #217 ) ) REPRESENTATION_CONTEXT ( 'NONE', 'WORKASPACE' ) );
#216 = UNCERTAINTY_MEASURE_WITH_UNIT (LENGTH_MEASURE( 1.000000000000000100E-005 ), #170, 'distance_accuracy_value', 'NONE');
#217 =( NAMED_UNIT ( * ) SI_UNIT ( $, .STERADIAN. ) SOLID_ANGLE_UNIT ( ) );
#218 =( NAMED_UNIT ( * ) PLANE_ANGLE_UNIT ( ) SI_UNIT ( $, .RADIAN. ) );
#219 = DIRECTION ( 'NONE',  ( 0.0000000000000000000, 1.000000000000000000, -8.164311994315688900E-017 ) ) ;
#220 = DIRECTION ( 'NONE',  ( 0.0000000000000000000, -8.164311994315688900E-017, -1.000000000000000000 ) ) ;
#221 = AXIS2_PLACEMENT_3D ( 'NONE', #223, #220, #219 ) ;
#222 = CARTESIAN_POINT ( 'NONE',  ( 0.0000000000000000000, 0.0000000000000000000, 0.0000000000000000000 ) ) ;
#223 = CARTESIAN_POINT ( 'NONE',  ( 0.0000000000000000000, -7.347880794884120700E-016, 9.000000000000001800 ) ) ;
#224 = PLANE ( 'NONE',  #221 ) ;
#225 = FACE_OUTER_BOUND ( 'NONE', #187, .T. ) ;
#226 = DIRECTION ( 'NONE',  ( 0.0000000000000000000, -1.000000000000000000, 0.0000000000000000000 ) ) ;
#227 = DIRECTION ( 'NONE',  ( -0.0000000000000000000, 8.164311994315688900E-017, 1.000000000000000000 ) ) ;
#228 = CARTESIAN_POINT ( 'NONE',  ( 0.0000000000000000000, -7.347880794884119700E-016, -9.000000000000000000 ) ) ;
#229 = CC_DESIGN_PERSON_AND_ORGANIZATION_ASSIGNMENT ( #231, #230, ( #243 ) ) ;
#230 = PERSON_AND_ORGANIZATION_ROLE ( 'creator' ) ;
#231 = PERSON_AND_ORGANIZATION ( #252, #251 ) ;
#232 = CC_DESIGN_APPROVAL ( #240, ( #243 ) ) ;
#233 = APPROVAL_DATE_TIME ( #234, #240 ) ;
#234 = DATE_AND_TIME ( #235, #236 ) ;
#235 = CALENDAR_DATE ( 2015, 11, 8 ) ;
#236 = LOCAL_TIME ( 16, 6, 11.00000000000000000, #237 ) ;
#237 = COORDINATED_UNIVERSAL_TIME_OFFSET ( 1, 0, .AHEAD. ) ;
#238 = APPROVAL_PERSON_ORGANIZATION ( #242, #240, #239 ) ;
#239 = APPROVAL_ROLE ( '' ) ;
#240 = APPROVAL ( #241, 'UNSPECIFIED' ) ;
#241 = APPROVAL_STATUS ( 'not_yet_approved' ) ;
#242 = PERSON_AND_ORGANIZATION ( #252, #251 ) ;
#243 = PRODUCT_DEFINITION ( 'UNKNOWN', '', #296, #244 ) ;
#244 = DESIGN_CONTEXT ( 'detailed design', #246, 'design' ) ;
#245 = APPLICATION_PROTOCOL_DEFINITION ( 'international standard', 'config_control_design', 1994, #246 ) ;
#246 = APPLICATION_CONTEXT ( 'configuration controlled 3d designs of mechanical parts and assemblies' ) ;
#247 = SHAPE_DEFINITION_REPRESENTATION ( #303, #214 ) ;
#248 = CC_DESIGN_PERSON_AND_ORGANIZATION_ASSIGNMENT ( #250, #249, ( #253 ) ) ;
#249 = PERSON_AND_ORGANIZATION_ROLE ( 'design_owner' ) ;
#250 = PERSON_AND_ORGANIZATION ( #252, #251 ) ;
#251 = ORGANIZATION ( 'UNSPECIFIED', 'UNSPECIFIED', '' ) ;
#252 = PERSON ( 'UNSPECIFIED', 'UNSPECIFIED', 'UNSPECIFIED', ('UNSPECIFIED'), ('UNSPECIFIED'), ('UNSPECIFIED') ) ;
#253 = PRODUCT ( '11-0232-03_outokumpu', '11-0232-03_outokumpu', '', ( #254 ) ) ;
#254 = MECHANICAL_CONTEXT ( 'NONE', #305, 'mechanical' ) ;
#255 = APPLICATION_PROTOCOL_DEFINITION ( 'international standard', 'config_control_design', 1994, #305 ) ;
#256 = CC_DESIGN_SECURITY_CLASSIFICATION ( #277, ( #296 ) ) ;
#257 = CC_DESIGN_APPROVAL ( #265, ( #277 ) ) ;
#258 = APPROVAL_DATE_TIME ( #259, #265 ) ;
#259 = DATE_AND_TIME ( #260, #261 ) ;
#260 = CALENDAR_DATE ( 2015, 11, 8 ) ;
#261 = LOCAL_TIME ( 16, 6, 11.00000000000000000, #262 ) ;
#262 = COORDINATED_UNIVERSAL_TIME_OFFSET ( 1, 0, .AHEAD. ) ;
#263 = APPROVAL_PERSON_ORGANIZATION ( #267, #265, #264 ) ;
#264 = APPROVAL_ROLE ( '' ) ;
#265 = APPROVAL ( #266, 'UNSPECIFIED' ) ;
#266 = APPROVAL_STATUS ( 'not_yet_approved' ) ;
#267 = PERSON_AND_ORGANIZATION ( #252, #251 ) ;
#268 = CC_DESIGN_DATE_AND_TIME_ASSIGNMENT ( #270, #269, ( #277 ) ) ;
#269 = DATE_TIME_ROLE ( 'classification_date' ) ;
#270 = DATE_AND_TIME ( #271, #272 ) ;
#271 = CALENDAR_DATE ( 2015, 11, 8 ) ;
#272 = LOCAL_TIME ( 16, 6, 11.00000000000000000, #273 ) ;
#273 = COORDINATED_UNIVERSAL_TIME_OFFSET ( 1, 0, .AHEAD. ) ;
#274 = CC_DESIGN_PERSON_AND_ORGANIZATION_ASSIGNMENT ( #276, #275, ( #277 ) ) ;
#275 = PERSON_AND_ORGANIZATION_ROLE ( 'classification_officer' ) ;
#276 = PERSON_AND_ORGANIZATION ( #252, #251 ) ;
#277 = SECURITY_CLASSIFICATION ( '', '', #278 ) ;
#278 = SECURITY_CLASSIFICATION_LEVEL ( 'unclassified' ) ;
#279 = CC_DESIGN_PERSON_AND_ORGANIZATION_ASSIGNMENT ( #281, #280, ( #296 ) ) ;
#280 = PERSON_AND_ORGANIZATION_ROLE ( 'design_supplier' ) ;
#281 = PERSON_AND_ORGANIZATION ( #252, #251 ) ;
#282 = CC_DESIGN_PERSON_AND_ORGANIZATION_ASSIGNMENT ( #284, #283, ( #296 ) ) ;
#283 = PERSON_AND_ORGANIZATION_ROLE ( 'creator' ) ;
#284 = PERSON_AND_ORGANIZATION ( #252, #251 ) ;
#285 = CC_DESIGN_APPROVAL ( #293, ( #296 ) ) ;
#286 = APPROVAL_DATE_TIME ( #287, #293 ) ;
#287 = DATE_AND_TIME ( #288, #289 ) ;
#288 = CALENDAR_DATE ( 2015, 11, 8 ) ;
#289 = LOCAL_TIME ( 16, 6, 11.00000000000000000, #290 ) ;
#290 = COORDINATED_UNIVERSAL_TIME_OFFSET ( 1, 0, .AHEAD. ) ;
#291 = APPROVAL_PERSON_ORGANIZATION ( #295, #293, #292 ) ;
#292 = APPROVAL_ROLE ( '' ) ;
#293 = APPROVAL ( #294, 'UNSPECIFIED' ) ;
#294 = APPROVAL_STATUS ( 'not_yet_approved' ) ;
#295 = PERSON_AND_ORGANIZATION ( #252, #251 ) ;
#296 = PRODUCT_DEFINITION_FORMATION_WITH_SPECIFIED_SOURCE ( 'ANY', '', #253, .NOT_KNOWN. ) ;
#297 = CC_DESIGN_DATE_AND_TIME_ASSIGNMENT ( #299, #298, ( #243 ) ) ;
#298 = DATE_TIME_ROLE ( 'creation_date' ) ;
#299 = DATE_AND_TIME ( #300, #301 ) ;
#300 = CALENDAR_DATE ( 2015, 11, 8 ) ;
#301 = LOCAL_TIME ( 16, 6, 11.00000000000000000, #302 ) ;
#302 = COORDINATED_UNIVERSAL_TIME_OFFSET ( 1, 0, .AHEAD. ) ;
#303 = PRODUCT_DEFINITION_SHAPE ( 'NONE', 'NONE',  #243 ) ;
#304 = PRODUCT_RELATED_PRODUCT_CATEGORY ( 'detail', '', ( #253 ) ) ;
#305 = APPLICATION_CONTEXT ( 'configuration controlled 3d designs of mechanical parts and assemblies' ) ;
ENDSEC;
END-ISO-10303-21;
