ISO-10303-21;
HEADER;
FILE_DESCRIPTION (( 'STEP AP203' ),
    '1' );
FILE_NAME ('11-0232-05_outokumpu.step',
    '2015-08-11T14:06:41',
    ( '' ),
    ( '' ),
    'SwSTEP 2.0',
    'SolidWorks 2008',
    '' );
FILE_SCHEMA (( 'CONFIG_CONTROL_DESIGN' ));
ENDSEC;

DATA;
#1 = ADVANCED_BREP_SHAPE_REPRESENTATION ( '11-0232-05_outokumpu', ( #137, #225 ), #49 ) ;
#2 = CARTESIAN_POINT ( 'NONE',  ( 0.0000000000000000000, 13.68217003306555700, -12.00000000000000000 ) ) ;
#3 = DIRECTION ( 'NONE',  ( 0.0000000000000000000, -1.000000000000000000, 1.267871596234017500E-016 ) ) ;
#4 = DIRECTION ( 'NONE',  ( -0.0000000000000000000, 9.184850993605149700E-017, 1.000000000000000000 ) ) ;
#5 = CARTESIAN_POINT ( 'NONE',  ( 0.0000000000000000000, -1.102182119232617700E-015, -11.99999999999999800 ) ) ;
#6 = AXIS2_PLACEMENT_3D ( 'NONE', #5, #4, #3 ) ;
#7 = CIRCLE ( 'NONE', #6, 13.68217003306555800 ) ;
#8 = CARTESIAN_POINT ( 'NONE',  ( 1.675527235657020900E-015, -13.68217003306556000, -11.99999999999999600 ) ) ;
#9 = DIRECTION ( 'NONE',  ( 8.659274570719307300E-017, -0.7071067811865436900, -0.7071067811865513500 ) ) ;
#10 = VECTOR ( 'NONE', #9, 1000.000000000000000 ) ;
#11 = CARTESIAN_POINT ( 'NONE',  ( 1.618990830070874000E-015, -13.22050000000000300, -11.53832996693443600 ) ) ;
#12 = LINE ( 'NONE', #11, #10 ) ;
#13 = ADVANCED_FACE ( 'NONE', ( #127 ), #125, .F. ) ;
#14 = ORIENTED_EDGE ( 'NONE', *, *, #148, .F. ) ;
#15 = EDGE_CURVE ( 'NONE', #154, #144, #120, .T. ) ;
#16 = ORIENTED_EDGE ( 'NONE', *, *, #33, .T. ) ;
#17 = ORIENTED_EDGE ( 'NONE', *, *, #135, .T. ) ;
#18 = EDGE_LOOP ( 'NONE', ( #28, #27, #26, #24 ) ) ;
#19 = ADVANCED_FACE ( 'NONE', ( #121 ), #112, .F. ) ;
#20 = ORIENTED_EDGE ( 'NONE', *, *, #15, .F. ) ;
#21 = EDGE_LOOP ( 'NONE', ( #23, #46 ) ) ;
#22 = ADVANCED_FACE ( 'NONE', ( #114, #113 ), #108, .F. ) ;
#23 = ORIENTED_EDGE ( 'NONE', *, *, #166, .F. ) ;
#24 = ORIENTED_EDGE ( 'NONE', *, *, #25, .F. ) ;
#25 = EDGE_CURVE ( 'NONE', #157, #160, #102, .T. ) ;
#26 = ORIENTED_EDGE ( 'NONE', *, *, #162, .T. ) ;
#27 = ORIENTED_EDGE ( 'NONE', *, *, #15, .T. ) ;
#28 = ORIENTED_EDGE ( 'NONE', *, *, #156, .F. ) ;
#29 = ORIENTED_EDGE ( 'NONE', *, *, #30, .F. ) ;
#30 = EDGE_CURVE ( 'NONE', #31, #171, #98, .T. ) ;
#31 = VERTEX_POINT ( 'NONE', #93 ) ;
#32 = ORIENTED_EDGE ( 'NONE', *, *, #33, .F. ) ;
#33 = EDGE_CURVE ( 'NONE', #154, #152, #92, .T. ) ;
#34 = ADVANCED_FACE ( 'NONE', ( #88 ), #86, .F. ) ;
#35 = EDGE_LOOP ( 'NONE', ( #36, #136 ) ) ;
#36 = ORIENTED_EDGE ( 'NONE', *, *, #135, .F. ) ;
#37 = EDGE_CURVE ( 'NONE', #171, #31, #81, .T. ) ;
#38 = ORIENTED_EDGE ( 'NONE', *, *, #37, .F. ) ;
#39 = ORIENTED_EDGE ( 'NONE', *, *, #140, .T. ) ;
#40 = ORIENTED_EDGE ( 'NONE', *, *, #47, .T. ) ;
#41 = ORIENTED_EDGE ( 'NONE', *, *, #159, .T. ) ;
#42 = ADVANCED_FACE ( 'NONE', ( #77 ), #76, .T. ) ;
#43 = ORIENTED_EDGE ( 'NONE', *, *, #25, .T. ) ;
#44 = EDGE_LOOP ( 'NONE', ( #45, #40, #39, #38 ) ) ;
#45 = ORIENTED_EDGE ( 'NONE', *, *, #170, .F. ) ;
#46 = ORIENTED_EDGE ( 'NONE', *, *, #47, .F. ) ;
#47 = EDGE_CURVE ( 'NONE', #168, #167, #221, .T. ) ;
#48 = EDGE_LOOP ( 'NONE', ( #41, #43 ) ) ;
#49 =( GEOMETRIC_REPRESENTATION_CONTEXT ( 3 ) GLOBAL_UNCERTAINTY_ASSIGNED_CONTEXT ( ( #50 ) ) GLOBAL_UNIT_ASSIGNED_CONTEXT ( ( #128, #52, #51 ) ) REPRESENTATION_CONTEXT ( 'NONE', 'WORKASPACE' ) );
#50 = UNCERTAINTY_MEASURE_WITH_UNIT (LENGTH_MEASURE( 1.000000000000000100E-005 ), #128, 'distance_accuracy_value', 'NONE');
#51 =( NAMED_UNIT ( * ) SI_UNIT ( $, .STERADIAN. ) SOLID_ANGLE_UNIT ( ) );
#52 =( NAMED_UNIT ( * ) PLANE_ANGLE_UNIT ( ) SI_UNIT ( $, .RADIAN. ) );
#53 = CARTESIAN_POINT ( 'NONE',  ( 2.051215642652481900E-015, 16.75000000000000000, 11.99999999999999800 ) ) ;
#54 = DIRECTION ( 'NONE',  ( -0.0000000000000000000, 9.184850993605149700E-017, 1.000000000000000000 ) ) ;
#55 = VECTOR ( 'NONE', #54, 1000.000000000000000 ) ;
#56 = CARTESIAN_POINT ( 'NONE',  ( 2.051215642652481900E-015, 16.75000000000000000, -1.538462541428862700E-015 ) ) ;
#57 = LINE ( 'NONE', #56, #55 ) ;
#58 = CARTESIAN_POINT ( 'NONE',  ( 2.051215642652481900E-015, 16.75000000000000000, -11.99999999999999800 ) ) ;
#59 = CARTESIAN_POINT ( 'NONE',  ( 0.0000000000000000000, -16.75000000000000000, -11.99999999999999500 ) ) ;
#60 = DIRECTION ( 'NONE',  ( 0.0000000000000000000, -1.000000000000000000, 1.035655806553317700E-016 ) ) ;
#61 = DIRECTION ( 'NONE',  ( -0.0000000000000000000, 9.184850993605149700E-017, 1.000000000000000000 ) ) ;
#62 = CARTESIAN_POINT ( 'NONE',  ( 0.0000000000000000000, -1.102182119232617700E-015, -11.99999999999999600 ) ) ;
#63 = AXIS2_PLACEMENT_3D ( 'NONE', #62, #61, #60 ) ;
#64 = CIRCLE ( 'NONE', #63, 16.75000000000000000 ) ;
#65 = DIRECTION ( 'NONE',  ( 0.0000000000000000000, -1.000000000000000000, 9.184850993605149700E-017 ) ) ;
#66 = DIRECTION ( 'NONE',  ( -0.0000000000000000000, 9.184850993605149700E-017, 1.000000000000000000 ) ) ;
#67 = CARTESIAN_POINT ( 'NONE',  ( 0.0000000000000000000, 0.0000000000000000000, 0.0000000000000000000 ) ) ;
#68 = AXIS2_PLACEMENT_3D ( 'NONE', #67, #66, #65 ) ;
#69 = CYLINDRICAL_SURFACE ( 'NONE', #68, 16.75000000000000000 ) ;
#70 = FACE_OUTER_BOUND ( 'NONE', #138, .T. ) ;
#71 = DIRECTION ( 'NONE',  ( 0.0000000000000000000, 0.7071067811865435800, -0.7071067811865515700 ) ) ;
#72 = VECTOR ( 'NONE', #71, 999.9999999999998900 ) ;
#73 = CARTESIAN_POINT ( 'NONE',  ( 0.0000000000000000000, 13.22049999999999900, -11.53832996693443900 ) ) ;
#74 = LINE ( 'NONE', #73, #72 ) ;
#75 = CARTESIAN_POINT ( 'NONE',  ( 0.0000000000000000000, 0.0000000000000000000, 0.0000000000000000000 ) ) ;
#76 = CYLINDRICAL_SURFACE ( 'NONE', #224, 16.75000000000000000 ) ;
#77 = FACE_OUTER_BOUND ( 'NONE', #44, .T. ) ;
#78 = DIRECTION ( 'NONE',  ( 0.0000000000000000000, -1.000000000000000000, 1.035655806553317700E-016 ) ) ;
#79 = DIRECTION ( 'NONE',  ( -0.0000000000000000000, 9.184850993605149700E-017, 1.000000000000000000 ) ) ;
#80 = AXIS2_PLACEMENT_3D ( 'NONE', #87, #79, #78 ) ;
#81 = CIRCLE ( 'NONE', #80, 16.75000000000000000 ) ;
#82 = DIRECTION ( 'NONE',  ( 0.0000000000000000000, -1.000000000000000000, 9.184850993605149700E-017 ) ) ;
#83 = DIRECTION ( 'NONE',  ( -0.0000000000000000000, 9.184850993605149700E-017, 1.000000000000000000 ) ) ;
#84 = CARTESIAN_POINT ( 'NONE',  ( 0.0000000000000000000, 13.22049999999999900, 7.500000000000000000 ) ) ;
#85 = AXIS2_PLACEMENT_3D ( 'NONE', #84, #83, #82 ) ;
#86 = PLANE ( 'NONE',  #85 ) ;
#87 = CARTESIAN_POINT ( 'NONE',  ( 0.0000000000000000000, 1.102182119232617900E-015, 12.00000000000000000 ) ) ;
#88 = FACE_OUTER_BOUND ( 'NONE', #35, .T. ) ;
#89 = DIRECTION ( 'NONE',  ( -0.0000000000000000000, 9.184850993605149700E-017, 1.000000000000000000 ) ) ;
#90 = VECTOR ( 'NONE', #89, 1000.000000000000000 ) ;
#91 = CARTESIAN_POINT ( 'NONE',  ( 0.0000000000000000000, -13.22049999999999900, 1.214283225609568700E-015 ) ) ;
#92 = LINE ( 'NONE', #91, #90 ) ;
#93 = CARTESIAN_POINT ( 'NONE',  ( 0.0000000000000000000, -16.75000000000000000, 12.00000000000000200 ) ) ;
#94 = DIRECTION ( 'NONE',  ( 0.0000000000000000000, -1.000000000000000000, 1.035655806553317700E-016 ) ) ;
#95 = DIRECTION ( 'NONE',  ( -0.0000000000000000000, 9.184850993605149700E-017, 1.000000000000000000 ) ) ;
#96 = CARTESIAN_POINT ( 'NONE',  ( 0.0000000000000000000, 1.102182119232617900E-015, 12.00000000000000000 ) ) ;
#97 = AXIS2_PLACEMENT_3D ( 'NONE', #96, #95, #94 ) ;
#98 = CIRCLE ( 'NONE', #97, 16.75000000000000000 ) ;
#99 = DIRECTION ( 'NONE',  ( 0.0000000000000000000, -1.000000000000000000, 1.267871596234017500E-016 ) ) ;
#100 = DIRECTION ( 'NONE',  ( -0.0000000000000000000, 9.184850993605149700E-017, 1.000000000000000000 ) ) ;
#101 = AXIS2_PLACEMENT_3D ( 'NONE', #107, #100, #99 ) ;
#102 = CIRCLE ( 'NONE', #101, 13.68217003306555800 ) ;
#103 = DIRECTION ( 'NONE',  ( 0.0000000000000000000, -1.000000000000000000, 9.184850993605149700E-017 ) ) ;
#104 = DIRECTION ( 'NONE',  ( -0.0000000000000000000, 9.184850993605149700E-017, 1.000000000000000000 ) ) ;
#105 = CARTESIAN_POINT ( 'NONE',  ( 0.0000000000000000000, 16.75000000000000000, -12.00000000000000000 ) ) ;
#106 = AXIS2_PLACEMENT_3D ( 'NONE', #105, #104, #103 ) ;
#107 = CARTESIAN_POINT ( 'NONE',  ( 0.0000000000000000000, -1.102182119232617700E-015, -11.99999999999999800 ) ) ;
#108 = PLANE ( 'NONE',  #106 ) ;
#109 = DIRECTION ( 'NONE',  ( 0.0000000000000000000, 1.000000000000000000, -1.312146647991230900E-016 ) ) ;
#110 = DIRECTION ( 'NONE',  ( 0.0000000000000000000, -9.184850993605149700E-017, -1.000000000000000000 ) ) ;
#111 = AXIS2_PLACEMENT_3D ( 'NONE', #115, #110, #109 ) ;
#112 = CONICAL_SURFACE ( 'NONE', #111, 13.22050000000000100, 0.7853981633974427300 ) ;
#113 = FACE_BOUND ( 'NONE', #48, .T. ) ;
#114 = FACE_OUTER_BOUND ( 'NONE', #21, .T. ) ;
#115 = CARTESIAN_POINT ( 'NONE',  ( 0.0000000000000000000, -1.059778414613418200E-015, -11.53832996693443700 ) ) ;
#116 = DIRECTION ( 'NONE',  ( 0.0000000000000000000, -1.000000000000000000, 1.312146647991230900E-016 ) ) ;
#117 = DIRECTION ( 'NONE',  ( -0.0000000000000000000, 9.184850993605149700E-017, 1.000000000000000000 ) ) ;
#118 = CARTESIAN_POINT ( 'NONE',  ( 0.0000000000000000000, -1.059778414613418200E-015, -11.53832996693443700 ) ) ;
#119 = AXIS2_PLACEMENT_3D ( 'NONE', #118, #117, #116 ) ;
#120 = CIRCLE ( 'NONE', #119, 13.22050000000000100 ) ;
#121 = FACE_OUTER_BOUND ( 'NONE', #18, .T. ) ;
#122 = DIRECTION ( 'NONE',  ( 0.0000000000000000000, -1.000000000000000000, 9.184850993605149700E-017 ) ) ;
#123 = DIRECTION ( 'NONE',  ( -0.0000000000000000000, 9.184850993605149700E-017, 1.000000000000000000 ) ) ;
#124 = AXIS2_PLACEMENT_3D ( 'NONE', #126, #123, #122 ) ;
#125 = CYLINDRICAL_SURFACE ( 'NONE', #124, 13.22049999999999900 ) ;
#126 = CARTESIAN_POINT ( 'NONE',  ( 0.0000000000000000000, 0.0000000000000000000, 0.0000000000000000000 ) ) ;
#127 = FACE_OUTER_BOUND ( 'NONE', #134, .T. ) ;
#128 =( LENGTH_UNIT ( ) NAMED_UNIT ( * ) SI_UNIT ( .MILLI., .METRE. ) );
#129 = ORIENTED_EDGE ( 'NONE', *, *, #30, .T. ) ;
#130 = ADVANCED_FACE ( 'NONE', ( #216 ), #215, .F. ) ;
#131 = CLOSED_SHELL ( 'NONE', ( #164, #141, #145, #34, #13, #19, #22, #42, #130 ) ) ;
#132 = ORIENTED_EDGE ( 'NONE', *, *, #37, .T. ) ;
#133 = EDGE_LOOP ( 'NONE', ( #129, #132 ) ) ;
#134 = EDGE_LOOP ( 'NONE', ( #14, #20, #16, #17 ) ) ;
#135 = EDGE_CURVE ( 'NONE', #152, #149, #213, .T. ) ;
#136 = ORIENTED_EDGE ( 'NONE', *, *, #151, .F. ) ;
#137 = MANIFOLD_SOLID_BREP ( 'NONE', #131 ) ;
#138 = EDGE_LOOP ( 'NONE', ( #165, #169, #29, #139 ) ) ;
#139 = ORIENTED_EDGE ( 'NONE', *, *, #140, .F. ) ;
#140 = EDGE_CURVE ( 'NONE', #167, #31, #205, .T. ) ;
#141 = ADVANCED_FACE ( 'NONE', ( #201 ), #200, .F. ) ;
#142 = EDGE_LOOP ( 'NONE', ( #143, #155, #158, #161 ) ) ;
#143 = ORIENTED_EDGE ( 'NONE', *, *, #153, .T. ) ;
#144 = VERTEX_POINT ( 'NONE', #198 ) ;
#145 = ADVANCED_FACE ( 'NONE', ( #194 ), #192, .F. ) ;
#146 = ORIENTED_EDGE ( 'NONE', *, *, #153, .F. ) ;
#147 = ORIENTED_EDGE ( 'NONE', *, *, #148, .T. ) ;
#148 = EDGE_CURVE ( 'NONE', #144, #149, #188, .T. ) ;
#149 = VERTEX_POINT ( 'NONE', #184 ) ;
#150 = ORIENTED_EDGE ( 'NONE', *, *, #151, .T. ) ;
#151 = EDGE_CURVE ( 'NONE', #149, #152, #183, .T. ) ;
#152 = VERTEX_POINT ( 'NONE', #178 ) ;
#153 = EDGE_CURVE ( 'NONE', #144, #154, #177, .T. ) ;
#154 = VERTEX_POINT ( 'NONE', #172 ) ;
#155 = ORIENTED_EDGE ( 'NONE', *, *, #156, .T. ) ;
#156 = EDGE_CURVE ( 'NONE', #154, #157, #12, .T. ) ;
#157 = VERTEX_POINT ( 'NONE', #8 ) ;
#158 = ORIENTED_EDGE ( 'NONE', *, *, #159, .F. ) ;
#159 = EDGE_CURVE ( 'NONE', #160, #157, #7, .T. ) ;
#160 = VERTEX_POINT ( 'NONE', #2 ) ;
#161 = ORIENTED_EDGE ( 'NONE', *, *, #162, .F. ) ;
#162 = EDGE_CURVE ( 'NONE', #144, #160, #74, .T. ) ;
#163 = EDGE_LOOP ( 'NONE', ( #146, #147, #150, #32 ) ) ;
#164 = ADVANCED_FACE ( 'NONE', ( #70 ), #69, .T. ) ;
#165 = ORIENTED_EDGE ( 'NONE', *, *, #166, .T. ) ;
#166 = EDGE_CURVE ( 'NONE', #167, #168, #64, .T. ) ;
#167 = VERTEX_POINT ( 'NONE', #59 ) ;
#168 = VERTEX_POINT ( 'NONE', #58 ) ;
#169 = ORIENTED_EDGE ( 'NONE', *, *, #170, .T. ) ;
#170 = EDGE_CURVE ( 'NONE', #168, #171, #57, .T. ) ;
#171 = VERTEX_POINT ( 'NONE', #53 ) ;
#172 = CARTESIAN_POINT ( 'NONE',  ( 0.0000000000000000000, -13.22050000000000300, -11.53832996693443600 ) ) ;
#173 = DIRECTION ( 'NONE',  ( 0.0000000000000000000, -1.000000000000000000, 1.312146647991230900E-016 ) ) ;
#174 = DIRECTION ( 'NONE',  ( -0.0000000000000000000, 9.184850993605149700E-017, 1.000000000000000000 ) ) ;
#175 = CARTESIAN_POINT ( 'NONE',  ( 0.0000000000000000000, -1.059778414613418200E-015, -11.53832996693443700 ) ) ;
#176 = AXIS2_PLACEMENT_3D ( 'NONE', #175, #174, #173 ) ;
#177 = CIRCLE ( 'NONE', #176, 13.22050000000000100 ) ;
#178 = CARTESIAN_POINT ( 'NONE',  ( 0.0000000000000000000, -13.22049999999999900, 7.500000000000003600 ) ) ;
#179 = DIRECTION ( 'NONE',  ( 0.0000000000000000000, -1.000000000000000000, 6.560733239956155900E-017 ) ) ;
#180 = DIRECTION ( 'NONE',  ( -0.0000000000000000000, 9.184850993605149700E-017, 1.000000000000000000 ) ) ;
#181 = CARTESIAN_POINT ( 'NONE',  ( 0.0000000000000000000, 6.888638245203864900E-016, 7.500000000000002700 ) ) ;
#182 = AXIS2_PLACEMENT_3D ( 'NONE', #181, #180, #179 ) ;
#183 = CIRCLE ( 'NONE', #182, 13.22049999999999900 ) ;
#184 = CARTESIAN_POINT ( 'NONE',  ( 1.618990830070873800E-015, 13.22049999999999900, 7.500000000000001800 ) ) ;
#185 = DIRECTION ( 'NONE',  ( -0.0000000000000000000, 9.184850993605149700E-017, 1.000000000000000000 ) ) ;
#186 = VECTOR ( 'NONE', #185, 1000.000000000000000 ) ;
#187 = CARTESIAN_POINT ( 'NONE',  ( 1.618990830070873800E-015, 13.22049999999999900, -1.214283225609568700E-015 ) ) ;
#188 = LINE ( 'NONE', #187, #186 ) ;
#189 = DIRECTION ( 'NONE',  ( 0.0000000000000000000, -1.000000000000000000, 9.184850993605149700E-017 ) ) ;
#190 = DIRECTION ( 'NONE',  ( -0.0000000000000000000, 9.184850993605149700E-017, 1.000000000000000000 ) ) ;
#191 = AXIS2_PLACEMENT_3D ( 'NONE', #193, #190, #189 ) ;
#192 = CYLINDRICAL_SURFACE ( 'NONE', #191, 13.22049999999999900 ) ;
#193 = CARTESIAN_POINT ( 'NONE',  ( 0.0000000000000000000, 0.0000000000000000000, 0.0000000000000000000 ) ) ;
#194 = FACE_OUTER_BOUND ( 'NONE', #163, .T. ) ;
#195 = DIRECTION ( 'NONE',  ( 0.0000000000000000000, 1.000000000000000000, -1.312146647991230900E-016 ) ) ;
#196 = DIRECTION ( 'NONE',  ( 0.0000000000000000000, -9.184850993605149700E-017, -1.000000000000000000 ) ) ;
#197 = CARTESIAN_POINT ( 'NONE',  ( 0.0000000000000000000, -1.059778414613418200E-015, -11.53832996693443700 ) ) ;
#198 = CARTESIAN_POINT ( 'NONE',  ( 1.618990830070873800E-015, 13.22049999999999900, -11.53832996693443900 ) ) ;
#199 = AXIS2_PLACEMENT_3D ( 'NONE', #197, #196, #195 ) ;
#200 = CONICAL_SURFACE ( 'NONE', #199, 13.22050000000000100, 0.7853981633974427300 ) ;
#201 = FACE_OUTER_BOUND ( 'NONE', #142, .T. ) ;
#202 = DIRECTION ( 'NONE',  ( -0.0000000000000000000, 9.184850993605149700E-017, 1.000000000000000000 ) ) ;
#203 = VECTOR ( 'NONE', #202, 1000.000000000000000 ) ;
#204 = CARTESIAN_POINT ( 'NONE',  ( 0.0000000000000000000, -16.75000000000000000, 1.538462541428862700E-015 ) ) ;
#205 = LINE ( 'NONE', #204, #203 ) ;
#206 = DIRECTION ( 'NONE',  ( 0.0000000000000000000, -1.000000000000000000, 6.560733239956155900E-017 ) ) ;
#207 = DIRECTION ( 'NONE',  ( -0.0000000000000000000, 9.184850993605149700E-017, 1.000000000000000000 ) ) ;
#208 = CARTESIAN_POINT ( 'NONE',  ( 0.0000000000000000000, 6.888638245203864900E-016, 7.500000000000002700 ) ) ;
#209 = AXIS2_PLACEMENT_3D ( 'NONE', #208, #207, #206 ) ;
#210 = DIRECTION ( 'NONE',  ( 0.0000000000000000000, 1.000000000000000000, -9.184850993605149700E-017 ) ) ;
#211 = DIRECTION ( 'NONE',  ( 0.0000000000000000000, -9.184850993605149700E-017, -1.000000000000000000 ) ) ;
#212 = AXIS2_PLACEMENT_3D ( 'NONE', #214, #211, #210 ) ;
#213 = CIRCLE ( 'NONE', #209, 13.22049999999999900 ) ;
#214 = CARTESIAN_POINT ( 'NONE',  ( 0.0000000000000000000, -1.102182119232617900E-015, 12.00000000000000000 ) ) ;
#215 = PLANE ( 'NONE',  #212 ) ;
#216 = FACE_OUTER_BOUND ( 'NONE', #133, .T. ) ;
#217 = DIRECTION ( 'NONE',  ( 0.0000000000000000000, -1.000000000000000000, 1.035655806553317700E-016 ) ) ;
#218 = DIRECTION ( 'NONE',  ( -0.0000000000000000000, 9.184850993605149700E-017, 1.000000000000000000 ) ) ;
#219 = CARTESIAN_POINT ( 'NONE',  ( 0.0000000000000000000, -1.102182119232617700E-015, -11.99999999999999600 ) ) ;
#220 = AXIS2_PLACEMENT_3D ( 'NONE', #219, #218, #217 ) ;
#221 = CIRCLE ( 'NONE', #220, 16.75000000000000000 ) ;
#222 = DIRECTION ( 'NONE',  ( 0.0000000000000000000, -1.000000000000000000, 9.184850993605149700E-017 ) ) ;
#223 = DIRECTION ( 'NONE',  ( -0.0000000000000000000, 9.184850993605149700E-017, 1.000000000000000000 ) ) ;
#224 = AXIS2_PLACEMENT_3D ( 'NONE', #75, #223, #222 ) ;
#225 = AXIS2_PLACEMENT_3D ( 'NONE', #280, #274, #275 ) ;
#226 = APPLICATION_CONTEXT ( 'configuration controlled 3d designs of mechanical parts and assemblies' ) ;
#227 = CC_DESIGN_PERSON_AND_ORGANIZATION_ASSIGNMENT ( #229, #228, ( #244 ) ) ;
#228 = PERSON_AND_ORGANIZATION_ROLE ( 'design_supplier' ) ;
#229 = PERSON_AND_ORGANIZATION ( #276, #273 ) ;
#230 = CC_DESIGN_PERSON_AND_ORGANIZATION_ASSIGNMENT ( #232, #231, ( #244 ) ) ;
#231 = PERSON_AND_ORGANIZATION_ROLE ( 'creator' ) ;
#232 = PERSON_AND_ORGANIZATION ( #276, #273 ) ;
#233 = CC_DESIGN_APPROVAL ( #241, ( #244 ) ) ;
#234 = APPROVAL_DATE_TIME ( #235, #241 ) ;
#235 = DATE_AND_TIME ( #236, #237 ) ;
#236 = CALENDAR_DATE ( 2015, 11, 8 ) ;
#237 = LOCAL_TIME ( 16, 6, 41.00000000000000000, #238 ) ;
#238 = COORDINATED_UNIVERSAL_TIME_OFFSET ( 1, 0, .AHEAD. ) ;
#239 = APPROVAL_PERSON_ORGANIZATION ( #243, #241, #240 ) ;
#240 = APPROVAL_ROLE ( '' ) ;
#241 = APPROVAL ( #242, 'UNSPECIFIED' ) ;
#242 = APPROVAL_STATUS ( 'not_yet_approved' ) ;
#243 = PERSON_AND_ORGANIZATION ( #276, #273 ) ;
#244 = PRODUCT_DEFINITION_FORMATION_WITH_SPECIFIED_SOURCE ( 'ANY', '', #277, .NOT_KNOWN. ) ;
#245 = CC_DESIGN_DATE_AND_TIME_ASSIGNMENT ( #247, #246, ( #265 ) ) ;
#246 = DATE_TIME_ROLE ( 'creation_date' ) ;
#247 = DATE_AND_TIME ( #248, #249 ) ;
#248 = CALENDAR_DATE ( 2015, 11, 8 ) ;
#249 = LOCAL_TIME ( 16, 6, 41.00000000000000000, #250 ) ;
#250 = COORDINATED_UNIVERSAL_TIME_OFFSET ( 1, 0, .AHEAD. ) ;
#251 = CC_DESIGN_PERSON_AND_ORGANIZATION_ASSIGNMENT ( #253, #252, ( #265 ) ) ;
#252 = PERSON_AND_ORGANIZATION_ROLE ( 'creator' ) ;
#253 = PERSON_AND_ORGANIZATION ( #276, #273 ) ;
#254 = CC_DESIGN_APPROVAL ( #262, ( #265 ) ) ;
#255 = APPROVAL_DATE_TIME ( #256, #262 ) ;
#256 = DATE_AND_TIME ( #257, #258 ) ;
#257 = CALENDAR_DATE ( 2015, 11, 8 ) ;
#258 = LOCAL_TIME ( 16, 6, 41.00000000000000000, #259 ) ;
#259 = COORDINATED_UNIVERSAL_TIME_OFFSET ( 1, 0, .AHEAD. ) ;
#260 = APPROVAL_PERSON_ORGANIZATION ( #264, #262, #261 ) ;
#261 = APPROVAL_ROLE ( '' ) ;
#262 = APPROVAL ( #263, 'UNSPECIFIED' ) ;
#263 = APPROVAL_STATUS ( 'not_yet_approved' ) ;
#264 = PERSON_AND_ORGANIZATION ( #276, #273 ) ;
#265 = PRODUCT_DEFINITION ( 'UNKNOWN', '', #244, #266 ) ;
#266 = DESIGN_CONTEXT ( 'detailed design', #268, 'design' ) ;
#267 = APPLICATION_PROTOCOL_DEFINITION ( 'international standard', 'config_control_design', 1994, #268 ) ;
#268 = APPLICATION_CONTEXT ( 'configuration controlled 3d designs of mechanical parts and assemblies' ) ;
#269 = SHAPE_DEFINITION_REPRESENTATION ( #281, #1 ) ;
#270 = CC_DESIGN_PERSON_AND_ORGANIZATION_ASSIGNMENT ( #272, #271, ( #277 ) ) ;
#271 = PERSON_AND_ORGANIZATION_ROLE ( 'design_owner' ) ;
#272 = PERSON_AND_ORGANIZATION ( #276, #273 ) ;
#273 = ORGANIZATION ( 'UNSPECIFIED', 'UNSPECIFIED', '' ) ;
#274 = DIRECTION ( 'NONE',  ( 0.0000000000000000000, 0.0000000000000000000, 1.000000000000000000 ) ) ;
#275 = DIRECTION ( 'NONE',  ( 1.000000000000000000, 0.0000000000000000000, 0.0000000000000000000 ) ) ;
#276 = PERSON ( 'UNSPECIFIED', 'UNSPECIFIED', 'UNSPECIFIED', ('UNSPECIFIED'), ('UNSPECIFIED'), ('UNSPECIFIED') ) ;
#277 = PRODUCT ( '11-0232-05_outokumpu', '11-0232-05_outokumpu', '', ( #278 ) ) ;
#278 = MECHANICAL_CONTEXT ( 'NONE', #226, 'mechanical' ) ;
#279 = APPLICATION_PROTOCOL_DEFINITION ( 'international standard', 'config_control_design', 1994, #226 ) ;
#280 = CARTESIAN_POINT ( 'NONE',  ( 0.0000000000000000000, 0.0000000000000000000, 0.0000000000000000000 ) ) ;
#281 = PRODUCT_DEFINITION_SHAPE ( 'NONE', 'NONE',  #265 ) ;
#282 = PRODUCT_RELATED_PRODUCT_CATEGORY ( 'detail', '', ( #277 ) ) ;
#283 = CC_DESIGN_SECURITY_CLASSIFICATION ( #304, ( #244 ) ) ;
#284 = CC_DESIGN_APPROVAL ( #292, ( #304 ) ) ;
#285 = APPROVAL_DATE_TIME ( #286, #292 ) ;
#286 = DATE_AND_TIME ( #287, #288 ) ;
#287 = CALENDAR_DATE ( 2015, 11, 8 ) ;
#288 = LOCAL_TIME ( 16, 6, 41.00000000000000000, #289 ) ;
#289 = COORDINATED_UNIVERSAL_TIME_OFFSET ( 1, 0, .AHEAD. ) ;
#290 = APPROVAL_PERSON_ORGANIZATION ( #294, #292, #291 ) ;
#291 = APPROVAL_ROLE ( '' ) ;
#292 = APPROVAL ( #293, 'UNSPECIFIED' ) ;
#293 = APPROVAL_STATUS ( 'not_yet_approved' ) ;
#294 = PERSON_AND_ORGANIZATION ( #276, #273 ) ;
#295 = CC_DESIGN_DATE_AND_TIME_ASSIGNMENT ( #297, #296, ( #304 ) ) ;
#296 = DATE_TIME_ROLE ( 'classification_date' ) ;
#297 = DATE_AND_TIME ( #298, #299 ) ;
#298 = CALENDAR_DATE ( 2015, 11, 8 ) ;
#299 = LOCAL_TIME ( 16, 6, 41.00000000000000000, #300 ) ;
#300 = COORDINATED_UNIVERSAL_TIME_OFFSET ( 1, 0, .AHEAD. ) ;
#301 = CC_DESIGN_PERSON_AND_ORGANIZATION_ASSIGNMENT ( #303, #302, ( #304 ) ) ;
#302 = PERSON_AND_ORGANIZATION_ROLE ( 'classification_officer' ) ;
#303 = PERSON_AND_ORGANIZATION ( #276, #273 ) ;
#304 = SECURITY_CLASSIFICATION ( '', '', #305 ) ;
#305 = SECURITY_CLASSIFICATION_LEVEL ( 'unclassified' ) ;
ENDSEC;
END-ISO-10303-21;
