ISO-10303-21;
HEADER;
/****************************************************************
 * Generated by software with PDElib inside                    *
 * PDElib Version v51a, created Wed 07/06/2011                  *
 * ITI Transcendata (http://www.transcendata.com/)              *
 ****************************************************************/
FILE_DESCRIPTION(('RE_26,9x1,6-17,2x1,6_L60_V10'),'2;1');
FILE_NAME('RE_26,9x1,6-17,2x1,6_L60_V10.stp','2013-11-02T16:36:11',('DOCKWEILER AG'),('DOCKWEILER AG'),'Autodesk Inventor 2012','Autodesk Inventor 2012','');
FILE_SCHEMA(('CONFIG_CONTROL_DESIGN'));
ENDSEC;
DATA;
#5=APPLICATION_CONTEXT('configuration controlled 3D designs of mechanical parts and assemblies');
#6=APPLICATION_PROTOCOL_DEFINITION('International Standard','ap203_configuration_controlled_3d_design_of_mechanical_parts_and_assemblies_mim_lf',2004,#5);
#7=PRODUCT_CONTEXT('',#5,'mechanical');
#8=PRODUCT('N0006_002_001_009','N0006_002_001_009',$,(#7));
#9=PRODUCT_RELATED_PRODUCT_CATEGORY('part',$,(#8));
#10=PRODUCT_DEFINITION_FORMATION('',$,#8);
#11=PRODUCT_DEFINITION_CONTEXT('part definition',#5,'design');
#12=PRODUCT_DEFINITION('',$,#10,#11);
#18=(NAMED_UNIT(*)PLANE_ANGLE_UNIT()SI_UNIT($,.RADIAN.));
#19=DIMENSIONAL_EXPONENTS(0.0,0.0,0.0,0.0,0.0,0.0,0.0);
#20=PLANE_ANGLE_MEASURE_WITH_UNIT(PLANE_ANGLE_MEASURE(0.0174532925),#18);
#24=(CONVERSION_BASED_UNIT('DEGREE',#20)NAMED_UNIT(#19)PLANE_ANGLE_UNIT());
#28=(NAMED_UNIT(*)SI_UNIT($,.STERADIAN.)SOLID_ANGLE_UNIT());
#32=(LENGTH_UNIT()NAMED_UNIT(*)SI_UNIT(.MILLI.,.METRE.));
#34=UNCERTAINTY_MEASURE_WITH_UNIT(LENGTH_MEASURE(0.01),#32,'DISTANCE_ACCURACY_VALUE','');
#36=(GEOMETRIC_REPRESENTATION_CONTEXT(3)GLOBAL_UNCERTAINTY_ASSIGNED_CONTEXT((#34))GLOBAL_UNIT_ASSIGNED_CONTEXT((#24,#28,#32))REPRESENTATION_CONTEXT('None','None'));
#37=AXIS2_PLACEMENT_3D('',#38,#39,#40);
#38=CARTESIAN_POINT('',(0.0,0.0,0.0));
#39=DIRECTION('',(0.0,0.0,1.0));
#40=DIRECTION('',(1.0,0.0,0.0));
#41=SHAPE_REPRESENTATION('',(#37),#36);
#42=PRODUCT_DEFINITION_SHAPE('','',#12);
#43=SHAPE_DEFINITION_REPRESENTATION(#42,#41);
#49=(NAMED_UNIT(*)PLANE_ANGLE_UNIT()SI_UNIT($,.RADIAN.));
#50=DIMENSIONAL_EXPONENTS(0.0,0.0,0.0,0.0,0.0,0.0,0.0);
#51=PLANE_ANGLE_MEASURE_WITH_UNIT(PLANE_ANGLE_MEASURE(0.0174532925),#49);
#55=(CONVERSION_BASED_UNIT('DEGREE',#51)NAMED_UNIT(#50)PLANE_ANGLE_UNIT());
#59=(NAMED_UNIT(*)SI_UNIT($,.STERADIAN.)SOLID_ANGLE_UNIT());
#63=(LENGTH_UNIT()NAMED_UNIT(*)SI_UNIT(.MILLI.,.METRE.));
#65=UNCERTAINTY_MEASURE_WITH_UNIT(LENGTH_MEASURE(0.000001),#63,'DISTANCE_ACCURACY_VALUE','');
#67=(GEOMETRIC_REPRESENTATION_CONTEXT(3)GLOBAL_UNCERTAINTY_ASSIGNED_CONTEXT((#65))GLOBAL_UNIT_ASSIGNED_CONTEXT((#55,#59,#63))REPRESENTATION_CONTEXT('','3D'));
#68=CARTESIAN_POINT('',(5.400137068395018,34.304448718874731,6.719303574123964));
#69=CARTESIAN_POINT('',(4.210513E-014,7.603403749415953,12.345029374687059));
#70=CARTESIAN_POINT('',(11.850000000000023,33.000000000000007,6.719303574123938));
#71=CARTESIAN_POINT('',(11.850000000000044,5.206807498831916,12.345029374687014));
#72=CARTESIAN_POINT('',(11.850000000000003,33.000000000000014,-2.495682E-014));
#73=CARTESIAN_POINT('',(11.850000000000007,5.206807498831923,-4.152601E-014));
#74=CARTESIAN_POINT('',(11.84999999999998,33.000000000000021,-6.719303574123989));
#75=CARTESIAN_POINT('',(11.849999999999966,5.206807498831932,-12.345029374687099));
#76=CARTESIAN_POINT('',(5.400137068394973,34.304448718874745,-6.719303574123968));
#77=CARTESIAN_POINT('',(-3.644411E-014,7.603403749415969,-12.345029374687062));
#78=CARTESIAN_POINT('',(-1.049725863210034,35.608897437749469,-6.719303574123943));
#79=CARTESIAN_POINT('',(-11.850000000000037,10.000000000000005,-12.345029374687019));
#80=CARTESIAN_POINT('',(-1.049725863210013,35.608897437749462,2.051592E-014));
#81=CARTESIAN_POINT('',(-11.85,10.0,3.708512E-014));
#82=CARTESIAN_POINT('',(-1.049725863209989,35.608897437749455,6.719303574123986));
#83=CARTESIAN_POINT('',(-11.849999999999959,9.999999999999991,12.345029374687096));
#84=CARTESIAN_POINT('',(5.400137068395018,34.304448718874731,6.719303574123964));
#85=CARTESIAN_POINT('',(4.210513E-014,7.603403749415953,12.345029374687059));
#93=(BOUNDED_SURFACE()B_SPLINE_SURFACE(1,2,((#68,#70,#72,#74,#76,#78,#80,#82,#84),(#69,#71,#73,#75,#77,#79,#81,#83,#85)),.UNSPECIFIED.,.F.,.T.,.U.)B_SPLINE_SURFACE_WITH_KNOTS((2,2),(3,2,2,2,3),(-2.14317267937418,0.202244409331986),(0.0,18.629526959989402,37.259053919978804,55.888580879968202,74.518107839957608),.UNSPECIFIED.)GEOMETRIC_REPRESENTATION_ITEM()RATIONAL_B_SPLINE_SURFACE(((1.0,0.707106781186548,1.0,0.707106781186548,1.0,0.707106781186548,1.0,0.707106781186548,1.0),(1.0,0.707106781186548,1.0,0.707106781186548,1.0,0.707106781186548,1.0,0.707106781186548,1.0)))REPRESENTATION_ITEM('')SURFACE());
#94=CARTESIAN_POINT('',(11.850000000000005,10.0,-1.451206E-015));
#95=VERTEX_POINT('',#94);
#96=CARTESIAN_POINT('',(0.0,10.0,0.0));
#97=DIRECTION('',(0.0,1.0,0.0));
#98=DIRECTION('',(-1.0,0.0,0.0));
#99=AXIS2_PLACEMENT_3D('',#96,#97,#98);
#100=CIRCLE('',#99,11.850000000000005);
#101=EDGE_CURVE('',#95,#95,#100,.T.);
#102=ORIENTED_EDGE('',*,*,#101,.F.);
#103=EDGE_LOOP('',(#102));
#104=FACE_OUTER_BOUND('',#103,.T.);
#105=CARTESIAN_POINT('',(11.850000000000001,33.000000000000014,-8.572528E-016));
#106=VERTEX_POINT('',#105);
#107=CARTESIAN_POINT('',(4.85,33.000000000000014,0.0));
#108=DIRECTION('',(0.0,1.0,0.0));
#109=DIRECTION('',(-1.0,0.0,0.0));
#110=AXIS2_PLACEMENT_3D('',#107,#108,#109);
#111=CIRCLE('',#110,7.000000000000001);
#112=EDGE_CURVE('',#106,#106,#111,.T.);
#113=ORIENTED_EDGE('',*,*,#112,.T.);
#114=EDGE_LOOP('',(#113));
#115=FACE_BOUND('',#114,.T.);
#116=ADVANCED_FACE('',(#104,#115),#93,.F.);
#117=CARTESIAN_POINT('',(4.849999999999984,59.999999999999993,0.0));
#118=DIRECTION('',(6.030841E-016,-1.0,0.0));
#119=DIRECTION('',(-1.0,0.0,0.0));
#120=AXIS2_PLACEMENT_3D('',#117,#118,#119);
#121=CYLINDRICAL_SURFACE('',#120,7.000000000000001);
#122=ORIENTED_EDGE('',*,*,#112,.F.);
#123=EDGE_LOOP('',(#122));
#124=FACE_OUTER_BOUND('',#123,.T.);
#125=CARTESIAN_POINT('',(11.849999999999984,59.999999999999993,8.572528E-016));
#126=VERTEX_POINT('',#125);
#127=CARTESIAN_POINT('',(4.849999999999984,60.0,0.0));
#128=DIRECTION('',(0.0,-1.0,0.0));
#129=DIRECTION('',(-1.0,0.0,0.0));
#130=AXIS2_PLACEMENT_3D('',#127,#128,#129);
#131=CIRCLE('',#130,7.000000000000001);
#132=EDGE_CURVE('',#126,#126,#131,.T.);
#133=ORIENTED_EDGE('',*,*,#132,.F.);
#134=EDGE_LOOP('',(#133));
#135=FACE_BOUND('',#134,.T.);
#136=ADVANCED_FACE('',(#124,#135),#121,.F.);
#137=CARTESIAN_POINT('',(0.0,2.775558E-015,0.0));
#138=DIRECTION('',(0.0,1.0,0.0));
#139=DIRECTION('',(-1.0,0.0,0.0));
#140=AXIS2_PLACEMENT_3D('',#137,#138,#139);
#141=CYLINDRICAL_SURFACE('',#140,11.850000000000005);
#142=CARTESIAN_POINT('',(11.850000000000005,2.775558E-015,1.451206E-015));
#143=VERTEX_POINT('',#142);
#144=CARTESIAN_POINT('',(0.0,2.775558E-015,0.0));
#145=DIRECTION('',(0.0,1.0,0.0));
#146=DIRECTION('',(-1.0,0.0,0.0));
#147=AXIS2_PLACEMENT_3D('',#144,#145,#146);
#148=CIRCLE('',#147,11.850000000000005);
#149=EDGE_CURVE('',#143,#143,#148,.T.);
#150=ORIENTED_EDGE('',*,*,#149,.F.);
#151=EDGE_LOOP('',(#150));
#152=FACE_OUTER_BOUND('',#151,.T.);
#153=ORIENTED_EDGE('',*,*,#101,.T.);
#154=EDGE_LOOP('',(#153));
#155=FACE_BOUND('',#154,.T.);
#156=ADVANCED_FACE('',(#152,#155),#141,.F.);
#157=CARTESIAN_POINT('',(4.849999999999991,47.5,0.0));
#158=DIRECTION('',(-5.551115E-016,1.0,0.0));
#159=DIRECTION('',(-1.0,0.0,0.0));
#160=AXIS2_PLACEMENT_3D('',#157,#158,#159);
#161=CYLINDRICAL_SURFACE('',#160,8.599999999999797);
#162=CARTESIAN_POINT('',(-3.74999999999982,60.0,0.0));
#163=VERTEX_POINT('',#162);
#164=CARTESIAN_POINT('',(4.849999999999984,60.0,0.0));
#165=DIRECTION('',(0.0,1.0,0.0));
#166=DIRECTION('',(-1.0,0.0,0.0));
#167=AXIS2_PLACEMENT_3D('',#164,#165,#166);
#168=CIRCLE('',#167,8.599999999999803);
#169=EDGE_CURVE('',#163,#163,#168,.T.);
#170=ORIENTED_EDGE('',*,*,#169,.F.);
#171=EDGE_LOOP('',(#170));
#172=FACE_OUTER_BOUND('',#171,.T.);
#173=CARTESIAN_POINT('',(13.45000000000001,35.0,1.647150E-015));
#174=VERTEX_POINT('',#173);
#175=CARTESIAN_POINT('',(4.849999999999997,35.000000000000007,0.0));
#176=DIRECTION('',(0.0,1.0,0.0));
#177=DIRECTION('',(-1.0,0.0,0.0));
#178=AXIS2_PLACEMENT_3D('',#175,#176,#177);
#179=CIRCLE('',#178,8.59999999999979);
#180=EDGE_CURVE('',#174,#174,#179,.T.);
#181=ORIENTED_EDGE('',*,*,#180,.T.);
#182=EDGE_LOOP('',(#181));
#183=FACE_BOUND('',#182,.T.);
#184=ADVANCED_FACE('',(#172,#183),#161,.T.);
#185=CARTESIAN_POINT('',(0.550000000000082,60.0,0.0));
#186=DIRECTION('',(0.0,1.0,0.0));
#187=DIRECTION('',(0.0,0.0,1.0));
#188=AXIS2_PLACEMENT_3D('',#185,#186,#187);
#189=PLANE('',#188);
#190=ORIENTED_EDGE('',*,*,#169,.T.);
#191=EDGE_LOOP('',(#190));
#192=FACE_OUTER_BOUND('',#191,.T.);
#193=ORIENTED_EDGE('',*,*,#132,.T.);
#194=EDGE_LOOP('',(#193));
#195=FACE_BOUND('',#194,.T.);
#196=ADVANCED_FACE('',(#192,#195),#189,.T.);
#197=CARTESIAN_POINT('',(4.85,30.000000000000007,0.0));
#198=DIRECTION('',(5.551115E-016,-1.0,0.0));
#199=DIRECTION('',(-1.0,0.0,0.0));
#200=AXIS2_PLACEMENT_3D('',#197,#198,#199);
#201=CONICAL_SURFACE('',#200,13.449999999999896,44.127542877098612);
#202=ORIENTED_EDGE('',*,*,#180,.F.);
#203=CARTESIAN_POINT('',(-13.449999999999999,25.0,0.0));
#204=VERTEX_POINT('',#203);
#205=CARTESIAN_POINT('',(13.45000000000001,34.99999999999978,8.326673E-016));
#206=CARTESIAN_POINT('',(13.45000000000001,34.99999999999978,-1.104969717441411));
#207=CARTESIAN_POINT('',(13.304578414271099,34.914223794808656,-2.299037665923924));
#208=CARTESIAN_POINT('',(12.700303985932585,34.572779650121753,-4.582538559882041));
#209=CARTESIAN_POINT('',(12.242137480666893,34.319576062346627,-5.67252086494137));
#210=CARTESIAN_POINT('',(10.978370368047257,33.656354168215657,-7.914458234913038));
#211=CARTESIAN_POINT('',(9.966262673126813,33.15064355398907,-9.167988235378813));
#212=CARTESIAN_POINT('',(7.581004286599205,32.058832706535064,-11.220818062296749));
#213=CARTESIAN_POINT('',(6.207481453379429,31.473907157163733,-12.02031005755105));
#214=CARTESIAN_POINT('',(3.945090118600916,30.572205303295227,-12.894960855803518));
#215=CARTESIAN_POINT('',(2.973045910868047,30.200277846025557,-13.156501650070279));
#216=CARTESIAN_POINT('',(0.96510071746022,29.462790000522819,-13.453665601072435));
#217=CARTESIAN_POINT('',(-0.070761940992017,29.09716253553151,-13.489381255695289));
#218=CARTESIAN_POINT('',(-2.128696897052624,28.39556337348975,-13.320549382408323));
#219=CARTESIAN_POINT('',(-3.152581959224627,28.058876848465367,-13.115829514378593));
#220=CARTESIAN_POINT('',(-5.113247109842525,27.431943563425602,-12.482726495696777));
#221=CARTESIAN_POINT('',(-6.049958238330621,27.141622680535296,-12.054203194369419));
#222=CARTESIAN_POINT('',(-7.826288562047091,26.602543811842089,-10.990628671825357));
#223=CARTESIAN_POINT('',(-8.759534644229415,26.326686418251857,-10.273672381080939));
#224=CARTESIAN_POINT('',(-10.405392718187276,25.849475653805634,-8.602650332660033));
#225=CARTESIAN_POINT('',(-11.117637772185125,25.647758379857045,-7.648327136312658));
#226=CARTESIAN_POINT('',(-12.210681172869307,25.341067628309943,-5.745685745252565));
#227=CARTESIAN_POINT('',(-12.683430065610724,25.210426333321895,-4.633734679916735));
#228=CARTESIAN_POINT('',(-13.303181419856397,25.039964169855928,-2.316518804913113));
#229=CARTESIAN_POINT('',(-13.45000000000001,24.999999999999996,-1.111215362979637));
#230=CARTESIAN_POINT('',(-13.45000000000001,24.999999999999996,0.0));
#231=B_SPLINE_CURVE_WITH_KNOTS('',3,(#205,#206,#207,#208,#209,#210,#211,#212,#213,#214,#215,#216,#217,#218,#219,#220,#221,#222,#223,#224,#225,#226,#227,#228,#229,#230),.UNSPECIFIED.,.F.,.U.,(4,2,2,2,2,2,2,2,2,2,2,2,4),(4.1660221998896,4.497513115122024,4.829004030354448,5.294816594984129,5.760629159613809,6.071144188429772,6.381659217245735,6.692174246061698,7.00268927487766,7.33400222843454,7.665315181991419,7.99867979088531,8.332044399779202),.UNSPECIFIED.);
#232=EDGE_CURVE('',#174,#204,#231,.T.);
#233=ORIENTED_EDGE('',*,*,#232,.T.);
#234=CARTESIAN_POINT('',(-13.45000000000001,24.999999999999996,0.0));
#235=CARTESIAN_POINT('',(-13.45000000000001,24.999999999999996,1.111215362979636));
#236=CARTESIAN_POINT('',(-13.303181419856397,25.039964169855914,2.316518804913112));
#237=CARTESIAN_POINT('',(-12.683430065610724,25.210426333321884,4.633734679916733));
#238=CARTESIAN_POINT('',(-12.210681172869311,25.341067628309943,5.745685745252562));
#239=CARTESIAN_POINT('',(-11.117637772185125,25.647758379857038,7.648327136312657));
#240=CARTESIAN_POINT('',(-10.405392718187279,25.84947565380563,8.602650332660032));
#241=CARTESIAN_POINT('',(-8.759534644229419,26.326686418251853,10.273672381080935));
#242=CARTESIAN_POINT('',(-7.826288562047092,26.602543811842089,10.990628671825355));
#243=CARTESIAN_POINT('',(-6.049958238330621,27.141622680535285,12.054203194369419));
#244=CARTESIAN_POINT('',(-5.113247109842525,27.431943563425598,12.482726495696777));
#245=CARTESIAN_POINT('',(-3.152581959224627,28.05887684846536,13.115829514378593));
#246=CARTESIAN_POINT('',(-2.128696897052625,28.395563373489743,13.320549382408323));
#247=CARTESIAN_POINT('',(-0.07076194099202,29.097162535531503,13.489381255695289));
#248=CARTESIAN_POINT('',(0.965100717460214,29.462790000522816,13.453665601072434));
#249=CARTESIAN_POINT('',(2.973045910868045,30.20027784602555,13.156501650070275));
#250=CARTESIAN_POINT('',(3.945090118600914,30.572205303295227,12.894960855803518));
#251=CARTESIAN_POINT('',(6.207481453379425,31.473907157163733,12.02031005755105));
#252=CARTESIAN_POINT('',(7.581004286599201,32.058832706535064,11.22081806229675));
#253=CARTESIAN_POINT('',(9.96626267312681,33.15064355398907,9.167988235378816));
#254=CARTESIAN_POINT('',(10.978370368047257,33.656354168215643,7.914458234913041));
#255=CARTESIAN_POINT('',(12.242137480666893,34.319576062346613,5.672520864941375));
#256=CARTESIAN_POINT('',(12.700303985932585,34.572779650121745,4.582538559882049));
#257=CARTESIAN_POINT('',(13.304578414271102,34.914223794808656,2.299037665923929));
#258=CARTESIAN_POINT('',(13.45000000000001,34.99999999999978,1.104969717441415));
#259=CARTESIAN_POINT('',(13.45000000000001,34.99999999999978,0.0));
#260=B_SPLINE_CURVE_WITH_KNOTS('',3,(#234,#235,#236,#237,#238,#239,#240,#241,#242,#243,#244,#245,#246,#247,#248,#249,#250,#251,#252,#253,#254,#255,#256,#257,#258,#259),.UNSPECIFIED.,.F.,.U.,(4,2,2,2,2,2,2,2,2,2,2,2,4),(0.0,0.333364608893891,0.666729217787781,0.998042171344661,1.32935512490154,1.639870153717502,1.950385182533465,2.260900211349428,2.571415240165391,3.037227804795071,3.503040369424751,3.834531284657175,4.1660221998896),.UNSPECIFIED.);
#261=EDGE_CURVE('',#204,#174,#260,.T.);
#262=ORIENTED_EDGE('',*,*,#261,.T.);
#263=EDGE_LOOP('',(#202,#233,#262));
#264=FACE_OUTER_BOUND('',#263,.T.);
#265=ADVANCED_FACE('',(#264),#201,.T.);
#266=CARTESIAN_POINT('',(0.0,12.500000000000002,0.0));
#267=DIRECTION('',(0.0,-1.0,0.0));
#268=DIRECTION('',(1.0,0.0,0.0));
#269=AXIS2_PLACEMENT_3D('',#266,#267,#268);
#270=CYLINDRICAL_SURFACE('',#269,13.45000000000001);
#271=CARTESIAN_POINT('',(13.45000000000001,3.330669E-015,0.0));
#272=VERTEX_POINT('',#271);
#273=CARTESIAN_POINT('',(0.0,4.440892E-015,0.0));
#274=DIRECTION('',(0.0,-1.0,0.0));
#275=DIRECTION('',(1.0,0.0,0.0));
#276=AXIS2_PLACEMENT_3D('',#273,#274,#275);
#277=CIRCLE('',#276,13.45000000000001);
#278=EDGE_CURVE('',#272,#272,#277,.T.);
#279=ORIENTED_EDGE('',*,*,#278,.F.);
#280=EDGE_LOOP('',(#279));
#281=FACE_OUTER_BOUND('',#280,.T.);
#282=ORIENTED_EDGE('',*,*,#232,.F.);
#283=ORIENTED_EDGE('',*,*,#261,.F.);
#284=EDGE_LOOP('',(#282,#283));
#285=FACE_BOUND('',#284,.T.);
#286=ADVANCED_FACE('',(#281,#285),#270,.T.);
#287=CARTESIAN_POINT('',(6.725000000000005,2.775558E-015,0.0));
#288=DIRECTION('',(0.0,-1.0,0.0));
#289=DIRECTION('',(0.0,0.0,-1.0));
#290=AXIS2_PLACEMENT_3D('',#287,#288,#289);
#291=PLANE('',#290);
#292=ORIENTED_EDGE('',*,*,#278,.T.);
#293=EDGE_LOOP('',(#292));
#294=FACE_OUTER_BOUND('',#293,.T.);
#295=ORIENTED_EDGE('',*,*,#149,.T.);
#296=EDGE_LOOP('',(#295));
#297=FACE_BOUND('',#296,.T.);
#298=ADVANCED_FACE('',(#294,#297),#291,.T.);
#299=CLOSED_SHELL('',(#116,#136,#156,#184,#196,#265,#286,#298));
#300=MANIFOLD_SOLID_BREP('Volumenk\S\vrper2',#299);
#301=COLOUR_RGB('Metall - Stahl',0.639216005802155,0.639216005802155,0.686275005340576);
#302=FILL_AREA_STYLE_COLOUR('Metall - Stahl',#301);
#303=FILL_AREA_STYLE('Metall - Stahl',(#302));
#304=SURFACE_STYLE_FILL_AREA(#303);
#305=SURFACE_SIDE_STYLE('Metall - Stahl',(#304));
#306=SURFACE_STYLE_USAGE(.BOTH.,#305);
#307=PRESENTATION_STYLE_ASSIGNMENT((#306));
#308=STYLED_ITEM('',(#307),#300);
#309=MECHANICAL_DESIGN_GEOMETRIC_PRESENTATION_REPRESENTATION('',(#308),#36);
#310=ADVANCED_BREP_SHAPE_REPRESENTATION('ABSR',(#300),#36);
#311=SHAPE_REPRESENTATION_RELATIONSHIP('SRR','None',#310,#41);
ENDSEC;
END-ISO-10303-21;
