ISO-10303-21;
HEADER;
FILE_DESCRIPTION (( 'STEP AP203' ),
    '1' );
FILE_NAME ('3D_R1620_114.3x2.6_173630170_173631180.STEP',
    '2024-08-27T11:11:52',
    ( '' ),
    ( '' ),
    'SwSTEP 2.0',
    'SolidWorks 2024',
    '' );
FILE_SCHEMA (( 'CONFIG_CONTROL_DESIGN' ));
ENDSEC;

DATA;
#1 = EDGE_LOOP ( 'NONE', ( #237, #151 ) ) ;
#2 = PERSON_AND_ORGANIZATION_ROLE ( 'creator' ) ;
#3 = FACE_BOUND ( 'NONE', #66, .T. ) ;
#4 = CARTESIAN_POINT ( 'NONE',  ( -47.44999999999998863, 0.000000000000000000, -4.329534671802315948E-15 ) ) ;
#5 = EDGE_CURVE ( 'NONE', #160, #238, #164, .T. ) ;
#6 = CARTESIAN_POINT ( 'NONE',  ( -3.045882984816416723E-13, 0.000000000000000000, -102.0000000000000000 ) ) ;
#7 = CC_DESIGN_APPROVAL ( #50, ( #101 ) ) ;
#8 = CARTESIAN_POINT ( 'NONE',  ( 0.000000000000000000, -6.998856457127124130E-15, 0.000000000000000000 ) ) ;
#9 = PRODUCT ( '3D_R1620_114.3x2.6_173630170_173631180', '3D_R1620_114.3x2.6_173630170_173631180', '', ( #61 ) ) ;
#10 = ADVANCED_BREP_SHAPE_REPRESENTATION ( '3D_R1620_114.3x2.6_173630170_173631180', ( #119, #91 ), #114 ) ;
#11 = CARTESIAN_POINT ( 'NONE',  ( -156.5499999999999829, 0.000000000000000000, -1.428427087187887688E-14 ) ) ;
#12 = PRODUCT_RELATED_PRODUCT_CATEGORY ( 'detail', '', ( #9 ) ) ;
#13 = DIRECTION ( 'NONE',  ( 0.000000000000000000, 0.000000000000000000, 1.000000000000000000 ) ) ;
#14 = AXIS2_PLACEMENT_3D ( 'NONE', #56, #147, #202 ) ;
#15 = DIRECTION ( 'NONE',  ( -9.124414482196663926E-17, 0.000000000000000000, 1.000000000000000000 ) ) ;
#16 = EDGE_CURVE ( 'NONE', #69, #22, #20, .T. ) ;
#17 = COORDINATED_UNIVERSAL_TIME_OFFSET ( 1, 0, .AHEAD. ) ;
#18 = ORIENTED_EDGE ( 'NONE', *, *, #16, .T. ) ;
#19 = SHAPE_DEFINITION_REPRESENTATION ( #23, #10 ) ;
#20 = CIRCLE ( 'NONE', #129, 47.44999999999998863 ) ;
#21 = APPROVAL_STATUS ( 'not_yet_approved' ) ;
#22 = VERTEX_POINT ( 'NONE', #4 ) ;
#23 = PRODUCT_DEFINITION_SHAPE ( 'NONE', 'NONE',  #107 ) ;
#24 = ORIENTED_EDGE ( 'NONE', *, *, #74, .F. ) ;
#25 = DIRECTION ( 'NONE',  ( 3.078612664085839248E-15, 0.000000000000000000, 1.000000000000000000 ) ) ;
#26 = CARTESIAN_POINT ( 'NONE',  ( -3.045882984816416723E-13, 0.000000000000000000, -102.0000000000000000 ) ) ;
#27 = CARTESIAN_POINT ( 'NONE',  ( 0.000000000000000000, 0.000000000000000000, 0.000000000000000000 ) ) ;
#28 = ADVANCED_FACE ( 'NONE', ( #216 ), #57, .F. ) ;
#29 = FACE_OUTER_BOUND ( 'NONE', #1, .T. ) ;
#30 = DIRECTION ( 'NONE',  ( 1.000000000000000000, 0.000000000000000000, 9.124414482196662693E-17 ) ) ;
#31 = ADVANCED_FACE ( 'NONE', ( #3, #105 ), #65, .F. ) ;
#32 = AXIS2_PLACEMENT_3D ( 'NONE', #110, #59, #75 ) ;
#33 = PLANE ( 'NONE',  #118 ) ;
#34 = CIRCLE ( 'NONE', #223, 54.55000000000000426 ) ;
#35 = CC_DESIGN_APPROVAL ( #195, ( #107 ) ) ;
#36 = CIRCLE ( 'NONE', #77, 57.14999999999999858 ) ;
#37 = APPROVAL_ROLE ( '' ) ;
#38 = APPROVAL_DATE_TIME ( #170, #195 ) ;
#39 = EDGE_CURVE ( 'NONE', #160, #157, #228, .T. ) ;
#40 = ORIENTED_EDGE ( 'NONE', *, *, #5, .F. ) ;
#41 = AXIS2_PLACEMENT_3D ( 'NONE', #81, #47, #193 ) ;
#42 = LOCAL_TIME ( 13, 11, 52.00000000000000000, #17 ) ;
#43 = PERSON_AND_ORGANIZATION ( #44, #158 ) ;
#44 = PERSON ( 'UNSPECIFIED', 'UNSPECIFIED', 'UNSPECIFIED', ('UNSPECIFIED'), ('UNSPECIFIED'), ('UNSPECIFIED') ) ;
#45 = ORIENTED_EDGE ( 'NONE', *, *, #5, .T. ) ;
#46 = CIRCLE ( 'NONE', #205, 57.14999999999999858 ) ;
#47 = DIRECTION ( 'NONE',  ( -9.124414482196663926E-17, 0.000000000000000000, 1.000000000000000000 ) ) ;
#48 = CARTESIAN_POINT ( 'NONE',  ( -1.460801709108730766E-13, 0.000000000000000000, -47.44999999999998863 ) ) ;
#49 = ORIENTED_EDGE ( 'NONE', *, *, #55, .T. ) ;
#50 = APPROVAL ( #21, 'UNSPECIFIED' ) ;
#51 = APPLICATION_CONTEXT ( 'configuration controlled 3d designs of mechanical parts and assemblies' ) ;
#52 = AXIS2_PLACEMENT_3D ( 'NONE', #126, #200, #226 ) ;
#53 = ORIENTED_EDGE ( 'NONE', *, *, #120, .T. ) ;
#54 = FACE_OUTER_BOUND ( 'NONE', #100, .T. ) ;
#55 = EDGE_CURVE ( 'NONE', #69, #168, #34, .T. ) ;
#56 = CARTESIAN_POINT ( 'NONE',  ( -102.0000000000000000, 0.000000000000000000, -9.306902771840596416E-15 ) ) ;
#57 = TOROIDAL_SURFACE ( 'NONE', #189, 102.0000000000000000, 54.55000000000000426 ) ;
#58 = LOCAL_TIME ( 13, 11, 52.00000000000000000, #148 ) ;
#59 = DIRECTION ( 'NONE',  ( 0.000000000000000000, 1.000000000000000000, 0.000000000000000000 ) ) ;
#60 = CARTESIAN_POINT ( 'NONE',  ( 0.000000000000000000, 0.000000000000000000, 0.000000000000000000 ) ) ;
#61 = MECHANICAL_CONTEXT ( 'NONE', #51, 'mechanical' ) ;
#62 = CC_DESIGN_PERSON_AND_ORGANIZATION_ASSIGNMENT ( #127, #109, ( #9 ) ) ;
#63 = COORDINATED_UNIVERSAL_TIME_OFFSET ( 1, 0, .AHEAD. ) ;
#64 = AXIS2_PLACEMENT_3D ( 'NONE', #26, #106, #175 ) ;
#65 = PLANE ( 'NONE',  #64 ) ;
#66 = EDGE_LOOP ( 'NONE', ( #49, #156 ) ) ;
#67 = EDGE_LOOP ( 'NONE', ( #53, #197, #214, #198 ) ) ;
#68 = EDGE_LOOP ( 'NONE', ( #194, #136, #18, #219 ) ) ;
#69 = VERTEX_POINT ( 'NONE', #48 ) ;
#70 = AXIS2_PLACEMENT_3D ( 'NONE', #122, #236, #25 ) ;
#71 = AXIS2_PLACEMENT_3D ( 'NONE', #72, #184, #163 ) ;
#72 = CARTESIAN_POINT ( 'NONE',  ( 0.000000000000000000, 0.000000000000000000, 0.000000000000000000 ) ) ;
#73 = CARTESIAN_POINT ( 'NONE',  ( -4.819568125626381064E-13, 0.000000000000000000, -156.5499999999999829 ) ) ;
#74 = EDGE_CURVE ( 'NONE', #22, #115, #145, .T. ) ;
#75 = DIRECTION ( 'NONE',  ( 0.000000000000000000, 0.000000000000000000, 1.000000000000000000 ) ) ;
#76 = CALENDAR_DATE ( 2024, 27, 8 ) ;
#77 = AXIS2_PLACEMENT_3D ( 'NONE', #241, #108, #30 ) ;
#78 = APPROVAL_DATE_TIME ( #94, #166 ) ;
#79 = CALENDAR_DATE ( 2024, 27, 8 ) ;
#80 = LOCAL_TIME ( 13, 11, 52.00000000000000000, #248 ) ;
#81 = CARTESIAN_POINT ( 'NONE',  ( -102.0000000000000000, 0.000000000000000000, -9.306902771840596416E-15 ) ) ;
#82 = DIRECTION ( 'NONE',  ( -1.000000000000000000, 0.000000000000000000, 3.078612664085839642E-15 ) ) ;
#83 = DIRECTION ( 'NONE',  ( 0.000000000000000000, 0.000000000000000000, 1.000000000000000000 ) ) ;
#84 = APPROVAL_PERSON_ORGANIZATION ( #209, #50, #37 ) ;
#85 = DIRECTION ( 'NONE',  ( 0.000000000000000000, 1.000000000000000000, 0.000000000000000000 ) ) ;
#86 = DIRECTION ( 'NONE',  ( 0.000000000000000000, 0.000000000000000000, 1.000000000000000000 ) ) ;
#87 = DIRECTION ( 'NONE',  ( 0.000000000000000000, 0.000000000000000000, 1.000000000000000000 ) ) ;
#88 = UNCERTAINTY_MEASURE_WITH_UNIT (LENGTH_MEASURE( 1.000000000000000082E-05 ), #165, 'distance_accuracy_value', 'NONE');
#89 =( NAMED_UNIT ( * ) SI_UNIT ( $, .STERADIAN. ) SOLID_ANGLE_UNIT ( ) );
#90 = AXIS2_PLACEMENT_3D ( 'NONE', #103, #174, #235 ) ;
#91 = AXIS2_PLACEMENT_3D ( 'NONE', #92, #87, #242 ) ;
#92 = CARTESIAN_POINT ( 'NONE',  ( 0.000000000000000000, 0.000000000000000000, 0.000000000000000000 ) ) ;
#93 = DATE_TIME_ROLE ( 'creation_date' ) ;
#94 = DATE_AND_TIME ( #191, #80 ) ;
#95 = CLOSED_SHELL ( 'NONE', ( #28, #225, #207, #143, #31, #171 ) ) ;
#96 = DATE_AND_TIME ( #97, #224 ) ;
#97 = CALENDAR_DATE ( 2024, 27, 8 ) ;
#98 = EDGE_LOOP ( 'NONE', ( #117, #40 ) ) ;
#99 = CC_DESIGN_PERSON_AND_ORGANIZATION_ASSIGNMENT ( #43, #116, ( #146 ) ) ;
#100 = EDGE_LOOP ( 'NONE', ( #153, #45, #178, #134 ) ) ;
#101 = PRODUCT_DEFINITION_FORMATION_WITH_SPECIFIED_SOURCE ( 'ANY', '', #9, .NOT_KNOWN. ) ;
#102 = EDGE_LOOP ( 'NONE', ( #159, #252, #133, #239 ) ) ;
#103 = CARTESIAN_POINT ( 'NONE',  ( -3.045882984816416723E-13, 0.000000000000000000, -102.0000000000000000 ) ) ;
#104 = EDGE_CURVE ( 'NONE', #168, #69, #210, .T. ) ;
#105 = FACE_OUTER_BOUND ( 'NONE', #98, .T. ) ;
#106 = DIRECTION ( 'NONE',  ( -1.000000000000000000, 0.000000000000000000, 3.078612664085839642E-15 ) ) ;
#107 = PRODUCT_DEFINITION ( 'UNKNOWN', '', #101, #243 ) ;
#108 = DIRECTION ( 'NONE',  ( -9.124414482196663926E-17, 0.000000000000000000, 1.000000000000000000 ) ) ;
#109 = PERSON_AND_ORGANIZATION_ROLE ( 'design_owner' ) ;
#110 = CARTESIAN_POINT ( 'NONE',  ( 0.000000000000000000, 0.000000000000000000, 0.000000000000000000 ) ) ;
#111 = AXIS2_PLACEMENT_3D ( 'NONE', #6, #121, #124 ) ;
#112 = CC_DESIGN_SECURITY_CLASSIFICATION ( #146, ( #101 ) ) ;
#113 = PERSON_AND_ORGANIZATION_ROLE ( 'creator' ) ;
#114 =( GEOMETRIC_REPRESENTATION_CONTEXT ( 3 ) GLOBAL_UNCERTAINTY_ASSIGNED_CONTEXT ( ( #88 ) ) GLOBAL_UNIT_ASSIGNED_CONTEXT ( ( #165, #201, #89 ) ) REPRESENTATION_CONTEXT ( 'NONE', 'WORKASPACE' ) );
#115 = VERTEX_POINT ( 'NONE', #11 ) ;
#116 = PERSON_AND_ORGANIZATION_ROLE ( 'classification_officer' ) ;
#117 = ORIENTED_EDGE ( 'NONE', *, *, #120, .F. ) ;
#118 = AXIS2_PLACEMENT_3D ( 'NONE', #179, #221, #222 ) ;
#119 = MANIFOLD_SOLID_BREP ( 'Wandung1', #95 ) ;
#120 = EDGE_CURVE ( 'NONE', #238, #160, #246, .T. ) ;
#121 = DIRECTION ( 'NONE',  ( -1.000000000000000000, 0.000000000000000000, 3.078612664085839642E-15 ) ) ;
#122 = CARTESIAN_POINT ( 'NONE',  ( -3.140184917367556293E-13, 0.000000000000000000, -102.0000000000000000 ) ) ;
#123 = CARTESIAN_POINT ( 'NONE',  ( 0.000000000000000000, 0.000000000000000000, 0.000000000000000000 ) ) ;
#124 = DIRECTION ( 'NONE',  ( 3.078612664085839248E-15, 0.000000000000000000, 1.000000000000000000 ) ) ;
#125 = CARTESIAN_POINT ( 'NONE',  ( -102.0000000000000000, 0.000000000000000000, -1.873709602695452500E-14 ) ) ;
#126 = CARTESIAN_POINT ( 'NONE',  ( 0.000000000000000000, 0.000000000000000000, 0.000000000000000000 ) ) ;
#127 = PERSON_AND_ORGANIZATION ( #44, #158 ) ;
#128 = EDGE_CURVE ( 'NONE', #238, #188, #233, .T. ) ;
#129 = AXIS2_PLACEMENT_3D ( 'NONE', #172, #137, #173 ) ;
#130 = ORIENTED_EDGE ( 'NONE', *, *, #185, .F. ) ;
#131 = DATE_AND_TIME ( #187, #58 ) ;
#132 = APPROVAL_ROLE ( '' ) ;
#133 = ORIENTED_EDGE ( 'NONE', *, *, #185, .T. ) ;
#134 = ORIENTED_EDGE ( 'NONE', *, *, #155, .F. ) ;
#135 = APPLICATION_CONTEXT ( 'configuration controlled 3d designs of mechanical parts and assemblies' ) ;
#136 = ORIENTED_EDGE ( 'NONE', *, *, #55, .F. ) ;
#137 = DIRECTION ( 'NONE',  ( 0.000000000000000000, 1.000000000000000000, 0.000000000000000000 ) ) ;
#138 = DIRECTION ( 'NONE',  ( 0.000000000000000000, 1.000000000000000000, 0.000000000000000000 ) ) ;
#139 = CC_DESIGN_PERSON_AND_ORGANIZATION_ASSIGNMENT ( #208, #253, ( #101 ) ) ;
#140 = TOROIDAL_SURFACE ( 'NONE', #52, 102.0000000000000000, 57.14999999999999858 ) ;
#141 = CARTESIAN_POINT ( 'NONE',  ( -44.84999999999999432, 0.000000000000000000, -1.352249315037913088E-14 ) ) ;
#142 = CARTESIAN_POINT ( 'NONE',  ( -159.1499999999999773, 0.000000000000000000, -2.395169890352991755E-14 ) ) ;
#143 = ADVANCED_FACE ( 'NONE', ( #247, #29 ), #33, .T. ) ;
#144 = DIRECTION ( 'NONE',  ( 0.000000000000000000, 1.000000000000000000, 0.000000000000000000 ) ) ;
#145 = CIRCLE ( 'NONE', #41, 54.55000000000000426 ) ;
#146 = SECURITY_CLASSIFICATION ( '', '', #212 ) ;
#147 = DIRECTION ( 'NONE',  ( -9.124414482196663926E-17, 0.000000000000000000, 1.000000000000000000 ) ) ;
#148 = COORDINATED_UNIVERSAL_TIME_OFFSET ( 1, 0, .AHEAD. ) ;
#149 = PERSON_AND_ORGANIZATION ( #44, #158 ) ;
#150 = CC_DESIGN_PERSON_AND_ORGANIZATION_ASSIGNMENT ( #149, #2, ( #107 ) ) ;
#151 = ORIENTED_EDGE ( 'NONE', *, *, #155, .T. ) ;
#152 = APPROVAL_DATE_TIME ( #96, #50 ) ;
#153 = ORIENTED_EDGE ( 'NONE', *, *, #39, .F. ) ;
#154 = CARTESIAN_POINT ( 'NONE',  ( -3.140184917367556293E-13, 0.000000000000000000, -102.0000000000000000 ) ) ;
#155 = EDGE_CURVE ( 'NONE', #157, #188, #36, .T. ) ;
#156 = ORIENTED_EDGE ( 'NONE', *, *, #104, .T. ) ;
#157 = VERTEX_POINT ( 'NONE', #142 ) ;
#158 = ORGANIZATION ( 'UNSPECIFIED', 'UNSPECIFIED', '' ) ;
#159 = ORIENTED_EDGE ( 'NONE', *, *, #104, .F. ) ;
#160 = VERTEX_POINT ( 'NONE', #220 ) ;
#161 = FACE_OUTER_BOUND ( 'NONE', #68, .T. ) ;
#162 = CC_DESIGN_APPROVAL ( #166, ( #146 ) ) ;
#163 = DIRECTION ( 'NONE',  ( 0.000000000000000000, 0.000000000000000000, 1.000000000000000000 ) ) ;
#164 = CIRCLE ( 'NONE', #111, 57.14999999999999858 ) ;
#165 =( LENGTH_UNIT ( ) NAMED_UNIT ( * ) SI_UNIT ( .MILLI., .METRE. ) );
#166 = APPROVAL ( #204, 'UNSPECIFIED' ) ;
#167 = COORDINATED_UNIVERSAL_TIME_OFFSET ( 1, 0, .AHEAD. ) ;
#168 = VERTEX_POINT ( 'NONE', #73 ) ;
#169 = PERSON_AND_ORGANIZATION ( #44, #158 ) ;
#170 = DATE_AND_TIME ( #76, #234 ) ;
#171 = ADVANCED_FACE ( 'NONE', ( #161 ), #215, .F. ) ;
#172 = CARTESIAN_POINT ( 'NONE',  ( 0.000000000000000000, -6.680448289348812114E-15, 0.000000000000000000 ) ) ;
#173 = DIRECTION ( 'NONE',  ( 0.000000000000000000, 0.000000000000000000, 1.000000000000000000 ) ) ;
#174 = DIRECTION ( 'NONE',  ( -1.000000000000000000, 0.000000000000000000, 3.078612664085839642E-15 ) ) ;
#175 = DIRECTION ( 'NONE',  ( 3.078612664085839642E-15, 0.000000000000000000, 1.000000000000000000 ) ) ;
#176 = TOROIDAL_SURFACE ( 'NONE', #186, 102.0000000000000000, 57.14999999999999858 ) ;
#177 = CC_DESIGN_DATE_AND_TIME_ASSIGNMENT ( #131, #93, ( #107 ) ) ;
#178 = ORIENTED_EDGE ( 'NONE', *, *, #128, .T. ) ;
#179 = CARTESIAN_POINT ( 'NONE',  ( -102.0000000000000000, 0.000000000000000000, -1.873709602695452500E-14 ) ) ;
#180 = CARTESIAN_POINT ( 'NONE',  ( -1.286455847291359553E-13, 0.000000000000000000, -44.84999999999999432 ) ) ;
#181 = CIRCLE ( 'NONE', #32, 156.5499999999999829 ) ;
#182 = FACE_OUTER_BOUND ( 'NONE', #67, .T. ) ;
#183 = APPLICATION_PROTOCOL_DEFINITION ( 'international standard', 'config_control_design', 1994, #51 ) ;
#184 = DIRECTION ( 'NONE',  ( 0.000000000000000000, 1.000000000000000000, 0.000000000000000000 ) ) ;
#185 = EDGE_CURVE ( 'NONE', #115, #22, #251, .T. ) ;
#186 = AXIS2_PLACEMENT_3D ( 'NONE', #60, #144, #13 ) ;
#187 = CALENDAR_DATE ( 2024, 27, 8 ) ;
#188 = VERTEX_POINT ( 'NONE', #141 ) ;
#189 = AXIS2_PLACEMENT_3D ( 'NONE', #27, #192, #218 ) ;
#190 = DATE_TIME_ROLE ( 'classification_date' ) ;
#191 = CALENDAR_DATE ( 2024, 27, 8 ) ;
#192 = DIRECTION ( 'NONE',  ( 0.000000000000000000, 1.000000000000000000, 0.000000000000000000 ) ) ;
#193 = DIRECTION ( 'NONE',  ( 1.000000000000000000, 0.000000000000000000, 9.124414482196663926E-17 ) ) ;
#194 = ORIENTED_EDGE ( 'NONE', *, *, #244, .F. ) ;
#195 = APPROVAL ( #232, 'UNSPECIFIED' ) ;
#196 = AXIS2_PLACEMENT_3D ( 'NONE', #123, #138, #83 ) ;
#197 = ORIENTED_EDGE ( 'NONE', *, *, #39, .T. ) ;
#198 = ORIENTED_EDGE ( 'NONE', *, *, #128, .F. ) ;
#199 = DIRECTION ( 'NONE',  ( 1.000000000000000000, 0.000000000000000000, 9.124414482196662693E-17 ) ) ;
#200 = DIRECTION ( 'NONE',  ( 0.000000000000000000, 1.000000000000000000, 0.000000000000000000 ) ) ;
#201 =( NAMED_UNIT ( * ) PLANE_ANGLE_UNIT ( ) SI_UNIT ( $, .RADIAN. ) );
#202 = DIRECTION ( 'NONE',  ( 1.000000000000000000, 0.000000000000000000, 9.124414482196663926E-17 ) ) ;
#203 = CC_DESIGN_PERSON_AND_ORGANIZATION_ASSIGNMENT ( #227, #113, ( #101 ) ) ;
#204 = APPROVAL_STATUS ( 'not_yet_approved' ) ;
#205 = AXIS2_PLACEMENT_3D ( 'NONE', #125, #15, #199 ) ;
#206 = PERSON_AND_ORGANIZATION ( #44, #158 ) ;
#207 = ADVANCED_FACE ( 'NONE', ( #54 ), #140, .T. ) ;
#208 = PERSON_AND_ORGANIZATION ( #44, #158 ) ;
#209 = PERSON_AND_ORGANIZATION ( #44, #158 ) ;
#210 = CIRCLE ( 'NONE', #70, 54.55000000000000426 ) ;
#211 = APPROVAL_PERSON_ORGANIZATION ( #206, #195, #132 ) ;
#212 = SECURITY_CLASSIFICATION_LEVEL ( 'unclassified' ) ;
#213 = CC_DESIGN_DATE_AND_TIME_ASSIGNMENT ( #231, #190, ( #146 ) ) ;
#214 = ORIENTED_EDGE ( 'NONE', *, *, #229, .F. ) ;
#215 = TOROIDAL_SURFACE ( 'NONE', #71, 102.0000000000000000, 54.55000000000000426 ) ;
#216 = FACE_OUTER_BOUND ( 'NONE', #102, .T. ) ;
#217 = DIRECTION ( 'NONE',  ( 3.078612664085839248E-15, 0.000000000000000000, 1.000000000000000000 ) ) ;
#218 = DIRECTION ( 'NONE',  ( 0.000000000000000000, 0.000000000000000000, 1.000000000000000000 ) ) ;
#219 = ORIENTED_EDGE ( 'NONE', *, *, #74, .T. ) ;
#220 = CARTESIAN_POINT ( 'NONE',  ( -4.805310122341474147E-13, 0.000000000000000000, -159.1499999999999773 ) ) ;
#221 = DIRECTION ( 'NONE',  ( -9.124414482196663926E-17, 0.000000000000000000, 1.000000000000000000 ) ) ;
#222 = DIRECTION ( 'NONE',  ( 1.000000000000000000, 0.000000000000000000, 9.124414482196663926E-17 ) ) ;
#223 = AXIS2_PLACEMENT_3D ( 'NONE', #154, #82, #217 ) ;
#224 = LOCAL_TIME ( 13, 11, 52.00000000000000000, #167 ) ;
#225 = ADVANCED_FACE ( 'NONE', ( #182 ), #176, .T. ) ;
#226 = DIRECTION ( 'NONE',  ( 0.000000000000000000, 0.000000000000000000, 1.000000000000000000 ) ) ;
#227 = PERSON_AND_ORGANIZATION ( #44, #158 ) ;
#228 = CIRCLE ( 'NONE', #196, 159.1499999999999773 ) ;
#229 = EDGE_CURVE ( 'NONE', #188, #157, #46, .T. ) ;
#230 = AXIS2_PLACEMENT_3D ( 'NONE', #8, #85, #86 ) ;
#231 = DATE_AND_TIME ( #79, #42 ) ;
#232 = APPROVAL_STATUS ( 'not_yet_approved' ) ;
#233 = CIRCLE ( 'NONE', #230, 44.84999999999999432 ) ;
#234 = LOCAL_TIME ( 13, 11, 52.00000000000000000, #63 ) ;
#235 = DIRECTION ( 'NONE',  ( 3.078612664085839248E-15, 0.000000000000000000, 1.000000000000000000 ) ) ;
#236 = DIRECTION ( 'NONE',  ( -1.000000000000000000, 0.000000000000000000, 3.078612664085839642E-15 ) ) ;
#237 = ORIENTED_EDGE ( 'NONE', *, *, #229, .T. ) ;
#238 = VERTEX_POINT ( 'NONE', #180 ) ;
#239 = ORIENTED_EDGE ( 'NONE', *, *, #16, .F. ) ;
#240 = APPROVAL_PERSON_ORGANIZATION ( #169, #166, #249 ) ;
#241 = CARTESIAN_POINT ( 'NONE',  ( -102.0000000000000000, 0.000000000000000000, -1.873709602695452500E-14 ) ) ;
#242 = DIRECTION ( 'NONE',  ( 1.000000000000000000, 0.000000000000000000, 0.000000000000000000 ) ) ;
#243 = DESIGN_CONTEXT ( 'detailed design', #135, 'design' ) ;
#244 = EDGE_CURVE ( 'NONE', #168, #115, #181, .T. ) ;
#245 = APPLICATION_PROTOCOL_DEFINITION ( 'international standard', 'config_control_design', 1994, #135 ) ;
#246 = CIRCLE ( 'NONE', #90, 57.14999999999999858 ) ;
#247 = FACE_BOUND ( 'NONE', #250, .T. ) ;
#248 = COORDINATED_UNIVERSAL_TIME_OFFSET ( 1, 0, .AHEAD. ) ;
#249 = APPROVAL_ROLE ( '' ) ;
#250 = EDGE_LOOP ( 'NONE', ( #24, #130 ) ) ;
#251 = CIRCLE ( 'NONE', #14, 54.55000000000000426 ) ;
#252 = ORIENTED_EDGE ( 'NONE', *, *, #244, .T. ) ;
#253 = PERSON_AND_ORGANIZATION_ROLE ( 'design_supplier' ) ;
ENDSEC;
END-ISO-10303-21;
