ISO-10303-21;
HEADER;
FILE_DESCRIPTION (( 'STEP AP203' ),
    '1' );
FILE_NAME ('19-0408-75_outokumpu.step',
    '2015-08-11T09:39:40',
    ( '' ),
    ( '' ),
    'SwSTEP 2.0',
    'SolidWorks 2008',
    '' );
FILE_SCHEMA (( 'CONFIG_CONTROL_DESIGN' ));
ENDSEC;

DATA;
#1 = EDGE_CURVE ( 'NONE', #416, #3, #116, .T. ) ;
#2 = ORIENTED_EDGE ( 'NONE', *, *, #1, .F. ) ;
#3 = VERTEX_POINT ( 'NONE', #111 ) ;
#4 = EDGE_CURVE ( 'NONE', #5, #3, #110, .T. ) ;
#5 = VERTEX_POINT ( 'NONE', #148 ) ;
#6 = ORIENTED_EDGE ( 'NONE', *, *, #4, .T. ) ;
#7 = EDGE_CURVE ( 'NONE', #8, #5, #147, .T. ) ;
#8 = VERTEX_POINT ( 'NONE', #142 ) ;
#9 = ORIENTED_EDGE ( 'NONE', *, *, #7, .T. ) ;
#10 = ADVANCED_FACE ( 'NONE', ( #141 ), #138, .F. ) ;
#11 = EDGE_LOOP ( 'NONE', ( #9, #6, #2, #419 ) ) ;
#12 = MANIFOLD_SOLID_BREP ( 'NONE', #101 ) ;
#13 = VERTEX_POINT ( 'NONE', #139 ) ;
#14 = EDGE_CURVE ( 'NONE', #18, #13, #134, .T. ) ;
#15 = ORIENTED_EDGE ( 'NONE', *, *, #14, .F. ) ;
#16 = ORIENTED_EDGE ( 'NONE', *, *, #40, .F. ) ;
#17 = EDGE_CURVE ( 'NONE', #22, #13, #129, .T. ) ;
#18 = VERTEX_POINT ( 'NONE', #125 ) ;
#19 = ORIENTED_EDGE ( 'NONE', *, *, #17, .T. ) ;
#20 = EDGE_CURVE ( 'NONE', #21, #22, #124, .T. ) ;
#21 = VERTEX_POINT ( 'NONE', #119 ) ;
#22 = VERTEX_POINT ( 'NONE', #118 ) ;
#23 = EDGE_LOOP ( 'NONE', ( #25, #19, #15, #16 ) ) ;
#24 = ADVANCED_FACE ( 'NONE', ( #117 ), #187, .T. ) ;
#25 = ORIENTED_EDGE ( 'NONE', *, *, #20, .T. ) ;
#26 = ORIENTED_EDGE ( 'NONE', *, *, #27, .T. ) ;
#27 = EDGE_CURVE ( 'NONE', #81, #411, #183, .T. ) ;
#28 = EDGE_CURVE ( 'NONE', #81, #33, #178, .T. ) ;
#29 = EDGE_CURVE ( 'NONE', #412, #30, #174, .T. ) ;
#30 = VERTEX_POINT ( 'NONE', #170 ) ;
#31 = ORIENTED_EDGE ( 'NONE', *, *, #32, .F. ) ;
#32 = EDGE_CURVE ( 'NONE', #33, #30, #169, .T. ) ;
#33 = VERTEX_POINT ( 'NONE', #164 ) ;
#34 = VERTEX_POINT ( 'NONE', #163 ) ;
#35 = VERTEX_POINT ( 'NONE', #162 ) ;
#36 = ADVANCED_FACE ( 'NONE', ( #161 ), #159, .F. ) ;
#37 = EDGE_LOOP ( 'NONE', ( #38, #83, #85, #86, #152 ) ) ;
#38 = ORIENTED_EDGE ( 'NONE', *, *, #39, .F. ) ;
#39 = EDGE_CURVE ( 'NONE', #35, #34, #203, .T. ) ;
#40 = EDGE_CURVE ( 'NONE', #21, #18, #198, .T. ) ;
#41 = EDGE_LOOP ( 'NONE', ( #76, #77, #190, #66 ) ) ;
#42 = ORIENTED_EDGE ( 'NONE', *, *, #80, .T. ) ;
#43 = ORIENTED_EDGE ( 'NONE', *, *, #20, .F. ) ;
#44 = ORIENTED_EDGE ( 'NONE', *, *, #45, .F. ) ;
#45 = EDGE_CURVE ( 'NONE', #22, #21, #194, .T. ) ;
#46 = EDGE_LOOP ( 'NONE', ( #43, #44 ) ) ;
#47 = ADVANCED_FACE ( 'NONE', ( #218, #217 ), #216, .F. ) ;
#48 = ORIENTED_EDGE ( 'NONE', *, *, #49, .F. ) ;
#49 = EDGE_CURVE ( 'NONE', #5, #30, #211, .T. ) ;
#50 = CC_DESIGN_DATE_AND_TIME_ASSIGNMENT ( #52, #51, ( #401 ) ) ;
#51 = DATE_TIME_ROLE ( 'creation_date' ) ;
#52 = DATE_AND_TIME ( #53, #54 ) ;
#53 = CALENDAR_DATE ( 2015, 11, 8 ) ;
#54 = LOCAL_TIME ( 11, 39, 40.00000000000000000, #55 ) ;
#55 = COORDINATED_UNIVERSAL_TIME_OFFSET ( 1, 0, .AHEAD. ) ;
#56 = ORIENTED_EDGE ( 'NONE', *, *, #32, .T. ) ;
#57 = ORIENTED_EDGE ( 'NONE', *, *, #106, .F. ) ;
#58 = ORIENTED_EDGE ( 'NONE', *, *, #40, .T. ) ;
#59 = ORIENTED_EDGE ( 'NONE', *, *, #39, .T. ) ;
#60 = ORIENTED_EDGE ( 'NONE', *, *, #72, .T. ) ;
#61 = EDGE_LOOP ( 'NONE', ( #87, #103 ) ) ;
#62 = EDGE_LOOP ( 'NONE', ( #102, #107, #58, #57 ) ) ;
#63 = EDGE_CURVE ( 'NONE', #412, #151, #295, .T. ) ;
#64 = ORIENTED_EDGE ( 'NONE', *, *, #414, .F. ) ;
#65 = ADVANCED_FACE ( 'NONE', ( #236 ), #258, .T. ) ;
#66 = ORIENTED_EDGE ( 'NONE', *, *, #69, .T. ) ;
#67 = ADVANCED_FACE ( 'NONE', ( #260 ), #259, .F. ) ;
#68 = ORIENTED_EDGE ( 'NONE', *, *, #84, .F. ) ;
#69 = EDGE_CURVE ( 'NONE', #30, #33, #232, .T. ) ;
#70 = EDGE_LOOP ( 'NONE', ( #68, #71, #73, #74, #64 ) ) ;
#71 = ORIENTED_EDGE ( 'NONE', *, *, #72, .F. ) ;
#72 = EDGE_CURVE ( 'NONE', #34, #35, #256, .T. ) ;
#73 = ORIENTED_EDGE ( 'NONE', *, *, #150, .T. ) ;
#74 = ORIENTED_EDGE ( 'NONE', *, *, #63, .F. ) ;
#75 = ADVANCED_FACE ( 'NONE', ( #257 ), #250, .F. ) ;
#76 = ORIENTED_EDGE ( 'NONE', *, *, #189, .F. ) ;
#77 = ORIENTED_EDGE ( 'NONE', *, *, #78, .F. ) ;
#78 = EDGE_CURVE ( 'NONE', #5, #8, #246, .T. ) ;
#79 = ORIENTED_EDGE ( 'NONE', *, *, #1, .T. ) ;
#80 = EDGE_CURVE ( 'NONE', #3, #416, #292, .T. ) ;
#81 = VERTEX_POINT ( 'NONE', #287 ) ;
#82 = ORIENTED_EDGE ( 'NONE', *, *, #28, .F. ) ;
#83 = ORIENTED_EDGE ( 'NONE', *, *, #84, .T. ) ;
#84 = EDGE_CURVE ( 'NONE', #35, #411, #286, .T. ) ;
#85 = ORIENTED_EDGE ( 'NONE', *, *, #27, .F. ) ;
#86 = ORIENTED_EDGE ( 'NONE', *, *, #155, .F. ) ;
#87 = ORIENTED_EDGE ( 'NONE', *, *, #14, .T. ) ;
#88 = ORIENTED_EDGE ( 'NONE', *, *, #29, .F. ) ;
#89 = ORIENTED_EDGE ( 'NONE', *, *, #63, .T. ) ;
#90 = ORIENTED_EDGE ( 'NONE', *, *, #155, .T. ) ;
#91 = ORIENTED_EDGE ( 'NONE', *, *, #28, .T. ) ;
#92 = ADVANCED_FACE ( 'NONE', ( #282, #281 ), #280, .F. ) ;
#93 = EDGE_LOOP ( 'NONE', ( #60, #59 ) ) ;
#94 = ORIENTED_EDGE ( 'NONE', *, *, #69, .F. ) ;
#95 = ADVANCED_FACE ( 'NONE', ( #274 ), #273, .F. ) ;
#96 = EDGE_LOOP ( 'NONE', ( #97, #98, #99, #100 ) ) ;
#97 = ORIENTED_EDGE ( 'NONE', *, *, #4, .F. ) ;
#98 = ORIENTED_EDGE ( 'NONE', *, *, #78, .T. ) ;
#99 = ORIENTED_EDGE ( 'NONE', *, *, #417, .T. ) ;
#100 = ORIENTED_EDGE ( 'NONE', *, *, #80, .F. ) ;
#101 = CLOSED_SHELL ( 'NONE', ( #10, #418, #24, #36, #156, #47, #75, #67, #65, #92, #104, #95 ) ) ;
#102 = ORIENTED_EDGE ( 'NONE', *, *, #17, .F. ) ;
#103 = ORIENTED_EDGE ( 'NONE', *, *, #106, .T. ) ;
#104 = ADVANCED_FACE ( 'NONE', ( #272 ), #268, .F. ) ;
#105 = EDGE_LOOP ( 'NONE', ( #88, #89, #90, #91, #94 ) ) ;
#106 = EDGE_CURVE ( 'NONE', #13, #18, #341, .T. ) ;
#107 = ORIENTED_EDGE ( 'NONE', *, *, #45, .T. ) ;
#108 = DIRECTION ( 'NONE',  ( 0.7071067811865527900, 8.659274570719419500E-017, -0.7071067811865422400 ) ) ;
#109 = CARTESIAN_POINT ( 'NONE',  ( 13.68217003306558200, 1.675527235657023600E-015, -80.00000000000001400 ) ) ;
#110 = LINE ( 'NONE', #109, #149 ) ;
#111 = CARTESIAN_POINT ( 'NONE',  ( 13.68217003306558200, 1.675527235657023600E-015, -80.00000000000001400 ) ) ;
#112 = DIRECTION ( 'NONE',  ( 1.000000000000000000, 0.0000000000000000000, 0.0000000000000000000 ) ) ;
#113 = DIRECTION ( 'NONE',  ( -0.0000000000000000000, -0.0000000000000000000, 1.000000000000000000 ) ) ;
#114 = CARTESIAN_POINT ( 'NONE',  ( 0.0000000000000000000, 0.0000000000000000000, -80.00000000000001400 ) ) ;
#115 = AXIS2_PLACEMENT_3D ( 'NONE', #114, #113, #112 ) ;
#116 = CIRCLE ( 'NONE', #115, 13.68217003306558200 ) ;
#117 = FACE_OUTER_BOUND ( 'NONE', #23, .T. ) ;
#118 = CARTESIAN_POINT ( 'NONE',  ( -16.30000000000000100, 1.996108356730475200E-015, -80.00000000000000000 ) ) ;
#119 = CARTESIAN_POINT ( 'NONE',  ( 16.30000000000000100, 0.0000000000000000000, -80.00000000000000000 ) ) ;
#120 = DIRECTION ( 'NONE',  ( 1.000000000000000000, 0.0000000000000000000, 0.0000000000000000000 ) ) ;
#121 = DIRECTION ( 'NONE',  ( -0.0000000000000000000, -0.0000000000000000000, 1.000000000000000000 ) ) ;
#122 = CARTESIAN_POINT ( 'NONE',  ( 0.0000000000000000000, 0.0000000000000000000, -80.00000000000000000 ) ) ;
#123 = AXIS2_PLACEMENT_3D ( 'NONE', #122, #121, #120 ) ;
#124 = CIRCLE ( 'NONE', #123, 16.30000000000000100 ) ;
#125 = CARTESIAN_POINT ( 'NONE',  ( 16.30000000000000100, 0.0000000000000000000, 0.0000000000000000000 ) ) ;
#126 = DIRECTION ( 'NONE',  ( -0.0000000000000000000, -0.0000000000000000000, 1.000000000000000000 ) ) ;
#127 = VECTOR ( 'NONE', #126, 1000.000000000000000 ) ;
#128 = CARTESIAN_POINT ( 'NONE',  ( -16.30000000000000100, 1.996108356730475200E-015, -4.336808689942017700E-016 ) ) ;
#129 = LINE ( 'NONE', #128, #127 ) ;
#130 = DIRECTION ( 'NONE',  ( 1.000000000000000000, 0.0000000000000000000, 0.0000000000000000000 ) ) ;
#131 = DIRECTION ( 'NONE',  ( -0.0000000000000000000, -0.0000000000000000000, 1.000000000000000000 ) ) ;
#132 = CARTESIAN_POINT ( 'NONE',  ( 0.0000000000000000000, 0.0000000000000000000, 0.0000000000000000000 ) ) ;
#133 = AXIS2_PLACEMENT_3D ( 'NONE', #132, #131, #130 ) ;
#134 = CIRCLE ( 'NONE', #133, 16.30000000000000100 ) ;
#135 = DIRECTION ( 'NONE',  ( -1.000000000000000000, 0.0000000000000000000, 0.0000000000000000000 ) ) ;
#136 = DIRECTION ( 'NONE',  ( 0.0000000000000000000, 0.0000000000000000000, -1.000000000000000000 ) ) ;
#137 = AXIS2_PLACEMENT_3D ( 'NONE', #140, #136, #135 ) ;
#138 = CONICAL_SURFACE ( 'NONE', #137, 13.68217003306558200, 0.7853981633974557200 ) ;
#139 = CARTESIAN_POINT ( 'NONE',  ( -16.30000000000000100, 1.996108356730475200E-015, 0.0000000000000000000 ) ) ;
#140 = CARTESIAN_POINT ( 'NONE',  ( 0.0000000000000000000, 0.0000000000000000000, -80.00000000000001400 ) ) ;
#141 = FACE_OUTER_BOUND ( 'NONE', #11, .T. ) ;
#142 = CARTESIAN_POINT ( 'NONE',  ( -13.22049999999999900, 1.618990830070873800E-015, -79.53832996693444100 ) ) ;
#143 = DIRECTION ( 'NONE',  ( 1.000000000000000000, 0.0000000000000000000, 0.0000000000000000000 ) ) ;
#144 = DIRECTION ( 'NONE',  ( -0.0000000000000000000, -0.0000000000000000000, 1.000000000000000000 ) ) ;
#145 = CARTESIAN_POINT ( 'NONE',  ( 0.0000000000000000000, 0.0000000000000000000, -79.53832996693444100 ) ) ;
#146 = AXIS2_PLACEMENT_3D ( 'NONE', #145, #144, #143 ) ;
#147 = CIRCLE ( 'NONE', #146, 13.22049999999999900 ) ;
#148 = CARTESIAN_POINT ( 'NONE',  ( 13.22049999999999900, 0.0000000000000000000, -79.53832996693444100 ) ) ;
#149 = VECTOR ( 'NONE', #108, 1000.000000000000000 ) ;
#150 = EDGE_CURVE ( 'NONE', #34, #151, #326, .T. ) ;
#151 = VERTEX_POINT ( 'NONE', #342 ) ;
#152 = ORIENTED_EDGE ( 'NONE', *, *, #150, .F. ) ;
#153 = ORIENTED_EDGE ( 'NONE', *, *, #189, .T. ) ;
#154 = EDGE_LOOP ( 'NONE', ( #79, #42 ) ) ;
#155 = EDGE_CURVE ( 'NONE', #151, #81, #340, .T. ) ;
#156 = ADVANCED_FACE ( 'NONE', ( #352 ), #355, .F. ) ;
#157 = EDGE_LOOP ( 'NONE', ( #158, #153, #56, #48 ) ) ;
#158 = ORIENTED_EDGE ( 'NONE', *, *, #7, .F. ) ;
#159 = CYLINDRICAL_SURFACE ( 'NONE', #206, 12.05850000000000000 ) ;
#160 = CARTESIAN_POINT ( 'NONE',  ( 0.0000000000000000000, -3.673940397442076500E-015, -80.00000000000004300 ) ) ;
#161 = FACE_OUTER_BOUND ( 'NONE', #37, .T. ) ;
#162 = CARTESIAN_POINT ( 'NONE',  ( 1.476691571756713000E-015, -12.05849999999999300, 3.082355265528257500E-017 ) ) ;
#163 = CARTESIAN_POINT ( 'NONE',  ( 0.0000000000000000000, 12.05849999999998600, -3.082355265528256900E-017 ) ) ;
#164 = CARTESIAN_POINT ( 'NONE',  ( -13.22049999999999900, 1.618990830070873800E-015, -63.90699999999998900 ) ) ;
#165 = DIRECTION ( 'NONE',  ( 1.000000000000000000, 0.0000000000000000000, 0.0000000000000000000 ) ) ;
#166 = DIRECTION ( 'NONE',  ( -0.0000000000000000000, -0.0000000000000000000, 1.000000000000000000 ) ) ;
#167 = CARTESIAN_POINT ( 'NONE',  ( 0.0000000000000000000, 0.0000000000000000000, -63.90699999999998900 ) ) ;
#168 = AXIS2_PLACEMENT_3D ( 'NONE', #167, #166, #165 ) ;
#169 = CIRCLE ( 'NONE', #168, 13.22049999999999900 ) ;
#170 = CARTESIAN_POINT ( 'NONE',  ( 13.22049999999999900, 0.0000000000000000000, -63.90699999999998900 ) ) ;
#171 = DIRECTION ( 'NONE',  ( 0.7882917068561171600, 9.653470328814879000E-017, -0.6153017023394860000 ) ) ;
#172 = VECTOR ( 'NONE', #171, 1000.000000000000000 ) ;
#173 = CARTESIAN_POINT ( 'NONE',  ( 13.22049999999999900, 1.618990830070873800E-015, -63.90699999999998900 ) ) ;
#174 = LINE ( 'NONE', #173, #172 ) ;
#175 = DIRECTION ( 'NONE',  ( -0.7882917068561171600, 0.0000000000000000000, -0.6153017023394860000 ) ) ;
#176 = VECTOR ( 'NONE', #175, 1000.000000000000000 ) ;
#177 = CARTESIAN_POINT ( 'NONE',  ( -13.22049999999999900, 0.0000000000000000000, -63.90699999999998900 ) ) ;
#178 = LINE ( 'NONE', #177, #176 ) ;
#179 = DIRECTION ( 'NONE',  ( 1.000000000000000000, 0.0000000000000000000, 0.0000000000000000000 ) ) ;
#180 = DIRECTION ( 'NONE',  ( -0.0000000000000000000, -0.0000000000000000000, 1.000000000000000000 ) ) ;
#181 = CARTESIAN_POINT ( 'NONE',  ( 0.0000000000000000000, 0.0000000000000000000, -63.00000000000000000 ) ) ;
#182 = AXIS2_PLACEMENT_3D ( 'NONE', #181, #180, #179 ) ;
#183 = CIRCLE ( 'NONE', #182, 12.05849999999998600 ) ;
#184 = DIRECTION ( 'NONE',  ( 1.000000000000000000, 0.0000000000000000000, 0.0000000000000000000 ) ) ;
#185 = DIRECTION ( 'NONE',  ( -0.0000000000000000000, -0.0000000000000000000, 1.000000000000000000 ) ) ;
#186 = AXIS2_PLACEMENT_3D ( 'NONE', #188, #185, #184 ) ;
#187 = CYLINDRICAL_SURFACE ( 'NONE', #186, 16.30000000000000100 ) ;
#188 = CARTESIAN_POINT ( 'NONE',  ( 0.0000000000000000000, 0.0000000000000000000, -4.336808689942017700E-016 ) ) ;
#189 = EDGE_CURVE ( 'NONE', #8, #33, #344, .T. ) ;
#190 = ORIENTED_EDGE ( 'NONE', *, *, #49, .T. ) ;
#191 = DIRECTION ( 'NONE',  ( -0.0000000000000000000, -0.0000000000000000000, 1.000000000000000000 ) ) ;
#192 = CARTESIAN_POINT ( 'NONE',  ( 0.0000000000000000000, 0.0000000000000000000, -80.00000000000000000 ) ) ;
#193 = AXIS2_PLACEMENT_3D ( 'NONE', #192, #191, #219 ) ;
#194 = CIRCLE ( 'NONE', #193, 16.30000000000000100 ) ;
#195 = DIRECTION ( 'NONE',  ( -0.0000000000000000000, -0.0000000000000000000, 1.000000000000000000 ) ) ;
#196 = VECTOR ( 'NONE', #195, 1000.000000000000000 ) ;
#197 = CARTESIAN_POINT ( 'NONE',  ( 16.30000000000000100, 0.0000000000000000000, -4.336808689942017700E-016 ) ) ;
#198 = LINE ( 'NONE', #197, #196 ) ;
#199 = DIRECTION ( 'NONE',  ( 0.0000000000000000000, 1.000000000000000000, -2.556168068605763200E-018 ) ) ;
#200 = DIRECTION ( 'NONE',  ( -0.0000000000000000000, -2.556168068605763200E-018, -1.000000000000000000 ) ) ;
#201 = CARTESIAN_POINT ( 'NONE',  ( 0.0000000000000000000, -3.469446951953615000E-015, 0.0000000000000000000 ) ) ;
#202 = AXIS2_PLACEMENT_3D ( 'NONE', #201, #200, #199 ) ;
#203 = CIRCLE ( 'NONE', #202, 12.05849999999999000 ) ;
#204 = DIRECTION ( 'NONE',  ( 0.0000000000000000000, 1.000000000000000000, 0.0000000000000000000 ) ) ;
#205 = DIRECTION ( 'NONE',  ( -0.0000000000000000000, -2.556168068605763200E-018, -1.000000000000000000 ) ) ;
#206 = AXIS2_PLACEMENT_3D ( 'NONE', #160, #205, #204 ) ;
#207 = DIRECTION ( 'NONE',  ( -1.000000000000000000, 0.0000000000000000000, 0.0000000000000000000 ) ) ;
#208 = DIRECTION ( 'NONE',  ( -0.0000000000000000000, -0.0000000000000000000, 1.000000000000000000 ) ) ;
#209 = VECTOR ( 'NONE', #208, 1000.000000000000000 ) ;
#210 = CARTESIAN_POINT ( 'NONE',  ( 13.22049999999999900, 0.0000000000000000000, -4.336808689942017700E-016 ) ) ;
#211 = LINE ( 'NONE', #210, #209 ) ;
#212 = DIRECTION ( 'NONE',  ( 1.000000000000000000, 0.0000000000000000000, 0.0000000000000000000 ) ) ;
#213 = DIRECTION ( 'NONE',  ( 0.0000000000000000000, -0.0000000000000000000, 1.000000000000000000 ) ) ;
#214 = AXIS2_PLACEMENT_3D ( 'NONE', #215, #213, #212 ) ;
#215 = CARTESIAN_POINT ( 'NONE',  ( 0.0000000000000000000, 16.30000000000000100, -80.00000000000000000 ) ) ;
#216 = PLANE ( 'NONE',  #214 ) ;
#217 = FACE_BOUND ( 'NONE', #154, .T. ) ;
#218 = FACE_OUTER_BOUND ( 'NONE', #46, .T. ) ;
#219 = DIRECTION ( 'NONE',  ( 1.000000000000000000, 0.0000000000000000000, 0.0000000000000000000 ) ) ;
#220 = APPROVAL ( #221, 'UNSPECIFIED' ) ;
#221 = APPROVAL_STATUS ( 'not_yet_approved' ) ;
#222 = PERSON_AND_ORGANIZATION ( #385, #383 ) ;
#223 = PRODUCT_DEFINITION_FORMATION_WITH_SPECIFIED_SOURCE ( 'ANY', '', #386, .NOT_KNOWN. ) ;
#224 = APPROVAL_PERSON_ORGANIZATION ( #222, #220, #227 ) ;
#225 = DATE_AND_TIME ( #266, #267 ) ;
#226 = COORDINATED_UNIVERSAL_TIME_OFFSET ( 1, 0, .AHEAD. ) ;
#227 = APPROVAL_ROLE ( '' ) ;
#228 = DIRECTION ( 'NONE',  ( 1.000000000000000000, 0.0000000000000000000, 0.0000000000000000000 ) ) ;
#229 = DIRECTION ( 'NONE',  ( -0.0000000000000000000, -0.0000000000000000000, 1.000000000000000000 ) ) ;
#230 = CARTESIAN_POINT ( 'NONE',  ( 0.0000000000000000000, 0.0000000000000000000, -63.90699999999998900 ) ) ;
#231 = AXIS2_PLACEMENT_3D ( 'NONE', #230, #229, #228 ) ;
#232 = CIRCLE ( 'NONE', #231, 13.22049999999999900 ) ;
#233 = DIRECTION ( 'NONE',  ( 0.0000000000000000000, 1.000000000000000000, 0.0000000000000000000 ) ) ;
#234 = DIRECTION ( 'NONE',  ( -0.0000000000000000000, -2.556168068605763200E-018, -1.000000000000000000 ) ) ;
#235 = CARTESIAN_POINT ( 'NONE',  ( 0.0000000000000000000, 0.0000000000000000000, -63.00000000000000000 ) ) ;
#236 = FACE_OUTER_BOUND ( 'NONE', #62, .T. ) ;
#237 = AXIS2_PLACEMENT_3D ( 'NONE', #239, #240, #238 ) ;
#238 = DIRECTION ( 'NONE',  ( 1.000000000000000000, 0.0000000000000000000, 0.0000000000000000000 ) ) ;
#239 = CARTESIAN_POINT ( 'NONE',  ( 0.0000000000000000000, 0.0000000000000000000, -4.336808689942017700E-016 ) ) ;
#240 = DIRECTION ( 'NONE',  ( -0.0000000000000000000, -0.0000000000000000000, 1.000000000000000000 ) ) ;
#241 = DIRECTION ( 'NONE',  ( 1.000000000000000000, 0.0000000000000000000, 0.0000000000000000000 ) ) ;
#242 = DIRECTION ( 'NONE',  ( -0.0000000000000000000, -0.0000000000000000000, 1.000000000000000000 ) ) ;
#243 = AXIS2_PLACEMENT_3D ( 'NONE', #235, #242, #241 ) ;
#244 = CARTESIAN_POINT ( 'NONE',  ( 0.0000000000000000000, 0.0000000000000000000, -79.53832996693444100 ) ) ;
#245 = AXIS2_PLACEMENT_3D ( 'NONE', #244, #294, #293 ) ;
#246 = CIRCLE ( 'NONE', #245, 13.22049999999999900 ) ;
#247 = DIRECTION ( 'NONE',  ( 1.000000000000000000, 0.0000000000000000000, 0.0000000000000000000 ) ) ;
#248 = DIRECTION ( 'NONE',  ( -0.0000000000000000000, -0.0000000000000000000, 1.000000000000000000 ) ) ;
#249 = AXIS2_PLACEMENT_3D ( 'NONE', #251, #248, #247 ) ;
#250 = CYLINDRICAL_SURFACE ( 'NONE', #249, 13.22049999999999900 ) ;
#251 = CARTESIAN_POINT ( 'NONE',  ( 0.0000000000000000000, 0.0000000000000000000, -4.336808689942017700E-016 ) ) ;
#252 = DIRECTION ( 'NONE',  ( 0.0000000000000000000, 1.000000000000000000, -2.556168068605763200E-018 ) ) ;
#253 = DIRECTION ( 'NONE',  ( -0.0000000000000000000, -2.556168068605763200E-018, -1.000000000000000000 ) ) ;
#254 = CARTESIAN_POINT ( 'NONE',  ( 0.0000000000000000000, -3.469446951953615000E-015, 0.0000000000000000000 ) ) ;
#255 = AXIS2_PLACEMENT_3D ( 'NONE', #254, #253, #252 ) ;
#256 = CIRCLE ( 'NONE', #255, 12.05849999999999000 ) ;
#257 = FACE_OUTER_BOUND ( 'NONE', #41, .T. ) ;
#258 = CYLINDRICAL_SURFACE ( 'NONE', #237, 16.30000000000000100 ) ;
#259 = CYLINDRICAL_SURFACE ( 'NONE', #262, 12.05850000000000000 ) ;
#260 = FACE_OUTER_BOUND ( 'NONE', #70, .T. ) ;
#261 = CARTESIAN_POINT ( 'NONE',  ( 0.0000000000000000000, -3.673940397442076500E-015, -80.00000000000004300 ) ) ;
#262 = AXIS2_PLACEMENT_3D ( 'NONE', #261, #234, #233 ) ;
#263 = DIRECTION ( 'NONE',  ( 0.0000000000000000000, 0.0000000000000000000, -1.000000000000000000 ) ) ;
#264 = CARTESIAN_POINT ( 'NONE',  ( 0.0000000000000000000, 0.0000000000000000000, -63.90699999999998900 ) ) ;
#265 = AXIS2_PLACEMENT_3D ( 'NONE', #264, #263, #207 ) ;
#266 = CALENDAR_DATE ( 2015, 11, 8 ) ;
#267 = LOCAL_TIME ( 11, 39, 40.00000000000000000, #226 ) ;
#268 = CONICAL_SURFACE ( 'NONE', #265, 13.22049999999999900, 0.9080276881268852800 ) ;
#269 = DIRECTION ( 'NONE',  ( -1.000000000000000000, 0.0000000000000000000, 0.0000000000000000000 ) ) ;
#270 = DIRECTION ( 'NONE',  ( 0.0000000000000000000, 0.0000000000000000000, -1.000000000000000000 ) ) ;
#271 = AXIS2_PLACEMENT_3D ( 'NONE', #278, #270, #269 ) ;
#272 = FACE_OUTER_BOUND ( 'NONE', #105, .T. ) ;
#273 = CONICAL_SURFACE ( 'NONE', #271, 13.68217003306558200, 0.7853981633974557200 ) ;
#274 = FACE_OUTER_BOUND ( 'NONE', #96, .T. ) ;
#275 = DIRECTION ( 'NONE',  ( -1.000000000000000000, 0.0000000000000000000, -0.0000000000000000000 ) ) ;
#276 = DIRECTION ( 'NONE',  ( 0.0000000000000000000, 0.0000000000000000000, -1.000000000000000000 ) ) ;
#277 = AXIS2_PLACEMENT_3D ( 'NONE', #279, #276, #275 ) ;
#278 = CARTESIAN_POINT ( 'NONE',  ( 0.0000000000000000000, 0.0000000000000000000, -80.00000000000001400 ) ) ;
#279 = CARTESIAN_POINT ( 'NONE',  ( 0.0000000000000000000, 16.30000000000000100, -2.168404344971008900E-016 ) ) ;
#280 = PLANE ( 'NONE',  #277 ) ;
#281 = FACE_OUTER_BOUND ( 'NONE', #61, .T. ) ;
#282 = FACE_BOUND ( 'NONE', #93, .T. ) ;
#283 = DIRECTION ( 'NONE',  ( -0.0000000000000000000, -2.556168068605763200E-018, -1.000000000000000000 ) ) ;
#284 = VECTOR ( 'NONE', #283, 1000.000000000000000 ) ;
#285 = CARTESIAN_POINT ( 'NONE',  ( 1.476691571756713600E-015, -12.05850000000000400, -80.00000000000004300 ) ) ;
#286 = LINE ( 'NONE', #285, #284 ) ;
#287 = CARTESIAN_POINT ( 'NONE',  ( -12.05849999999998600, 0.0000000000000000000, -63.00000000000000000 ) ) ;
#288 = DIRECTION ( 'NONE',  ( 1.000000000000000000, 0.0000000000000000000, 0.0000000000000000000 ) ) ;
#289 = DIRECTION ( 'NONE',  ( -0.0000000000000000000, -0.0000000000000000000, 1.000000000000000000 ) ) ;
#290 = CARTESIAN_POINT ( 'NONE',  ( 0.0000000000000000000, 0.0000000000000000000, -80.00000000000001400 ) ) ;
#291 = AXIS2_PLACEMENT_3D ( 'NONE', #290, #289, #288 ) ;
#292 = CIRCLE ( 'NONE', #291, 13.68217003306558200 ) ;
#293 = DIRECTION ( 'NONE',  ( 1.000000000000000000, 0.0000000000000000000, 0.0000000000000000000 ) ) ;
#294 = DIRECTION ( 'NONE',  ( -0.0000000000000000000, -0.0000000000000000000, 1.000000000000000000 ) ) ;
#295 = CIRCLE ( 'NONE', #243, 12.05849999999998600 ) ;
#296 = SHAPE_DEFINITION_REPRESENTATION ( #297, #377 ) ;
#297 = PRODUCT_DEFINITION_SHAPE ( 'NONE', 'NONE',  #401 ) ;
#298 = PRODUCT_RELATED_PRODUCT_CATEGORY ( 'detail', '', ( #386 ) ) ;
#299 = CC_DESIGN_SECURITY_CLASSIFICATION ( #318, ( #223 ) ) ;
#300 = CC_DESIGN_APPROVAL ( #308, ( #318 ) ) ;
#301 = APPROVAL_DATE_TIME ( #302, #308 ) ;
#302 = DATE_AND_TIME ( #303, #304 ) ;
#303 = CALENDAR_DATE ( 2015, 11, 8 ) ;
#304 = LOCAL_TIME ( 11, 39, 40.00000000000000000, #305 ) ;
#305 = COORDINATED_UNIVERSAL_TIME_OFFSET ( 1, 0, .AHEAD. ) ;
#306 = APPROVAL_PERSON_ORGANIZATION ( #310, #308, #307 ) ;
#307 = APPROVAL_ROLE ( '' ) ;
#308 = APPROVAL ( #309, 'UNSPECIFIED' ) ;
#309 = APPROVAL_STATUS ( 'not_yet_approved' ) ;
#310 = PERSON_AND_ORGANIZATION ( #385, #383 ) ;
#311 = CC_DESIGN_DATE_AND_TIME_ASSIGNMENT ( #313, #312, ( #318 ) ) ;
#312 = DATE_TIME_ROLE ( 'classification_date' ) ;
#313 = DATE_AND_TIME ( #314, #315 ) ;
#314 = CALENDAR_DATE ( 2015, 11, 8 ) ;
#315 = LOCAL_TIME ( 11, 39, 40.00000000000000000, #316 ) ;
#316 = COORDINATED_UNIVERSAL_TIME_OFFSET ( 1, 0, .AHEAD. ) ;
#317 = PERSON_AND_ORGANIZATION ( #385, #383 ) ;
#318 = SECURITY_CLASSIFICATION ( '', '', #319 ) ;
#319 = SECURITY_CLASSIFICATION_LEVEL ( 'unclassified' ) ;
#320 = CC_DESIGN_PERSON_AND_ORGANIZATION_ASSIGNMENT ( #317, #321, ( #318 ) ) ;
#321 = PERSON_AND_ORGANIZATION_ROLE ( 'classification_officer' ) ;
#322 = DIRECTION ( 'NONE',  ( 1.000000000000000000, 0.0000000000000000000, 0.0000000000000000000 ) ) ;
#323 = DIRECTION ( 'NONE',  ( -0.0000000000000000000, -0.0000000000000000000, 1.000000000000000000 ) ) ;
#324 = APPROVAL_DATE_TIME ( #225, #220 ) ;
#325 = CC_DESIGN_APPROVAL ( #220, ( #223 ) ) ;
#326 = LINE ( 'NONE', #338, #330 ) ;
#327 = CARTESIAN_POINT ( 'NONE',  ( 0.0000000000000000000, 0.0000000000000000000, 0.0000000000000000000 ) ) ;
#328 = DIRECTION ( 'NONE',  ( 1.000000000000000000, 0.0000000000000000000, 0.0000000000000000000 ) ) ;
#329 = DIRECTION ( 'NONE',  ( -0.0000000000000000000, -0.0000000000000000000, 1.000000000000000000 ) ) ;
#330 = VECTOR ( 'NONE', #335, 1000.000000000000000 ) ;
#331 = AXIS2_PLACEMENT_3D ( 'NONE', #349, #323, #322 ) ;
#332 = CIRCLE ( 'NONE', #331, 12.05849999999998600 ) ;
#333 = PERSON_AND_ORGANIZATION_ROLE ( 'creator' ) ;
#334 = PERSON_AND_ORGANIZATION ( #385, #383 ) ;
#335 = DIRECTION ( 'NONE',  ( -0.0000000000000000000, -2.556168068605763200E-018, -1.000000000000000000 ) ) ;
#336 = DIRECTION ( 'NONE',  ( 1.000000000000000000, 0.0000000000000000000, 0.0000000000000000000 ) ) ;
#337 = DIRECTION ( 'NONE',  ( -0.0000000000000000000, -0.0000000000000000000, 1.000000000000000000 ) ) ;
#338 = CARTESIAN_POINT ( 'NONE',  ( 0.0000000000000000000, 12.05849999999999700, -80.00000000000004300 ) ) ;
#339 = AXIS2_PLACEMENT_3D ( 'NONE', #327, #329, #328 ) ;
#340 = CIRCLE ( 'NONE', #357, 12.05849999999998600 ) ;
#341 = CIRCLE ( 'NONE', #339, 16.30000000000000100 ) ;
#342 = CARTESIAN_POINT ( 'NONE',  ( 0.0000000000000000000, 12.05849999999998600, -63.00000000000000000 ) ) ;
#343 = CARTESIAN_POINT ( 'NONE',  ( -13.22049999999999900, 1.618990830070873800E-015, -4.336808689942017700E-016 ) ) ;
#344 = LINE ( 'NONE', #343, #348 ) ;
#345 = CARTESIAN_POINT ( 'NONE',  ( 0.0000000000000000000, 0.0000000000000000000, -4.336808689942017700E-016 ) ) ;
#346 = AXIS2_PLACEMENT_3D ( 'NONE', #345, #337, #336 ) ;
#347 = DIRECTION ( 'NONE',  ( -0.0000000000000000000, -0.0000000000000000000, 1.000000000000000000 ) ) ;
#348 = VECTOR ( 'NONE', #347, 1000.000000000000000 ) ;
#349 = CARTESIAN_POINT ( 'NONE',  ( 0.0000000000000000000, 0.0000000000000000000, -63.00000000000000000 ) ) ;
#350 = CARTESIAN_POINT ( 'NONE',  ( 12.05849999999998600, 1.547841200913792900E-015, -63.00000000000000000 ) ) ;
#351 = CARTESIAN_POINT ( 'NONE',  ( 1.476691571756712600E-015, -12.05849999999998600, -63.00000000000000000 ) ) ;
#352 = FACE_OUTER_BOUND ( 'NONE', #157, .T. ) ;
#353 = DIRECTION ( 'NONE',  ( 1.000000000000000000, 0.0000000000000000000, 0.0000000000000000000 ) ) ;
#354 = DIRECTION ( 'NONE',  ( -0.0000000000000000000, -0.0000000000000000000, 1.000000000000000000 ) ) ;
#355 = CYLINDRICAL_SURFACE ( 'NONE', #346, 13.22049999999999900 ) ;
#356 = CARTESIAN_POINT ( 'NONE',  ( 0.0000000000000000000, 0.0000000000000000000, -63.00000000000000000 ) ) ;
#357 = AXIS2_PLACEMENT_3D ( 'NONE', #356, #354, #353 ) ;
#358 = PERSON_AND_ORGANIZATION ( #385, #383 ) ;
#359 = PERSON_AND_ORGANIZATION_ROLE ( 'design_supplier' ) ;
#360 = CC_DESIGN_PERSON_AND_ORGANIZATION_ASSIGNMENT ( #358, #359, ( #223 ) ) ;
#361 = CC_DESIGN_PERSON_AND_ORGANIZATION_ASSIGNMENT ( #334, #333, ( #223 ) ) ;
#362 =( NAMED_UNIT ( * ) PLANE_ANGLE_UNIT ( ) SI_UNIT ( $, .RADIAN. ) );
#363 =( NAMED_UNIT ( * ) SI_UNIT ( $, .STERADIAN. ) SOLID_ANGLE_UNIT ( ) );
#364 = DIRECTION ( 'NONE',  ( -0.7071067811865527900, 0.0000000000000000000, -0.7071067811865422400 ) ) ;
#365 = VECTOR ( 'NONE', #364, 1000.000000000000000 ) ;
#366 = CARTESIAN_POINT ( 'NONE',  ( -13.68217003306558200, 0.0000000000000000000, -80.00000000000001400 ) ) ;
#367 = CARTESIAN_POINT ( 'NONE',  ( -13.68217003306558200, 0.0000000000000000000, -80.00000000000001400 ) ) ;
#368 = LINE ( 'NONE', #366, #365 ) ;
#369 = CONICAL_SURFACE ( 'NONE', #370, 13.22049999999999900, 0.9080276881268852800 ) ;
#370 = AXIS2_PLACEMENT_3D ( 'NONE', #373, #372, #371 ) ;
#371 = DIRECTION ( 'NONE',  ( -1.000000000000000000, 0.0000000000000000000, 0.0000000000000000000 ) ) ;
#372 = DIRECTION ( 'NONE',  ( 0.0000000000000000000, 0.0000000000000000000, -1.000000000000000000 ) ) ;
#373 = CARTESIAN_POINT ( 'NONE',  ( 0.0000000000000000000, 0.0000000000000000000, -63.90699999999998900 ) ) ;
#374 =( LENGTH_UNIT ( ) NAMED_UNIT ( * ) SI_UNIT ( .MILLI., .METRE. ) );
#375 = FACE_OUTER_BOUND ( 'NONE', #415, .T. ) ;
#376 =( GEOMETRIC_REPRESENTATION_CONTEXT ( 3 ) GLOBAL_UNCERTAINTY_ASSIGNED_CONTEXT ( ( #378 ) ) GLOBAL_UNIT_ASSIGNED_CONTEXT ( ( #374, #362, #363 ) ) REPRESENTATION_CONTEXT ( 'NONE', 'WORKASPACE' ) );
#377 = ADVANCED_BREP_SHAPE_REPRESENTATION ( '19-0408-75_outokumpu', ( #12, #381 ), #376 ) ;
#378 = UNCERTAINTY_MEASURE_WITH_UNIT (LENGTH_MEASURE( 1.000000000000000100E-005 ), #374, 'distance_accuracy_value', 'NONE');
#379 = DIRECTION ( 'NONE',  ( 1.000000000000000000, 0.0000000000000000000, 0.0000000000000000000 ) ) ;
#380 = DIRECTION ( 'NONE',  ( 0.0000000000000000000, 0.0000000000000000000, 1.000000000000000000 ) ) ;
#381 = AXIS2_PLACEMENT_3D ( 'NONE', #382, #380, #379 ) ;
#382 = CARTESIAN_POINT ( 'NONE',  ( 0.0000000000000000000, 0.0000000000000000000, 0.0000000000000000000 ) ) ;
#383 = ORGANIZATION ( 'UNSPECIFIED', 'UNSPECIFIED', '' ) ;
#384 = APPLICATION_CONTEXT ( 'configuration controlled 3d designs of mechanical parts and assemblies' ) ;
#385 = PERSON ( 'UNSPECIFIED', 'UNSPECIFIED', 'UNSPECIFIED', ('UNSPECIFIED'), ('UNSPECIFIED'), ('UNSPECIFIED') ) ;
#386 = PRODUCT ( '19-0408-75_outokumpu', '19-0408-75_outokumpu', '', ( #387 ) ) ;
#387 = MECHANICAL_CONTEXT ( 'NONE', #384, 'mechanical' ) ;
#388 = APPLICATION_PROTOCOL_DEFINITION ( 'international standard', 'config_control_design', 1994, #384 ) ;
#389 = APPLICATION_CONTEXT ( 'configuration controlled 3d designs of mechanical parts and assemblies' ) ;
#390 = DESIGN_CONTEXT ( 'detailed design', #389, 'design' ) ;
#391 = APPLICATION_PROTOCOL_DEFINITION ( 'international standard', 'config_control_design', 1994, #389 ) ;
#392 = CC_DESIGN_PERSON_AND_ORGANIZATION_ASSIGNMENT ( #402, #409, ( #386 ) ) ;
#393 = CALENDAR_DATE ( 2015, 11, 8 ) ;
#394 = LOCAL_TIME ( 11, 39, 40.00000000000000000, #395 ) ;
#395 = COORDINATED_UNIVERSAL_TIME_OFFSET ( 1, 0, .AHEAD. ) ;
#396 = APPROVAL_PERSON_ORGANIZATION ( #400, #398, #397 ) ;
#397 = APPROVAL_ROLE ( '' ) ;
#398 = APPROVAL ( #399, 'UNSPECIFIED' ) ;
#399 = APPROVAL_STATUS ( 'not_yet_approved' ) ;
#400 = PERSON_AND_ORGANIZATION ( #385, #383 ) ;
#401 = PRODUCT_DEFINITION ( 'UNKNOWN', '', #223, #390 ) ;
#402 = PERSON_AND_ORGANIZATION ( #385, #383 ) ;
#403 = CC_DESIGN_PERSON_AND_ORGANIZATION_ASSIGNMENT ( #405, #404, ( #401 ) ) ;
#404 = PERSON_AND_ORGANIZATION_ROLE ( 'creator' ) ;
#405 = PERSON_AND_ORGANIZATION ( #385, #383 ) ;
#406 = CC_DESIGN_APPROVAL ( #398, ( #401 ) ) ;
#407 = APPROVAL_DATE_TIME ( #408, #398 ) ;
#408 = DATE_AND_TIME ( #393, #394 ) ;
#409 = PERSON_AND_ORGANIZATION_ROLE ( 'design_owner' ) ;
#410 = ORIENTED_EDGE ( 'NONE', *, *, #29, .T. ) ;
#411 = VERTEX_POINT ( 'NONE', #351 ) ;
#412 = VERTEX_POINT ( 'NONE', #350 ) ;
#413 = ORIENTED_EDGE ( 'NONE', *, *, #414, .T. ) ;
#414 = EDGE_CURVE ( 'NONE', #411, #412, #332, .T. ) ;
#415 = EDGE_LOOP ( 'NONE', ( #413, #410, #31, #82, #26 ) ) ;
#416 = VERTEX_POINT ( 'NONE', #367 ) ;
#417 = EDGE_CURVE ( 'NONE', #8, #416, #368, .T. ) ;
#418 = ADVANCED_FACE ( 'NONE', ( #375 ), #369, .F. ) ;
#419 = ORIENTED_EDGE ( 'NONE', *, *, #417, .F. ) ;
ENDSEC;
END-ISO-10303-21;
