ISO-10303-21;
HEADER;
FILE_DESCRIPTION(('STEP AP214'),'1');
FILE_NAME('V-Boerdel-DN50.stp','2023-07-13T07:45:17',(' '),(' '),'Spatial InterOp 3D',' ',' ');
FILE_SCHEMA(('automotive_design'));
ENDSEC;
DATA;
#1=MECHANICAL_DESIGN_GEOMETRIC_PRESENTATION_REPRESENTATION(' ',(#10,#11,#12,#13,#14,#15,#16,#17,#18,#19,#20,#21,#22,#23),#6);
#2=PRODUCT_DEFINITION_CONTEXT('',#24,'design');
#3=APPLICATION_PROTOCOL_DEFINITION('INTERNATIONAL STANDARD','automotive_design',1994,#24);
#4=PRODUCT_CATEGORY_RELATIONSHIP('NONE','NONE',#25,#26);
#5=SHAPE_DEFINITION_REPRESENTATION(#27,#28);
#6= (GEOMETRIC_REPRESENTATION_CONTEXT(3)GLOBAL_UNCERTAINTY_ASSIGNED_CONTEXT((#31))GLOBAL_UNIT_ASSIGNED_CONTEXT((#33,#34,#35))REPRESENTATION_CONTEXT('NONE','WORKSPACE'));
#10=STYLED_ITEM('',(#37),#38);
#11=STYLED_ITEM('',(#39),#40);
#12=STYLED_ITEM('',(#41),#42);
#13=STYLED_ITEM('',(#43),#44);
#14=STYLED_ITEM('',(#45),#46);
#15=STYLED_ITEM('',(#47),#48);
#16=STYLED_ITEM('',(#49),#50);
#17=STYLED_ITEM('',(#51),#52);
#18=STYLED_ITEM('',(#53),#54);
#19=STYLED_ITEM('',(#55),#56);
#20=STYLED_ITEM('',(#57),#58);
#21=STYLED_ITEM('',(#59),#60);
#22=STYLED_ITEM('',(#61),#62);
#23=STYLED_ITEM('',(#63),#64);
#24=APPLICATION_CONTEXT(' ');
#25=PRODUCT_CATEGORY('part','NONE');
#26=PRODUCT_RELATED_PRODUCT_CATEGORY('detail',' ',(#65));
#27=PRODUCT_DEFINITION_SHAPE('NONE','NONE',#66);
#28=ADVANCED_BREP_SHAPE_REPRESENTATION('1',(#64,#67),#6);
#31=UNCERTAINTY_MEASURE_WITH_UNIT(LENGTH_MEASURE(1.0E-006),#33,'','');
#33= (CONVERSION_BASED_UNIT('MILLIMETRE',#70)LENGTH_UNIT()NAMED_UNIT(#73));
#34= (NAMED_UNIT(#75)PLANE_ANGLE_UNIT()SI_UNIT($,.RADIAN.));
#35= (NAMED_UNIT(#75)SOLID_ANGLE_UNIT()SI_UNIT($,.STERADIAN.));
#37=PRESENTATION_STYLE_ASSIGNMENT((#81));
#38=ADVANCED_FACE('',(#82),#83,.T.);
#39=PRESENTATION_STYLE_ASSIGNMENT((#84));
#40=ADVANCED_FACE('',(#85),#86,.F.);
#41=PRESENTATION_STYLE_ASSIGNMENT((#87));
#42=ADVANCED_FACE('',(#88),#89,.T.);
#43=PRESENTATION_STYLE_ASSIGNMENT((#90));
#44=ADVANCED_FACE('',(#91),#92,.T.);
#45=PRESENTATION_STYLE_ASSIGNMENT((#93));
#46=ADVANCED_FACE('',(#94),#95,.F.);
#47=PRESENTATION_STYLE_ASSIGNMENT((#96));
#48=ADVANCED_FACE('',(#97),#98,.F.);
#49=PRESENTATION_STYLE_ASSIGNMENT((#99));
#50=ADVANCED_FACE('',(#100,#101),#102,.T.);
#51=PRESENTATION_STYLE_ASSIGNMENT((#103));
#52=ADVANCED_FACE('',(#104),#105,.T.);
#53=PRESENTATION_STYLE_ASSIGNMENT((#106));
#54=ADVANCED_FACE('',(#107,#108),#109,.T.);
#55=PRESENTATION_STYLE_ASSIGNMENT((#110));
#56=ADVANCED_FACE('',(#111),#112,.T.);
#57=PRESENTATION_STYLE_ASSIGNMENT((#113));
#58=ADVANCED_FACE('',(#114),#115,.F.);
#59=PRESENTATION_STYLE_ASSIGNMENT((#116));
#60=ADVANCED_FACE('',(#117,#118),#119,.T.);
#61=PRESENTATION_STYLE_ASSIGNMENT((#120));
#62=ADVANCED_FACE('',(#121),#122,.T.);
#63=PRESENTATION_STYLE_ASSIGNMENT((#123));
#64=MANIFOLD_SOLID_BREP('1',#124);
#65=PRODUCT('1','1','PART-1-DESC',(#125));
#66=PRODUCT_DEFINITION('NONE','NONE',#126,#2);
#67=AXIS2_PLACEMENT_3D('',#127,#128,#129);
#70=LENGTH_MEASURE_WITH_UNIT(LENGTH_MEASURE(1.0),#130);
#73=DIMENSIONAL_EXPONENTS(1.0,0.0,0.0,0.0,0.0,0.0,0.0);
#75=DIMENSIONAL_EXPONENTS(0.0,0.0,0.0,0.0,0.0,0.0,0.0);
#81=SURFACE_STYLE_USAGE(.BOTH.,#131);
#82=FACE_OUTER_BOUND('',#132,.T.);
#83=CYLINDRICAL_SURFACE('',#133,30.15);
#84=SURFACE_STYLE_USAGE(.BOTH.,#134);
#85=FACE_OUTER_BOUND('',#135,.T.);
#86=CYLINDRICAL_SURFACE('',#136,27.15);
#87=SURFACE_STYLE_USAGE(.BOTH.,#137);
#88=FACE_OUTER_BOUND('',#138,.T.);
#89=TOROIDAL_SURFACE('',#139,36.15,9.0);
#90=SURFACE_STYLE_USAGE(.BOTH.,#140);
#91=FACE_OUTER_BOUND('',#141,.T.);
#92=CYLINDRICAL_SURFACE('',#142,51.0);
#93=SURFACE_STYLE_USAGE(.BOTH.,#143);
#94=FACE_OUTER_BOUND('',#144,.T.);
#95=TOROIDAL_SURFACE('',#145,35.15,5.0);
#96=SURFACE_STYLE_USAGE(.BOTH.,#146);
#97=FACE_OUTER_BOUND('',#147,.T.);
#98=TOROIDAL_SURFACE('',#148,35.15,5.0);
#99=SURFACE_STYLE_USAGE(.BOTH.,#149);
#100=FACE_OUTER_BOUND('',#150,.T.);
#101=FACE_BOUND('',#151,.T.);
#102=PLANE('',#152);
#103=SURFACE_STYLE_USAGE(.BOTH.,#153);
#104=FACE_OUTER_BOUND('',#154,.T.);
#105=CYLINDRICAL_SURFACE('',#155,51.0);
#106=SURFACE_STYLE_USAGE(.BOTH.,#156);
#107=FACE_BOUND('',#157,.T.);
#108=FACE_OUTER_BOUND('',#158,.T.);
#109=PLANE('',#159);
#110=SURFACE_STYLE_USAGE(.BOTH.,#160);
#111=FACE_OUTER_BOUND('',#161,.T.);
#112=TOROIDAL_SURFACE('',#162,36.15,9.0);
#113=SURFACE_STYLE_USAGE(.BOTH.,#163);
#114=FACE_OUTER_BOUND('',#164,.T.);
#115=CYLINDRICAL_SURFACE('',#165,27.15);
#116=SURFACE_STYLE_USAGE(.BOTH.,#166);
#117=FACE_OUTER_BOUND('',#167,.T.);
#118=FACE_BOUND('',#168,.T.);
#119=PLANE('',#169);
#120=SURFACE_STYLE_USAGE(.BOTH.,#170);
#121=FACE_OUTER_BOUND('',#171,.T.);
#122=CYLINDRICAL_SURFACE('',#172,30.15);
#123=SURFACE_STYLE_USAGE(.BOTH.,#173);
#124=CLOSED_SHELL('',(#38,#40,#42,#44,#46,#48,#50,#52,#54,#56,#58,#60,#62));
#125=PRODUCT_CONTEXT('',#24,'mechanical');
#126=PRODUCT_DEFINITION_FORMATION_WITH_SPECIFIED_SOURCE(' ','NONE',#65,.NOT_KNOWN.);
#127=CARTESIAN_POINT('',(0.0,0.0,0.0));
#128=DIRECTION('',(0.0,0.0,1.0));
#129=DIRECTION('',(1.0,0.0,0.0));
#130= (NAMED_UNIT(#73)LENGTH_UNIT()SI_UNIT(.MILLI.,.METRE.));
#131=SURFACE_SIDE_STYLE('',(#175));
#132=EDGE_LOOP('',(#176,#177,#178,#179,#180));
#133=AXIS2_PLACEMENT_3D('',#181,#182,#183);
#134=SURFACE_SIDE_STYLE('',(#184));
#135=EDGE_LOOP('',(#185,#186,#187,#188,#189));
#136=AXIS2_PLACEMENT_3D('',#190,#191,#192);
#137=SURFACE_SIDE_STYLE('',(#193));
#138=EDGE_LOOP('',(#194,#195,#196,#197,#198));
#139=AXIS2_PLACEMENT_3D('',#199,#200,#201);
#140=SURFACE_SIDE_STYLE('',(#202));
#141=EDGE_LOOP('',(#203,#204,#205,#206));
#142=AXIS2_PLACEMENT_3D('',#207,#208,#209);
#143=SURFACE_SIDE_STYLE('',(#210));
#144=EDGE_LOOP('',(#211,#212,#213,#214,#215,#216));
#145=AXIS2_PLACEMENT_3D('',#217,#218,#219);
#146=SURFACE_SIDE_STYLE('',(#220));
#147=EDGE_LOOP('',(#221,#222,#223,#224,#225));
#148=AXIS2_PLACEMENT_3D('',#226,#227,#228);
#149=SURFACE_SIDE_STYLE('',(#229));
#150=EDGE_LOOP('',(#230,#231));
#151=EDGE_LOOP('',(#232,#233,#234));
#152=AXIS2_PLACEMENT_3D('',#235,#236,#237);
#153=SURFACE_SIDE_STYLE('',(#238));
#154=EDGE_LOOP('',(#239,#240,#241,#242));
#155=AXIS2_PLACEMENT_3D('',#243,#244,#245);
#156=SURFACE_SIDE_STYLE('',(#246));
#157=EDGE_LOOP('',(#247,#248,#249));
#158=EDGE_LOOP('',(#250,#251));
#159=AXIS2_PLACEMENT_3D('',#252,#253,#254);
#160=SURFACE_SIDE_STYLE('',(#255));
#161=EDGE_LOOP('',(#256,#257,#258,#259,#260,#261));
#162=AXIS2_PLACEMENT_3D('',#262,#263,#264);
#163=SURFACE_SIDE_STYLE('',(#265));
#164=EDGE_LOOP('',(#266,#267,#268,#269,#270));
#165=AXIS2_PLACEMENT_3D('',#271,#272,#273);
#166=SURFACE_SIDE_STYLE('',(#274));
#167=EDGE_LOOP('',(#275,#276));
#168=EDGE_LOOP('',(#277,#278));
#169=AXIS2_PLACEMENT_3D('',#279,#280,#281);
#170=SURFACE_SIDE_STYLE('',(#282));
#171=EDGE_LOOP('',(#283,#284,#285,#286,#287));
#172=AXIS2_PLACEMENT_3D('',#288,#289,#290);
#173=SURFACE_SIDE_STYLE('',(#291));
#175=SURFACE_STYLE_FILL_AREA(#292);
#176=ORIENTED_EDGE('',*,*,#293,.F.);
#177=ORIENTED_EDGE('',*,*,#294,.T.);
#178=ORIENTED_EDGE('',*,*,#295,.F.);
#179=ORIENTED_EDGE('',*,*,#296,.F.);
#180=ORIENTED_EDGE('',*,*,#297,.F.);
#181=CARTESIAN_POINT('',(0.0,-16.0,0.0));
#182=DIRECTION('',(0.0,1.0,0.0));
#183=DIRECTION('',(-1.0,0.0,0.0));
#184=SURFACE_STYLE_FILL_AREA(#298);
#185=ORIENTED_EDGE('',*,*,#299,.F.);
#186=ORIENTED_EDGE('',*,*,#300,.F.);
#187=ORIENTED_EDGE('',*,*,#301,.F.);
#188=ORIENTED_EDGE('',*,*,#302,.T.);
#189=ORIENTED_EDGE('',*,*,#303,.T.);
#190=CARTESIAN_POINT('',(0.0,-16.0,0.0));
#191=DIRECTION('',(0.0,1.0,0.0));
#192=DIRECTION('',(-1.0,0.0,0.0));
#193=SURFACE_STYLE_FILL_AREA(#304);
#194=ORIENTED_EDGE('',*,*,#305,.F.);
#195=ORIENTED_EDGE('',*,*,#306,.T.);
#196=ORIENTED_EDGE('',*,*,#307,.F.);
#197=ORIENTED_EDGE('',*,*,#302,.F.);
#198=ORIENTED_EDGE('',*,*,#308,.F.);
#199=CARTESIAN_POINT('',(0.0,-9.0,0.0));
#200=DIRECTION('',(0.0,1.0,0.0));
#201=DIRECTION('',(0.0,0.0,1.0));
#202=SURFACE_STYLE_FILL_AREA(#309);
#203=ORIENTED_EDGE('',*,*,#310,.F.);
#204=ORIENTED_EDGE('',*,*,#311,.T.);
#205=ORIENTED_EDGE('',*,*,#312,.F.);
#206=ORIENTED_EDGE('',*,*,#313,.F.);
#207=CARTESIAN_POINT('',(0.0,-2.0,0.0));
#208=DIRECTION('',(0.0,1.0,0.0));
#209=DIRECTION('',(-1.0,0.0,0.0));
#210=SURFACE_STYLE_FILL_AREA(#314);
#211=ORIENTED_EDGE('',*,*,#315,.F.);
#212=ORIENTED_EDGE('',*,*,#316,.T.);
#213=ORIENTED_EDGE('',*,*,#297,.T.);
#214=ORIENTED_EDGE('',*,*,#317,.F.);
#215=ORIENTED_EDGE('',*,*,#318,.F.);
#216=ORIENTED_EDGE('',*,*,#319,.F.);
#217=CARTESIAN_POINT('',(0.0,-9.0,0.0));
#218=DIRECTION('',(0.0,1.0,0.0));
#219=DIRECTION('',(0.0,0.0,1.0));
#220=SURFACE_STYLE_FILL_AREA(#320);
#221=ORIENTED_EDGE('',*,*,#315,.T.);
#222=ORIENTED_EDGE('',*,*,#321,.F.);
#223=ORIENTED_EDGE('',*,*,#317,.T.);
#224=ORIENTED_EDGE('',*,*,#296,.T.);
#225=ORIENTED_EDGE('',*,*,#322,.T.);
#226=CARTESIAN_POINT('',(0.0,-9.0,0.0));
#227=DIRECTION('',(0.0,1.0,0.0));
#228=DIRECTION('',(0.0,0.0,1.0));
#229=SURFACE_STYLE_FILL_AREA(#323);
#230=ORIENTED_EDGE('',*,*,#311,.F.);
#231=ORIENTED_EDGE('',*,*,#324,.F.);
#232=ORIENTED_EDGE('',*,*,#318,.T.);
#233=ORIENTED_EDGE('',*,*,#321,.T.);
#234=ORIENTED_EDGE('',*,*,#319,.T.);
#235=CARTESIAN_POINT('',(-43.075,-4.0,0.0));
#236=DIRECTION('',(0.0,-1.0,0.0));
#237=DIRECTION('',(1.0,0.0,0.0));
#238=SURFACE_STYLE_FILL_AREA(#325);
#239=ORIENTED_EDGE('',*,*,#310,.T.);
#240=ORIENTED_EDGE('',*,*,#326,.F.);
#241=ORIENTED_EDGE('',*,*,#312,.T.);
#242=ORIENTED_EDGE('',*,*,#324,.T.);
#243=CARTESIAN_POINT('',(0.0,-2.0,0.0));
#244=DIRECTION('',(0.0,1.0,0.0));
#245=DIRECTION('',(-1.0,0.0,0.0));
#246=SURFACE_STYLE_FILL_AREA(#327);
#247=ORIENTED_EDGE('',*,*,#328,.F.);
#248=ORIENTED_EDGE('',*,*,#329,.F.);
#249=ORIENTED_EDGE('',*,*,#306,.F.);
#250=ORIENTED_EDGE('',*,*,#313,.T.);
#251=ORIENTED_EDGE('',*,*,#326,.T.);
#252=CARTESIAN_POINT('',(-43.575,0.0,0.0));
#253=DIRECTION('',(0.0,1.0,0.0));
#254=DIRECTION('',(-1.0,0.0,0.0));
#255=SURFACE_STYLE_FILL_AREA(#330);
#256=ORIENTED_EDGE('',*,*,#305,.T.);
#257=ORIENTED_EDGE('',*,*,#331,.F.);
#258=ORIENTED_EDGE('',*,*,#303,.F.);
#259=ORIENTED_EDGE('',*,*,#307,.T.);
#260=ORIENTED_EDGE('',*,*,#329,.T.);
#261=ORIENTED_EDGE('',*,*,#328,.T.);
#262=CARTESIAN_POINT('',(0.0,-9.0,0.0));
#263=DIRECTION('',(0.0,1.0,0.0));
#264=DIRECTION('',(0.0,0.0,1.0));
#265=SURFACE_STYLE_FILL_AREA(#332);
#266=ORIENTED_EDGE('',*,*,#299,.T.);
#267=ORIENTED_EDGE('',*,*,#331,.T.);
#268=ORIENTED_EDGE('',*,*,#308,.T.);
#269=ORIENTED_EDGE('',*,*,#301,.T.);
#270=ORIENTED_EDGE('',*,*,#333,.F.);
#271=CARTESIAN_POINT('',(0.0,-16.0,0.0));
#272=DIRECTION('',(0.0,1.0,0.0));
#273=DIRECTION('',(-1.0,0.0,0.0));
#274=SURFACE_STYLE_FILL_AREA(#334);
#275=ORIENTED_EDGE('',*,*,#294,.F.);
#276=ORIENTED_EDGE('',*,*,#335,.F.);
#277=ORIENTED_EDGE('',*,*,#333,.T.);
#278=ORIENTED_EDGE('',*,*,#300,.T.);
#279=CARTESIAN_POINT('',(-28.65,-23.0,0.0));
#280=DIRECTION('',(0.0,-1.0,0.0));
#281=DIRECTION('',(1.0,0.0,0.0));
#282=SURFACE_STYLE_FILL_AREA(#336);
#283=ORIENTED_EDGE('',*,*,#293,.T.);
#284=ORIENTED_EDGE('',*,*,#316,.F.);
#285=ORIENTED_EDGE('',*,*,#322,.F.);
#286=ORIENTED_EDGE('',*,*,#295,.T.);
#287=ORIENTED_EDGE('',*,*,#335,.T.);
#288=CARTESIAN_POINT('',(0.0,-16.0,0.0));
#289=DIRECTION('',(0.0,1.0,0.0));
#290=DIRECTION('',(-1.0,0.0,0.0));
#291=SURFACE_STYLE_FILL_AREA(#337);
#292=FILL_AREA_STYLE('',(#338));
#293=EDGE_CURVE('',#339,#340,#341,.T.);
#294=EDGE_CURVE('',#339,#342,#343,.T.);
#295=EDGE_CURVE('',#344,#342,#345,.T.);
#296=EDGE_CURVE('',#346,#344,#347,.T.);
#297=EDGE_CURVE('',#340,#346,#348,.T.);
#298=FILL_AREA_STYLE('',(#349));
#299=EDGE_CURVE('',#350,#351,#352,.T.);
#300=EDGE_CURVE('',#353,#350,#354,.T.);
#301=EDGE_CURVE('',#355,#353,#356,.T.);
#302=EDGE_CURVE('',#355,#357,#358,.T.);
#303=EDGE_CURVE('',#357,#351,#359,.T.);
#304=FILL_AREA_STYLE('',(#360));
#305=EDGE_CURVE('',#361,#362,#363,.T.);
#306=EDGE_CURVE('',#361,#364,#365,.T.);
#307=EDGE_CURVE('',#357,#364,#366,.T.);
#308=EDGE_CURVE('',#362,#355,#367,.T.);
#309=FILL_AREA_STYLE('',(#368));
#310=EDGE_CURVE('',#369,#370,#371,.T.);
#311=EDGE_CURVE('',#369,#372,#373,.T.);
#312=EDGE_CURVE('',#374,#372,#375,.T.);
#313=EDGE_CURVE('',#370,#374,#376,.T.);
#314=FILL_AREA_STYLE('',(#377));
#315=EDGE_CURVE('',#378,#379,#380,.T.);
#316=EDGE_CURVE('',#378,#340,#381,.T.);
#317=EDGE_CURVE('',#382,#346,#383,.T.);
#318=EDGE_CURVE('',#384,#382,#385,.T.);
#319=EDGE_CURVE('',#379,#384,#386,.T.);
#320=FILL_AREA_STYLE('',(#387));
#321=EDGE_CURVE('',#382,#379,#388,.T.);
#322=EDGE_CURVE('',#344,#378,#389,.T.);
#323=FILL_AREA_STYLE('',(#390));
#324=EDGE_CURVE('',#372,#369,#391,.T.);
#325=FILL_AREA_STYLE('',(#392));
#326=EDGE_CURVE('',#374,#370,#393,.T.);
#327=FILL_AREA_STYLE('',(#394));
#328=EDGE_CURVE('',#395,#361,#396,.T.);
#329=EDGE_CURVE('',#364,#395,#397,.T.);
#330=FILL_AREA_STYLE('',(#398));
#331=EDGE_CURVE('',#351,#362,#399,.T.);
#332=FILL_AREA_STYLE('',(#400));
#333=EDGE_CURVE('',#350,#353,#401,.T.);
#334=FILL_AREA_STYLE('',(#402));
#335=EDGE_CURVE('',#342,#339,#403,.T.);
#336=FILL_AREA_STYLE('',(#404));
#337=FILL_AREA_STYLE('',(#405));
#338=FILL_AREA_STYLE_COLOUR('',#406);
#339=VERTEX_POINT('',#407);
#340=VERTEX_POINT('',#408);
#341=LINE('',#409,#410);
#342=VERTEX_POINT('',#411);
#343=CIRCLE('',#412,30.15);
#344=VERTEX_POINT('',#413);
#345=LINE('',#414,#415);
#346=VERTEX_POINT('',#416);
#347=CIRCLE('',#417,30.15);
#348=CIRCLE('',#418,30.15);
#349=FILL_AREA_STYLE_COLOUR('',#419);
#350=VERTEX_POINT('',#420);
#351=VERTEX_POINT('',#421);
#352=LINE('',#422,#423);
#353=VERTEX_POINT('',#424);
#354=CIRCLE('',#425,27.15);
#355=VERTEX_POINT('',#426);
#356=LINE('',#427,#428);
#357=VERTEX_POINT('',#429);
#358=CIRCLE('',#430,27.15);
#359=CIRCLE('',#431,27.15);
#360=FILL_AREA_STYLE_COLOUR('',#432);
#361=VERTEX_POINT('',#433);
#362=VERTEX_POINT('',#434);
#363=CIRCLE('',#435,9.0);
#364=VERTEX_POINT('',#436);
#365=CIRCLE('',#437,36.15);
#366=CIRCLE('',#438,9.0);
#367=CIRCLE('',#439,27.15);
#368=FILL_AREA_STYLE_COLOUR('',#440);
#369=VERTEX_POINT('',#441);
#370=VERTEX_POINT('',#442);
#371=LINE('',#443,#444);
#372=VERTEX_POINT('',#445);
#373=CIRCLE('',#446,51.0);
#374=VERTEX_POINT('',#447);
#375=LINE('',#448,#449);
#376=CIRCLE('',#450,51.0);
#377=FILL_AREA_STYLE_COLOUR('',#451);
#378=VERTEX_POINT('',#452);
#379=VERTEX_POINT('',#453);
#380=CIRCLE('',#454,5.0);
#381=CIRCLE('',#455,30.15);
#382=VERTEX_POINT('',#456);
#383=CIRCLE('',#457,5.0);
#384=VERTEX_POINT('',#458);
#385=CIRCLE('',#459,35.15);
#386=CIRCLE('',#460,35.15);
#387=FILL_AREA_STYLE_COLOUR('',#461);
#388=CIRCLE('',#462,35.15);
#389=CIRCLE('',#463,30.15);
#390=FILL_AREA_STYLE_COLOUR('',#464);
#391=CIRCLE('',#465,51.0);
#392=FILL_AREA_STYLE_COLOUR('',#466);
#393=CIRCLE('',#467,51.0);
#394=FILL_AREA_STYLE_COLOUR('',#468);
#395=VERTEX_POINT('',#469);
#396=CIRCLE('',#470,36.15);
#397=CIRCLE('',#471,36.15);
#398=FILL_AREA_STYLE_COLOUR('',#472);
#399=CIRCLE('',#473,27.15);
#400=FILL_AREA_STYLE_COLOUR('',#474);
#401=CIRCLE('',#475,27.15);
#402=FILL_AREA_STYLE_COLOUR('',#476);
#403=CIRCLE('',#477,30.15);
#404=FILL_AREA_STYLE_COLOUR('',#478);
#405=FILL_AREA_STYLE_COLOUR('',#479);
#406=COLOUR_RGB('',1.0,1.0,0.0);
#407=CARTESIAN_POINT('',(-30.15,-23.0,0.0));
#408=CARTESIAN_POINT('',(-30.15,-9.0,0.0));
#409=CARTESIAN_POINT('',(-30.15,-16.0,-3.69231009942927E-015));
#410=VECTOR('',#480,1.0);
#411=CARTESIAN_POINT('',(30.15,-23.0,3.69231009942927E-015));
#412=AXIS2_PLACEMENT_3D('',#481,#482,#483);
#413=CARTESIAN_POINT('',(30.15,-9.0,3.69231009942927E-015));
#414=CARTESIAN_POINT('',(30.15,-16.0,3.69231009942927E-015));
#415=VECTOR('',#484,1.0);
#416=CARTESIAN_POINT('',(-3.69231009942927E-015,-9.0,30.15));
#417=AXIS2_PLACEMENT_3D('',#485,#486,#487);
#418=AXIS2_PLACEMENT_3D('',#488,#489,#490);
#419=COLOUR_RGB('',1.0,1.0,0.0);
#420=CARTESIAN_POINT('',(-27.15,-23.0,0.0));
#421=CARTESIAN_POINT('',(-27.15,-9.0,0.0));
#422=CARTESIAN_POINT('',(-27.15,-16.0,-3.32491605968506E-015));
#423=VECTOR('',#491,1.0);
#424=CARTESIAN_POINT('',(27.15,-23.0,3.32491605968506E-015));
#425=AXIS2_PLACEMENT_3D('',#492,#493,#494);
#426=CARTESIAN_POINT('',(27.15,-9.0,3.32491605968506E-015));
#427=CARTESIAN_POINT('',(27.15,-16.0,3.32491605968506E-015));
#428=VECTOR('',#495,1.0);
#429=CARTESIAN_POINT('',(3.32491605968506E-015,-9.0,-27.15));
#430=AXIS2_PLACEMENT_3D('',#496,#497,#498);
#431=AXIS2_PLACEMENT_3D('',#499,#500,#501);
#432=COLOUR_RGB('',1.0,1.0,0.0);
#433=CARTESIAN_POINT('',(-4.42709817891768E-015,0.0,36.15));
#434=CARTESIAN_POINT('',(-3.32491605968506E-015,-9.0,27.15));
#435=AXIS2_PLACEMENT_3D('',#502,#503,#504);
#436=CARTESIAN_POINT('',(4.42709817891768E-015,0.0,-36.15));
#437=AXIS2_PLACEMENT_3D('',#505,#506,#507);
#438=AXIS2_PLACEMENT_3D('',#508,#509,#510);
#439=AXIS2_PLACEMENT_3D('',#511,#512,#513);
#440=COLOUR_RGB('',1.0,1.0,0.0);
#441=CARTESIAN_POINT('',(-51.0,-4.0,0.0));
#442=CARTESIAN_POINT('',(-51.0,0.0,0.0));
#443=CARTESIAN_POINT('',(-51.0,-2.0,-6.2456986756515E-015));
#444=VECTOR('',#514,1.0);
#445=CARTESIAN_POINT('',(51.0,-4.0,6.2456986756515E-015));
#446=AXIS2_PLACEMENT_3D('',#515,#516,#517);
#447=CARTESIAN_POINT('',(51.0,0.0,6.2456986756515E-015));
#448=CARTESIAN_POINT('',(51.0,-2.0,6.2456986756515E-015));
#449=VECTOR('',#518,1.0);
#450=AXIS2_PLACEMENT_3D('',#519,#520,#521);
#451=COLOUR_RGB('',1.0,1.0,0.0);
#452=CARTESIAN_POINT('',(3.69231009942927E-015,-9.0,-30.15));
#453=CARTESIAN_POINT('',(4.30463349900294E-015,-4.0,-35.15));
#454=AXIS2_PLACEMENT_3D('',#522,#523,#524);
#455=AXIS2_PLACEMENT_3D('',#525,#526,#527);
#456=CARTESIAN_POINT('',(-4.30463349900294E-015,-4.0,35.15));
#457=AXIS2_PLACEMENT_3D('',#528,#529,#530);
#458=CARTESIAN_POINT('',(-35.15,-4.0,0.0));
#459=AXIS2_PLACEMENT_3D('',#531,#532,#533);
#460=AXIS2_PLACEMENT_3D('',#534,#535,#536);
#461=COLOUR_RGB('',1.0,1.0,0.0);
#462=AXIS2_PLACEMENT_3D('',#537,#538,#539);
#463=AXIS2_PLACEMENT_3D('',#540,#541,#542);
#464=COLOUR_RGB('',1.0,1.0,0.0);
#465=AXIS2_PLACEMENT_3D('',#543,#544,#545);
#466=COLOUR_RGB('',1.0,1.0,0.0);
#467=AXIS2_PLACEMENT_3D('',#546,#547,#548);
#468=COLOUR_RGB('',1.0,1.0,0.0);
#469=CARTESIAN_POINT('',(-36.15,0.0,0.0));
#470=AXIS2_PLACEMENT_3D('',#549,#550,#551);
#471=AXIS2_PLACEMENT_3D('',#552,#553,#554);
#472=COLOUR_RGB('',1.0,1.0,0.0);
#473=AXIS2_PLACEMENT_3D('',#555,#556,#557);
#474=COLOUR_RGB('',1.0,1.0,0.0);
#475=AXIS2_PLACEMENT_3D('',#558,#559,#560);
#476=COLOUR_RGB('',1.0,1.0,0.0);
#477=AXIS2_PLACEMENT_3D('',#561,#562,#563);
#478=COLOUR_RGB('',1.0,1.0,0.0);
#479=COLOUR_RGB('',1.0,1.0,0.0);
#480=DIRECTION('',(0.0,1.0,0.0));
#481=CARTESIAN_POINT('',(0.0,-23.0,0.0));
#482=DIRECTION('',(0.0,1.0,0.0));
#483=DIRECTION('',(-1.0,0.0,0.0));
#484=DIRECTION('',(-0.0,-1.0,-0.0));
#485=CARTESIAN_POINT('',(0.0,-9.0,0.0));
#486=DIRECTION('',(0.0,1.0,0.0));
#487=DIRECTION('',(-1.0,0.0,0.0));
#488=CARTESIAN_POINT('',(0.0,-9.0,0.0));
#489=DIRECTION('',(0.0,1.0,0.0));
#490=DIRECTION('',(-1.0,0.0,0.0));
#491=DIRECTION('',(0.0,1.0,0.0));
#492=CARTESIAN_POINT('',(0.0,-23.0,0.0));
#493=DIRECTION('',(0.0,1.0,0.0));
#494=DIRECTION('',(-1.0,0.0,0.0));
#495=DIRECTION('',(0.0,-1.0,0.0));
#496=CARTESIAN_POINT('',(0.0,-9.0,0.0));
#497=DIRECTION('',(0.0,1.0,0.0));
#498=DIRECTION('',(-1.0,0.0,0.0));
#499=CARTESIAN_POINT('',(0.0,-9.0,0.0));
#500=DIRECTION('',(0.0,1.0,0.0));
#501=DIRECTION('',(-1.0,0.0,0.0));
#502=CARTESIAN_POINT('',(-4.42709817891768E-015,-9.0,36.15));
#503=DIRECTION('',(-1.0,0.0,-1.22464679914735E-016));
#504=DIRECTION('',(-1.22464679914735E-016,-0.0,1.0));
#505=CARTESIAN_POINT('',(0.0,0.0,0.0));
#506=DIRECTION('',(0.0,1.0,0.0));
#507=DIRECTION('',(-1.0,0.0,0.0));
#508=CARTESIAN_POINT('',(4.42709817891768E-015,-9.0,-36.15));
#509=DIRECTION('',(-1.0,0.0,-1.22464679914735E-016));
#510=DIRECTION('',(1.22464679914735E-016,0.0,-1.0));
#511=CARTESIAN_POINT('',(0.0,-9.0,0.0));
#512=DIRECTION('',(0.0,1.0,0.0));
#513=DIRECTION('',(-1.0,0.0,0.0));
#514=DIRECTION('',(0.0,1.0,0.0));
#515=CARTESIAN_POINT('',(0.0,-4.0,0.0));
#516=DIRECTION('',(0.0,1.0,0.0));
#517=DIRECTION('',(-1.0,0.0,0.0));
#518=DIRECTION('',(-0.0,-1.0,-0.0));
#519=CARTESIAN_POINT('',(0.0,0.0,0.0));
#520=DIRECTION('',(0.0,1.0,0.0));
#521=DIRECTION('',(-1.0,0.0,0.0));
#522=CARTESIAN_POINT('',(4.30463349900294E-015,-9.0,-35.15));
#523=DIRECTION('',(-1.0,0.0,-1.22464679914735E-016));
#524=DIRECTION('',(1.22464679914735E-016,-0.0,-1.0));
#525=CARTESIAN_POINT('',(0.0,-9.0,0.0));
#526=DIRECTION('',(0.0,1.0,0.0));
#527=DIRECTION('',(-1.0,0.0,0.0));
#528=CARTESIAN_POINT('',(-4.30463349900294E-015,-9.0,35.15));
#529=DIRECTION('',(-1.0,0.0,-1.22464679914735E-016));
#530=DIRECTION('',(-1.22464679914735E-016,0.0,1.0));
#531=CARTESIAN_POINT('',(0.0,-4.0,0.0));
#532=DIRECTION('',(0.0,1.0,0.0));
#533=DIRECTION('',(-1.0,0.0,0.0));
#534=CARTESIAN_POINT('',(0.0,-4.0,0.0));
#535=DIRECTION('',(0.0,1.0,0.0));
#536=DIRECTION('',(-1.0,0.0,0.0));
#537=CARTESIAN_POINT('',(0.0,-4.0,0.0));
#538=DIRECTION('',(0.0,1.0,0.0));
#539=DIRECTION('',(-1.0,0.0,0.0));
#540=CARTESIAN_POINT('',(0.0,-9.0,0.0));
#541=DIRECTION('',(0.0,1.0,0.0));
#542=DIRECTION('',(-1.0,0.0,0.0));
#543=CARTESIAN_POINT('',(0.0,-4.0,0.0));
#544=DIRECTION('',(0.0,1.0,0.0));
#545=DIRECTION('',(-1.0,0.0,0.0));
#546=CARTESIAN_POINT('',(0.0,0.0,0.0));
#547=DIRECTION('',(0.0,1.0,0.0));
#548=DIRECTION('',(-1.0,0.0,0.0));
#549=CARTESIAN_POINT('',(0.0,0.0,0.0));
#550=DIRECTION('',(0.0,1.0,0.0));
#551=DIRECTION('',(-1.0,0.0,0.0));
#552=CARTESIAN_POINT('',(0.0,0.0,0.0));
#553=DIRECTION('',(0.0,1.0,0.0));
#554=DIRECTION('',(-1.0,0.0,0.0));
#555=CARTESIAN_POINT('',(0.0,-9.0,0.0));
#556=DIRECTION('',(0.0,1.0,0.0));
#557=DIRECTION('',(-1.0,0.0,0.0));
#558=CARTESIAN_POINT('',(0.0,-23.0,0.0));
#559=DIRECTION('',(0.0,1.0,0.0));
#560=DIRECTION('',(-1.0,0.0,0.0));
#561=CARTESIAN_POINT('',(0.0,-23.0,0.0));
#562=DIRECTION('',(0.0,1.0,0.0));
#563=DIRECTION('',(-1.0,0.0,0.0));
ENDSEC;
END-ISO-10303-21;
