ISO-10303-21;
HEADER;
FILE_DESCRIPTION (( 'STEP AP203' ),
    '1' );
FILE_NAME ('OT214-200-206x3_OSTP.step',
    '2021-02-10T12:40:30',
    ( '' ),
    ( '' ),
    'SwSTEP 2.0',
    'SolidWorks 2014',
    '' );
FILE_SCHEMA (( 'CONFIG_CONTROL_DESIGN' ));
ENDSEC;

DATA;
#1 = CIRCLE ( 'NONE', #248, 103.0000000000000000 ) ;
#2 = ORIENTED_EDGE ( 'NONE', *, *, #54, .T. ) ;
#3 =( GEOMETRIC_REPRESENTATION_CONTEXT ( 3 ) GLOBAL_UNCERTAINTY_ASSIGNED_CONTEXT ( ( #81 ) ) GLOBAL_UNIT_ASSIGNED_CONTEXT ( ( #43, #157, #29 ) ) REPRESENTATION_CONTEXT ( 'NONE', 'WORKASPACE' ) );
#4 = PLANE ( 'NONE',  #239 ) ;
#5 = PERSON ( 'UNSPECIFIED', 'UNSPECIFIED', 'UNSPECIFIED', ('UNSPECIFIED'), ('UNSPECIFIED'), ('UNSPECIFIED') ) ;
#6 = FACE_OUTER_BOUND ( 'NONE', #37, .T. ) ;
#7 = DIRECTION ( 'NONE',  ( 1.000000000000000000, 0.0000000000000000000, 0.0000000000000000000 ) ) ;
#8 = CC_DESIGN_DATE_AND_TIME_ASSIGNMENT ( #78, #91, ( #181 ) ) ;
#9 = PERSON_AND_ORGANIZATION_ROLE ( 'design_supplier' ) ;
#10 = APPROVAL_STATUS ( 'not_yet_approved' ) ;
#11 = ORIENTED_EDGE ( 'NONE', *, *, #138, .T. ) ;
#12 = CARTESIAN_POINT ( 'NONE',  ( 0.0000000000000000000, 0.0000000000000000000, 0.0000000000000000000 ) ) ;
#13 = EDGE_CURVE ( 'NONE', #97, #251, #101, .T. ) ;
#14 = APPROVAL_DATE_TIME ( #236, #49 ) ;
#15 = PRODUCT_DEFINITION_SHAPE ( 'NONE', 'NONE',  #99 ) ;
#16 = PERSON_AND_ORGANIZATION ( #5, #186 ) ;
#17 = ADVANCED_FACE ( 'NONE', ( #55 ), #201, .T. ) ;
#18 = CC_DESIGN_APPROVAL ( #49, ( #110 ) ) ;
#19 = FACE_BOUND ( 'NONE', #130, .T. ) ;
#20 = EDGE_CURVE ( 'NONE', #48, #42, #143, .T. ) ;
#21 = DIRECTION ( 'NONE',  ( 0.0000000000000000000, 1.000000000000000000, 0.0000000000000000000 ) ) ;
#22 = CALENDAR_DATE ( 2021, 10, 2 ) ;
#23 = EDGE_CURVE ( 'NONE', #251, #53, #88, .T. ) ;
#24 = APPROVAL_PERSON_ORGANIZATION ( #136, #149, #26 ) ;
#25 = AXIS2_PLACEMENT_3D ( 'NONE', #122, #224, #121 ) ;
#26 = APPROVAL_ROLE ( '' ) ;
#27 = PERSON_AND_ORGANIZATION_ROLE ( 'creator' ) ;
#28 = FACE_OUTER_BOUND ( 'NONE', #198, .T. ) ;
#29 =( NAMED_UNIT ( * ) SI_UNIT ( $, .STERADIAN. ) SOLID_ANGLE_UNIT ( ) );
#30 = CIRCLE ( 'NONE', #93, 99.99999999999998600 ) ;
#31 = ORIENTED_EDGE ( 'NONE', *, *, #23, .F. ) ;
#32 = AXIS2_PLACEMENT_3D ( 'NONE', #69, #133, #249 ) ;
#33 = ADVANCED_BREP_SHAPE_REPRESENTATION ( 'OT214-200-206x3_OSTP', ( #132, #128 ), #3 ) ;
#34 = AXIS2_PLACEMENT_3D ( 'NONE', #204, #21, #108 ) ;
#35 = CIRCLE ( 'NONE', #213, 197.0000000000000000 ) ;
#36 = AXIS2_PLACEMENT_3D ( 'NONE', #226, #111, #184 ) ;
#37 = EDGE_LOOP ( 'NONE', ( #58, #160, #231, #252 ) ) ;
#38 = CARTESIAN_POINT ( 'NONE',  ( 299.9999999999999400, 300.0000000000000000, 0.0000000000000000000 ) ) ;
#39 = DIRECTION ( 'NONE',  ( 1.000000000000000000, 0.0000000000000000000, 0.0000000000000000000 ) ) ;
#40 = DIRECTION ( 'NONE',  ( 1.000000000000000000, 0.0000000000000000000, 0.0000000000000000000 ) ) ;
#41 = CIRCLE ( 'NONE', #154, 99.99999999999997200 ) ;
#42 = VERTEX_POINT ( 'NONE', #163 ) ;
#43 =( LENGTH_UNIT ( ) NAMED_UNIT ( * ) SI_UNIT ( .MILLI., .METRE. ) );
#44 = PERSON_AND_ORGANIZATION_ROLE ( 'design_owner' ) ;
#45 = AXIS2_PLACEMENT_3D ( 'NONE', #172, #230, #153 ) ;
#46 = DATE_TIME_ROLE ( 'creation_date' ) ;
#47 = DIRECTION ( 'NONE',  ( 1.000000000000000000, 6.123233995736766000E-017, -0.0000000000000000000 ) ) ;
#48 = VERTEX_POINT ( 'NONE', #202 ) ;
#49 = APPROVAL ( #215, 'UNSPECIFIED' ) ;
#50 = APPLICATION_CONTEXT ( 'configuration controlled 3d designs of mechanical parts and assemblies' ) ;
#51 = ADVANCED_FACE ( 'NONE', ( #28 ), #139, .T. ) ;
#52 = FACE_OUTER_BOUND ( 'NONE', #214, .T. ) ;
#53 = VERTEX_POINT ( 'NONE', #76 ) ;
#54 = EDGE_CURVE ( 'NONE', #145, #217, #141, .T. ) ;
#55 = FACE_OUTER_BOUND ( 'NONE', #196, .T. ) ;
#56 = PERSON_AND_ORGANIZATION ( #5, #186 ) ;
#57 = ORIENTED_EDGE ( 'NONE', *, *, #95, .T. ) ;
#58 = ORIENTED_EDGE ( 'NONE', *, *, #183, .T. ) ;
#59 = DIRECTION ( 'NONE',  ( 0.0000000000000000000, 0.0000000000000000000, 1.000000000000000000 ) ) ;
#60 = DIRECTION ( 'NONE',  ( 1.000000000000000000, 0.0000000000000000000, 0.0000000000000000000 ) ) ;
#61 = AXIS2_PLACEMENT_3D ( 'NONE', #166, #189, #225 ) ;
#62 = CIRCLE ( 'NONE', #32, 99.99999999999997200 ) ;
#63 = DIRECTION ( 'NONE',  ( 0.0000000000000000000, 0.0000000000000000000, 1.000000000000000000 ) ) ;
#64 = LOCAL_TIME ( 13, 40, 30.00000000000000000, #188 ) ;
#65 = EDGE_CURVE ( 'NONE', #217, #48, #35, .T. ) ;
#66 = APPLICATION_PROTOCOL_DEFINITION ( 'international standard', 'config_control_design', 1994, #129 ) ;
#67 = CARTESIAN_POINT ( 'NONE',  ( 300.0000000000000000, 0.0000000000000000000, 0.0000000000000000000 ) ) ;
#68 = ORIENTED_EDGE ( 'NONE', *, *, #54, .F. ) ;
#69 = CARTESIAN_POINT ( 'NONE',  ( 300.0000000000000000, 300.0000000000000000, 0.0000000000000000000 ) ) ;
#70 = DIRECTION ( 'NONE',  ( 0.0000000000000000000, 1.000000000000000000, 0.0000000000000000000 ) ) ;
#71 = PERSON_AND_ORGANIZATION ( #5, #186 ) ;
#72 = ADVANCED_FACE ( 'NONE', ( #52 ), #84, .F. ) ;
#73 = AXIS2_PLACEMENT_3D ( 'NONE', #82, #144, #60 ) ;
#74 = APPROVAL_PERSON_ORGANIZATION ( #71, #120, #155 ) ;
#75 = CALENDAR_DATE ( 2021, 10, 2 ) ;
#76 = CARTESIAN_POINT ( 'NONE',  ( 100.0000000000000000, 0.0000000000000000000, -1.224646799147353400E-014 ) ) ;
#77 = AXIS2_PLACEMENT_3D ( 'NONE', #187, #185, #240 ) ;
#78 = DATE_AND_TIME ( #75, #191 ) ;
#79 = ORIENTED_EDGE ( 'NONE', *, *, #173, .T. ) ;
#80 = DATE_AND_TIME ( #126, #180 ) ;
#81 = UNCERTAINTY_MEASURE_WITH_UNIT (LENGTH_MEASURE( 1.000000000000000100E-005 ), #43, 'distance_accuracy_value', 'NONE');
#82 = CARTESIAN_POINT ( 'NONE',  ( 300.0000000000000000, 0.0000000000000000000, 0.0000000000000000000 ) ) ;
#83 = CARTESIAN_POINT ( 'NONE',  ( 300.0000000000000000, 0.0000000000000000000, 0.0000000000000000000 ) ) ;
#84 = TOROIDAL_SURFACE ( 'NONE', #36, 300.0000000000000000, 99.99999999999998600 ) ;
#85 = CARTESIAN_POINT ( 'NONE',  ( 299.9999999999999400, 300.0000000000000000, 0.0000000000000000000 ) ) ;
#86 = CARTESIAN_POINT ( 'NONE',  ( -99.99999999999997200, 0.0000000000000000000, 0.0000000000000000000 ) ) ;
#87 = APPROVAL_PERSON_ORGANIZATION ( #119, #49, #127 ) ;
#88 = CIRCLE ( 'NONE', #34, 99.99999999999998600 ) ;
#89 = AXIS2_PLACEMENT_3D ( 'NONE', #67, #228, #212 ) ;
#90 = DIRECTION ( 'NONE',  ( 0.0000000000000000000, 0.0000000000000000000, 1.000000000000000000 ) ) ;
#91 = DATE_TIME_ROLE ( 'classification_date' ) ;
#92 = ORIENTED_EDGE ( 'NONE', *, *, #173, .F. ) ;
#93 = AXIS2_PLACEMENT_3D ( 'NONE', #106, #150, #206 ) ;
#94 = ADVANCED_FACE ( 'NONE', ( #19, #152 ), #243, .F. ) ;
#95 = EDGE_CURVE ( 'NONE', #145, #42, #158, .T. ) ;
#96 = TOROIDAL_SURFACE ( 'NONE', #89, 300.0000000000000000, 99.99999999999998600 ) ;
#97 = VERTEX_POINT ( 'NONE', #123 ) ;
#98 = APPROVAL_DATE_TIME ( #80, #149 ) ;
#99 = PRODUCT_DEFINITION ( 'UNKNOWN', '', #110, #151 ) ;
#100 = ORIENTED_EDGE ( 'NONE', *, *, #13, .F. ) ;
#101 = CIRCLE ( 'NONE', #102, 399.9999999999999400 ) ;
#102 = AXIS2_PLACEMENT_3D ( 'NONE', #169, #109, #125 ) ;
#103 = PRODUCT ( 'OT214-200-206x3_OSTP', 'OT214-200-206x3_OSTP', '', ( #174 ) ) ;
#104 = DIRECTION ( 'NONE',  ( 0.0000000000000000000, 0.0000000000000000000, 1.000000000000000000 ) ) ;
#105 = ORIENTED_EDGE ( 'NONE', *, *, #164, .T. ) ;
#106 = CARTESIAN_POINT ( 'NONE',  ( 0.0000000000000000000, 0.0000000000000000000, 0.0000000000000000000 ) ) ;
#107 = CC_DESIGN_PERSON_AND_ORGANIZATION_ASSIGNMENT ( #233, #170, ( #99 ) ) ;
#108 = DIRECTION ( 'NONE',  ( 0.0000000000000000000, 0.0000000000000000000, 1.000000000000000000 ) ) ;
#109 = DIRECTION ( 'NONE',  ( 0.0000000000000000000, 0.0000000000000000000, 1.000000000000000000 ) ) ;
#110 = PRODUCT_DEFINITION_FORMATION_WITH_SPECIFIED_SOURCE ( 'ANY', '', #103, .NOT_KNOWN. ) ;
#111 = DIRECTION ( 'NONE',  ( 0.0000000000000000000, 0.0000000000000000000, 1.000000000000000000 ) ) ;
#112 = SHAPE_DEFINITION_REPRESENTATION ( #15, #33 ) ;
#113 = DIRECTION ( 'NONE',  ( 0.0000000000000000000, 0.0000000000000000000, 1.000000000000000000 ) ) ;
#114 = CARTESIAN_POINT ( 'NONE',  ( 300.0000000000000000, 199.9999999999999700, -1.224646799147353400E-014 ) ) ;
#115 = APPROVAL_STATUS ( 'not_yet_approved' ) ;
#116 = CALENDAR_DATE ( 2021, 10, 2 ) ;
#117 = CLOSED_SHELL ( 'NONE', ( #250, #51, #17, #176, #94, #72 ) ) ;
#118 = CC_DESIGN_PERSON_AND_ORGANIZATION_ASSIGNMENT ( #56, #9, ( #110 ) ) ;
#119 = PERSON_AND_ORGANIZATION ( #5, #186 ) ;
#120 = APPROVAL ( #10, 'UNSPECIFIED' ) ;
#121 = DIRECTION ( 'NONE',  ( 0.0000000000000000000, -0.0000000000000000000, 1.000000000000000000 ) ) ;
#122 = CARTESIAN_POINT ( 'NONE',  ( 0.0000000000000000000, 0.0000000000000000000, 0.0000000000000000000 ) ) ;
#123 = CARTESIAN_POINT ( 'NONE',  ( 300.0000000000000000, 399.9999999999999400, 0.0000000000000000000 ) ) ;
#124 = LOCAL_TIME ( 13, 40, 30.00000000000000000, #200 ) ;
#125 = DIRECTION ( 'NONE',  ( 1.000000000000000000, 0.0000000000000000000, 0.0000000000000000000 ) ) ;
#126 = CALENDAR_DATE ( 2021, 10, 2 ) ;
#127 = APPROVAL_ROLE ( '' ) ;
#128 = AXIS2_PLACEMENT_3D ( 'NONE', #12, #131, #227 ) ;
#129 = APPLICATION_CONTEXT ( 'configuration controlled 3d designs of mechanical parts and assemblies' ) ;
#130 = EDGE_LOOP ( 'NONE', ( #11, #168 ) ) ;
#131 = DIRECTION ( 'NONE',  ( 0.0000000000000000000, 0.0000000000000000000, 1.000000000000000000 ) ) ;
#132 = MANIFOLD_SOLID_BREP ( 'cut-body', #117 ) ;
#133 = DIRECTION ( 'NONE',  ( 1.000000000000000000, 6.123233995736766000E-017, 0.0000000000000000000 ) ) ;
#134 = CC_DESIGN_SECURITY_CLASSIFICATION ( #181, ( #110 ) ) ;
#135 = CIRCLE ( 'NONE', #77, 103.0000000000000000 ) ;
#136 = PERSON_AND_ORGANIZATION ( #5, #186 ) ;
#137 = CC_DESIGN_PERSON_AND_ORGANIZATION_ASSIGNMENT ( #16, #193, ( #181 ) ) ;
#138 = EDGE_CURVE ( 'NONE', #53, #251, #30, .T. ) ;
#139 = TOROIDAL_SURFACE ( 'NONE', #218, 300.0000000000000000, 103.0000000000000000 ) ;
#140 = ORIENTED_EDGE ( 'NONE', *, *, #95, .F. ) ;
#141 = CIRCLE ( 'NONE', #229, 103.0000000000000000 ) ;
#142 = COORDINATED_UNIVERSAL_TIME_OFFSET ( 1, 0, .AHEAD. ) ;
#143 = CIRCLE ( 'NONE', #61, 103.0000000000000000 ) ;
#144 = DIRECTION ( 'NONE',  ( 0.0000000000000000000, 0.0000000000000000000, 1.000000000000000000 ) ) ;
#145 = VERTEX_POINT ( 'NONE', #205 ) ;
#146 = PRODUCT_RELATED_PRODUCT_CATEGORY ( 'detail', '', ( #103 ) ) ;
#147 = CARTESIAN_POINT ( 'NONE',  ( 300.0000000000000000, 0.0000000000000000000, 0.0000000000000000000 ) ) ;
#148 = DIRECTION ( 'NONE',  ( 1.000000000000000000, 6.123233995736766000E-017, 0.0000000000000000000 ) ) ;
#149 = APPROVAL ( #115, 'UNSPECIFIED' ) ;
#150 = DIRECTION ( 'NONE',  ( 0.0000000000000000000, 1.000000000000000000, 0.0000000000000000000 ) ) ;
#151 = DESIGN_CONTEXT ( 'detailed design', #50, 'design' ) ;
#152 = FACE_OUTER_BOUND ( 'NONE', #219, .T. ) ;
#153 = DIRECTION ( 'NONE',  ( 1.000000000000000000, 0.0000000000000000000, 0.0000000000000000000 ) ) ;
#154 = AXIS2_PLACEMENT_3D ( 'NONE', #232, #195, #70 ) ;
#155 = APPROVAL_ROLE ( '' ) ;
#156 = SECURITY_CLASSIFICATION_LEVEL ( 'unclassified' ) ;
#157 =( NAMED_UNIT ( * ) PLANE_ANGLE_UNIT ( ) SI_UNIT ( $, .RADIAN. ) );
#158 = CIRCLE ( 'NONE', #73, 402.9999999999999400 ) ;
#159 = ORIENTED_EDGE ( 'NONE', *, *, #65, .T. ) ;
#160 = ORIENTED_EDGE ( 'NONE', *, *, #13, .T. ) ;
#161 = FACE_OUTER_BOUND ( 'NONE', #246, .T. ) ;
#162 = ORIENTED_EDGE ( 'NONE', *, *, #20, .F. ) ;
#163 = CARTESIAN_POINT ( 'NONE',  ( -102.9999999999999900, 0.0000000000000000000, 0.0000000000000000000 ) ) ;
#164 = EDGE_CURVE ( 'NONE', #217, #145, #135, .T. ) ;
#165 = ORIENTED_EDGE ( 'NONE', *, *, #183, .F. ) ;
#166 = CARTESIAN_POINT ( 'NONE',  ( 0.0000000000000000000, 0.0000000000000000000, 0.0000000000000000000 ) ) ;
#167 = CIRCLE ( 'NONE', #45, 200.0000000000000000 ) ;
#168 = ORIENTED_EDGE ( 'NONE', *, *, #23, .T. ) ;
#169 = CARTESIAN_POINT ( 'NONE',  ( 300.0000000000000000, 0.0000000000000000000, 0.0000000000000000000 ) ) ;
#170 = PERSON_AND_ORGANIZATION_ROLE ( 'creator' ) ;
#171 = DIRECTION ( 'NONE',  ( 0.0000000000000000000, 1.000000000000000000, 0.0000000000000000000 ) ) ;
#172 = CARTESIAN_POINT ( 'NONE',  ( 300.0000000000000000, 0.0000000000000000000, -1.224646799147353100E-014 ) ) ;
#173 = EDGE_CURVE ( 'NONE', #97, #238, #62, .T. ) ;
#174 = MECHANICAL_CONTEXT ( 'NONE', #129, 'mechanical' ) ;
#175 = APPROVAL_DATE_TIME ( #197, #120 ) ;
#176 = ADVANCED_FACE ( 'NONE', ( #207, #161 ), #4, .T. ) ;
#177 = ORIENTED_EDGE ( 'NONE', *, *, #20, .T. ) ;
#178 = CC_DESIGN_APPROVAL ( #149, ( #181 ) ) ;
#179 = CALENDAR_DATE ( 2021, 10, 2 ) ;
#180 = LOCAL_TIME ( 13, 40, 30.00000000000000000, #234 ) ;
#181 = SECURITY_CLASSIFICATION ( '', '', #156 ) ;
#182 = ORIENTED_EDGE ( 'NONE', *, *, #190, .T. ) ;
#183 = EDGE_CURVE ( 'NONE', #238, #97, #41, .T. ) ;
#184 = DIRECTION ( 'NONE',  ( 1.000000000000000000, 0.0000000000000000000, 0.0000000000000000000 ) ) ;
#185 = DIRECTION ( 'NONE',  ( 1.000000000000000000, 6.123233995736766000E-017, 0.0000000000000000000 ) ) ;
#186 = ORGANIZATION ( 'UNSPECIFIED', 'UNSPECIFIED', '' ) ;
#187 = CARTESIAN_POINT ( 'NONE',  ( 299.9999999999999400, 300.0000000000000000, 0.0000000000000000000 ) ) ;
#188 = COORDINATED_UNIVERSAL_TIME_OFFSET ( 1, 0, .AHEAD. ) ;
#189 = DIRECTION ( 'NONE',  ( 0.0000000000000000000, 1.000000000000000000, 0.0000000000000000000 ) ) ;
#190 = EDGE_CURVE ( 'NONE', #238, #53, #167, .T. ) ;
#191 = LOCAL_TIME ( 13, 40, 30.00000000000000000, #216 ) ;
#192 = ORIENTED_EDGE ( 'NONE', *, *, #253, .T. ) ;
#193 = PERSON_AND_ORGANIZATION_ROLE ( 'classification_officer' ) ;
#194 = CC_DESIGN_PERSON_AND_ORGANIZATION_ASSIGNMENT ( #221, #27, ( #110 ) ) ;
#195 = DIRECTION ( 'NONE',  ( 1.000000000000000000, 6.123233995736766000E-017, 0.0000000000000000000 ) ) ;
#196 = EDGE_LOOP ( 'NONE', ( #140, #235, #159, #177 ) ) ;
#197 = DATE_AND_TIME ( #22, #124 ) ;
#198 = EDGE_LOOP ( 'NONE', ( #68, #57, #192, #209 ) ) ;
#199 = CC_DESIGN_PERSON_AND_ORGANIZATION_ASSIGNMENT ( #245, #44, ( #103 ) ) ;
#200 = COORDINATED_UNIVERSAL_TIME_OFFSET ( 1, 0, .AHEAD. ) ;
#201 = TOROIDAL_SURFACE ( 'NONE', #203, 300.0000000000000000, 103.0000000000000000 ) ;
#202 = CARTESIAN_POINT ( 'NONE',  ( 103.0000000000000100, 0.0000000000000000000, -1.261386203121774100E-014 ) ) ;
#203 = AXIS2_PLACEMENT_3D ( 'NONE', #147, #59, #39 ) ;
#204 = CARTESIAN_POINT ( 'NONE',  ( 0.0000000000000000000, 0.0000000000000000000, 0.0000000000000000000 ) ) ;
#205 = CARTESIAN_POINT ( 'NONE',  ( 299.9999999999999400, 402.9999999999999400, 0.0000000000000000000 ) ) ;
#206 = DIRECTION ( 'NONE',  ( 0.0000000000000000000, 0.0000000000000000000, 1.000000000000000000 ) ) ;
#207 = FACE_BOUND ( 'NONE', #223, .T. ) ;
#208 = APPLICATION_PROTOCOL_DEFINITION ( 'international standard', 'config_control_design', 1994, #50 ) ;
#209 = ORIENTED_EDGE ( 'NONE', *, *, #65, .F. ) ;
#210 = CC_DESIGN_DATE_AND_TIME_ASSIGNMENT ( #222, #46, ( #99 ) ) ;
#211 = CARTESIAN_POINT ( 'NONE',  ( 299.9999999999999400, 196.9999999999999700, -1.261386203121774100E-014 ) ) ;
#212 = DIRECTION ( 'NONE',  ( 1.000000000000000000, 0.0000000000000000000, 0.0000000000000000000 ) ) ;
#213 = AXIS2_PLACEMENT_3D ( 'NONE', #241, #63, #40 ) ;
#214 = EDGE_LOOP ( 'NONE', ( #100, #79, #182, #31 ) ) ;
#215 = APPROVAL_STATUS ( 'not_yet_approved' ) ;
#216 = COORDINATED_UNIVERSAL_TIME_OFFSET ( 1, 0, .AHEAD. ) ;
#217 = VERTEX_POINT ( 'NONE', #211 ) ;
#218 = AXIS2_PLACEMENT_3D ( 'NONE', #83, #104, #7 ) ;
#219 = EDGE_LOOP ( 'NONE', ( #162, #242 ) ) ;
#220 = CC_DESIGN_APPROVAL ( #120, ( #99 ) ) ;
#221 = PERSON_AND_ORGANIZATION ( #5, #186 ) ;
#222 = DATE_AND_TIME ( #179, #64 ) ;
#223 = EDGE_LOOP ( 'NONE', ( #165, #92 ) ) ;
#224 = DIRECTION ( 'NONE',  ( 0.0000000000000000000, 1.000000000000000000, 0.0000000000000000000 ) ) ;
#225 = DIRECTION ( 'NONE',  ( 0.0000000000000000000, 0.0000000000000000000, 1.000000000000000000 ) ) ;
#226 = CARTESIAN_POINT ( 'NONE',  ( 300.0000000000000000, 0.0000000000000000000, 0.0000000000000000000 ) ) ;
#227 = DIRECTION ( 'NONE',  ( 1.000000000000000000, 0.0000000000000000000, 0.0000000000000000000 ) ) ;
#228 = DIRECTION ( 'NONE',  ( 0.0000000000000000000, 0.0000000000000000000, 1.000000000000000000 ) ) ;
#229 = AXIS2_PLACEMENT_3D ( 'NONE', #38, #148, #244 ) ;
#230 = DIRECTION ( 'NONE',  ( 0.0000000000000000000, 0.0000000000000000000, 1.000000000000000000 ) ) ;
#231 = ORIENTED_EDGE ( 'NONE', *, *, #138, .F. ) ;
#232 = CARTESIAN_POINT ( 'NONE',  ( 300.0000000000000000, 300.0000000000000000, 0.0000000000000000000 ) ) ;
#233 = PERSON_AND_ORGANIZATION ( #5, #186 ) ;
#234 = COORDINATED_UNIVERSAL_TIME_OFFSET ( 1, 0, .AHEAD. ) ;
#235 = ORIENTED_EDGE ( 'NONE', *, *, #164, .F. ) ;
#236 = DATE_AND_TIME ( #116, #237 ) ;
#237 = LOCAL_TIME ( 13, 40, 30.00000000000000000, #142 ) ;
#238 = VERTEX_POINT ( 'NONE', #114 ) ;
#239 = AXIS2_PLACEMENT_3D ( 'NONE', #85, #47, #113 ) ;
#240 = DIRECTION ( 'NONE',  ( 0.0000000000000000000, 0.0000000000000000000, 1.000000000000000000 ) ) ;
#241 = CARTESIAN_POINT ( 'NONE',  ( 300.0000000000000000, 0.0000000000000000000, -1.261386203121773800E-014 ) ) ;
#242 = ORIENTED_EDGE ( 'NONE', *, *, #253, .F. ) ;
#243 = PLANE ( 'NONE',  #25 ) ;
#244 = DIRECTION ( 'NONE',  ( 0.0000000000000000000, 0.0000000000000000000, 1.000000000000000000 ) ) ;
#245 = PERSON_AND_ORGANIZATION ( #5, #186 ) ;
#246 = EDGE_LOOP ( 'NONE', ( #105, #2 ) ) ;
#247 = CARTESIAN_POINT ( 'NONE',  ( 0.0000000000000000000, 0.0000000000000000000, 0.0000000000000000000 ) ) ;
#248 = AXIS2_PLACEMENT_3D ( 'NONE', #247, #171, #90 ) ;
#249 = DIRECTION ( 'NONE',  ( 0.0000000000000000000, 1.000000000000000000, 0.0000000000000000000 ) ) ;
#250 = ADVANCED_FACE ( 'NONE', ( #6 ), #96, .F. ) ;
#251 = VERTEX_POINT ( 'NONE', #86 ) ;
#252 = ORIENTED_EDGE ( 'NONE', *, *, #190, .F. ) ;
#253 = EDGE_CURVE ( 'NONE', #42, #48, #1, .T. ) ;
ENDSEC;
END-ISO-10303-21;
