ISO-10303-21;
HEADER;
FILE_DESCRIPTION (( 'STEP AP203' ),
    '1' );
FILE_NAME ('19-0408-45_outokumpu.step',
    '2015-08-11T09:40:33',
    ( '' ),
    ( '' ),
    'SwSTEP 2.0',
    'SolidWorks 2008',
    '' );
FILE_SCHEMA (( 'CONFIG_CONTROL_DESIGN' ));
ENDSEC;

DATA;
#1 = EDGE_LOOP ( 'NONE', ( #47, #51, #54, #57 ) ) ;
#2 = ORIENTED_EDGE ( 'NONE', *, *, #46, .T. ) ;
#3 = VERTEX_POINT ( 'NONE', #102 ) ;
#4 = VERTEX_POINT ( 'NONE', #105 ) ;
#5 = VERTEX_POINT ( 'NONE', #104 ) ;
#6 = ORIENTED_EDGE ( 'NONE', *, *, #43, .T. ) ;
#7 = VERTEX_POINT ( 'NONE', #107 ) ;
#8 = VERTEX_POINT ( 'NONE', #106 ) ;
#9 = ORIENTED_EDGE ( 'NONE', *, *, #30, .T. ) ;
#10 = MANIFOLD_SOLID_BREP ( 'NONE', #91 ) ;
#11 = EDGE_CURVE ( 'NONE', #5, #3, #103, .T. ) ;
#12 = ADVANCED_FACE ( 'NONE', ( #101 ), #115, .F. ) ;
#13 = EDGE_CURVE ( 'NONE', #15, #4, #111, .T. ) ;
#14 = ORIENTED_EDGE ( 'NONE', *, *, #17, .F. ) ;
#15 = VERTEX_POINT ( 'NONE', #120 ) ;
#16 = ORIENTED_EDGE ( 'NONE', *, *, #13, .F. ) ;
#17 = EDGE_CURVE ( 'NONE', #4, #44, #122, .T. ) ;
#18 = EDGE_CURVE ( 'NONE', #8, #7, #125, .T. ) ;
#19 = EDGE_LOOP ( 'NONE', ( #20, #9, #31, #27 ) ) ;
#20 = ORIENTED_EDGE ( 'NONE', *, *, #18, .T. ) ;
#21 = VERTEX_POINT ( 'NONE', #137 ) ;
#22 = VERTEX_POINT ( 'NONE', #136 ) ;
#23 = ORIENTED_EDGE ( 'NONE', *, *, #26, .F. ) ;
#24 = EDGE_LOOP ( 'NONE', ( #23, #356, #347, #64, #350 ) ) ;
#25 = ADVANCED_FACE ( 'NONE', ( #135 ), #134, .T. ) ;
#26 = EDGE_CURVE ( 'NONE', #22, #21, #157, .T. ) ;
#27 = ORIENTED_EDGE ( 'NONE', *, *, #33, .F. ) ;
#28 = VERTEX_POINT ( 'NONE', #158 ) ;
#29 = VERTEX_POINT ( 'NONE', #148 ) ;
#30 = EDGE_CURVE ( 'NONE', #7, #28, #147, .T. ) ;
#31 = ORIENTED_EDGE ( 'NONE', *, *, #35, .F. ) ;
#32 = ADVANCED_FACE ( 'NONE', ( #155 ), #154, .F. ) ;
#33 = EDGE_CURVE ( 'NONE', #8, #29, #165, .T. ) ;
#34 = ORIENTED_EDGE ( 'NONE', *, *, #68, .T. ) ;
#35 = EDGE_CURVE ( 'NONE', #29, #28, #162, .T. ) ;
#36 = ORIENTED_EDGE ( 'NONE', *, *, #65, .F. ) ;
#37 = EDGE_CURVE ( 'NONE', #21, #22, #193, .T. ) ;
#38 = ORIENTED_EDGE ( 'NONE', *, *, #30, .F. ) ;
#39 = ORIENTED_EDGE ( 'NONE', *, *, #37, .F. ) ;
#40 = EDGE_LOOP ( 'NONE', ( #38, #334, #339, #357 ) ) ;
#41 = EDGE_LOOP ( 'NONE', ( #42, #2, #14, #16, #6 ) ) ;
#42 = ORIENTED_EDGE ( 'NONE', *, *, #11, .T. ) ;
#43 = EDGE_CURVE ( 'NONE', #15, #5, #172, .T. ) ;
#44 = VERTEX_POINT ( 'NONE', #167 ) ;
#45 = EDGE_CURVE ( 'NONE', #49, #56, #180, .T. ) ;
#46 = EDGE_CURVE ( 'NONE', #3, #44, #191, .T. ) ;
#47 = ORIENTED_EDGE ( 'NONE', *, *, #48, .T. ) ;
#48 = EDGE_CURVE ( 'NONE', #49, #50, #187, .T. ) ;
#49 = VERTEX_POINT ( 'NONE', #182 ) ;
#50 = VERTEX_POINT ( 'NONE', #181 ) ;
#51 = ORIENTED_EDGE ( 'NONE', *, *, #52, .T. ) ;
#52 = EDGE_CURVE ( 'NONE', #50, #53, #132, .T. ) ;
#53 = VERTEX_POINT ( 'NONE', #219 ) ;
#54 = ORIENTED_EDGE ( 'NONE', *, *, #55, .F. ) ;
#55 = EDGE_CURVE ( 'NONE', #56, #53, #226, .T. ) ;
#56 = VERTEX_POINT ( 'NONE', #211 ) ;
#57 = ORIENTED_EDGE ( 'NONE', *, *, #45, .F. ) ;
#58 = ADVANCED_FACE ( 'NONE', ( #227 ), #195, .F. ) ;
#59 = PERSON ( 'UNSPECIFIED', 'UNSPECIFIED', 'UNSPECIFIED', ('UNSPECIFIED'), ('UNSPECIFIED'), ('UNSPECIFIED') ) ;
#60 = PRODUCT ( '19-0408-45_outokumpu', '19-0408-45_outokumpu', '', ( #413 ) ) ;
#61 = EDGE_LOOP ( 'NONE', ( #36, #39, #34, #332, #349 ) ) ;
#62 = ORIENTED_EDGE ( 'NONE', *, *, #37, .T. ) ;
#63 = EDGE_LOOP ( 'NONE', ( #62, #343 ) ) ;
#64 = ORIENTED_EDGE ( 'NONE', *, *, #342, .F. ) ;
#65 = EDGE_CURVE ( 'NONE', #22, #5, #220, .T. ) ;
#66 = ADVANCED_FACE ( 'NONE', ( #215, #214 ), #213, .F. ) ;
#67 = ADVANCED_FACE ( 'NONE', ( #209 ), #205, .F. ) ;
#68 = EDGE_CURVE ( 'NONE', #21, #346, #199, .T. ) ;
#69 = ADVANCED_FACE ( 'NONE', ( #283 ), #297, .F. ) ;
#70 = ORIENTED_EDGE ( 'NONE', *, *, #355, .T. ) ;
#71 = ORIENTED_EDGE ( 'NONE', *, *, #72, .T. ) ;
#72 = EDGE_CURVE ( 'NONE', #44, #4, #298, .T. ) ;
#73 = ORIENTED_EDGE ( 'NONE', *, *, #35, .T. ) ;
#74 = ORIENTED_EDGE ( 'NONE', *, *, #358, .T. ) ;
#75 = ORIENTED_EDGE ( 'NONE', *, *, #13, .T. ) ;
#76 = ORIENTED_EDGE ( 'NONE', *, *, #46, .F. ) ;
#77 = EDGE_LOOP ( 'NONE', ( #78, #86, #70, #71 ) ) ;
#78 = ORIENTED_EDGE ( 'NONE', *, *, #352, .F. ) ;
#79 = EDGE_CURVE ( 'NONE', #53, #56, #231, .T. ) ;
#80 = ORIENTED_EDGE ( 'NONE', *, *, #92, .T. ) ;
#81 = ORIENTED_EDGE ( 'NONE', *, *, #72, .F. ) ;
#82 = ORIENTED_EDGE ( 'NONE', *, *, #342, .T. ) ;
#83 = ORIENTED_EDGE ( 'NONE', *, *, #348, .T. ) ;
#84 = ADVANCED_FACE ( 'NONE', ( #232 ), #280, .F. ) ;
#85 = ADVANCED_FACE ( 'NONE', ( #282 ), #329, .F. ) ;
#86 = ORIENTED_EDGE ( 'NONE', *, *, #92, .F. ) ;
#87 = EDGE_LOOP ( 'NONE', ( #76, #83, #82, #75, #81 ) ) ;
#88 = ADVANCED_FACE ( 'NONE', ( #296 ), #292, .F. ) ;
#89 = ORIENTED_EDGE ( 'NONE', *, *, #45, .T. ) ;
#90 = ORIENTED_EDGE ( 'NONE', *, *, #79, .F. ) ;
#91 = CLOSED_SHELL ( 'NONE', ( #12, #58, #25, #32, #67, #340, #84, #69, #335, #66, #85, #88 ) ) ;
#92 = EDGE_CURVE ( 'NONE', #50, #49, #303, .T. ) ;
#93 = DIRECTION ( 'NONE',  ( 0.0000000000000000000, 1.000000000000000000, 0.0000000000000000000 ) ) ;
#94 = DIRECTION ( 'NONE',  ( -0.7882917068561171600, 0.0000000000000000000, -0.6153017023394860000 ) ) ;
#95 = VECTOR ( 'NONE', #94, 1000.000000000000000 ) ;
#96 = EDGE_LOOP ( 'NONE', ( #97, #80, #89, #90 ) ) ;
#97 = ORIENTED_EDGE ( 'NONE', *, *, #52, .F. ) ;
#98 = EDGE_LOOP ( 'NONE', ( #99, #100 ) ) ;
#99 = ORIENTED_EDGE ( 'NONE', *, *, #55, .T. ) ;
#100 = ORIENTED_EDGE ( 'NONE', *, *, #79, .T. ) ;
#101 = FACE_OUTER_BOUND ( 'NONE', #1, .T. ) ;
#102 = CARTESIAN_POINT ( 'NONE',  ( 12.05849999999998600, 1.547841200913792900E-015, -102.9999999999999900 ) ) ;
#103 = CIRCLE ( 'NONE', #109, 12.05849999999998600 ) ;
#104 = CARTESIAN_POINT ( 'NONE',  ( 1.476691571756713000E-015, -12.05849999999998600, -102.9999999999999900 ) ) ;
#105 = CARTESIAN_POINT ( 'NONE',  ( -13.22049999999999900, 1.618990830070873800E-015, -103.9069999999999700 ) ) ;
#106 = CARTESIAN_POINT ( 'NONE',  ( 16.30000000000000100, 0.0000000000000000000, -120.0000000000000000 ) ) ;
#107 = CARTESIAN_POINT ( 'NONE',  ( -16.30000000000000100, 1.996108356730475200E-015, -120.0000000000000000 ) ) ;
#108 = CARTESIAN_POINT ( 'NONE',  ( 0.0000000000000000000, 0.0000000000000000000, -102.9999999999999900 ) ) ;
#109 = AXIS2_PLACEMENT_3D ( 'NONE', #108, #118, #117 ) ;
#110 = CARTESIAN_POINT ( 'NONE',  ( -13.22049999999999900, 0.0000000000000000000, -103.9069999999999700 ) ) ;
#111 = LINE ( 'NONE', #110, #95 ) ;
#112 = DIRECTION ( 'NONE',  ( -1.000000000000000000, 0.0000000000000000000, 0.0000000000000000000 ) ) ;
#113 = DIRECTION ( 'NONE',  ( 0.0000000000000000000, 0.0000000000000000000, -1.000000000000000000 ) ) ;
#114 = AXIS2_PLACEMENT_3D ( 'NONE', #116, #113, #112 ) ;
#115 = CONICAL_SURFACE ( 'NONE', #114, 13.68217003306558200, 0.7853981633974708200 ) ;
#116 = CARTESIAN_POINT ( 'NONE',  ( 0.0000000000000000000, 0.0000000000000000000, -120.0000000000000000 ) ) ;
#117 = DIRECTION ( 'NONE',  ( 1.000000000000000000, 0.0000000000000000000, 0.0000000000000000000 ) ) ;
#118 = DIRECTION ( 'NONE',  ( -0.0000000000000000000, -0.0000000000000000000, 1.000000000000000000 ) ) ;
#119 = APPROVAL_PERSON_ORGANIZATION ( #260, #258, #257 ) ;
#120 = CARTESIAN_POINT ( 'NONE',  ( -12.05849999999998600, 0.0000000000000000000, -102.9999999999999900 ) ) ;
#121 = DIRECTION ( 'NONE',  ( -0.0000000000000000000, -0.0000000000000000000, 1.000000000000000000 ) ) ;
#122 = CIRCLE ( 'NONE', #140, 13.22049999999999900 ) ;
#123 = CARTESIAN_POINT ( 'NONE',  ( 0.0000000000000000000, 0.0000000000000000000, -120.0000000000000000 ) ) ;
#124 = AXIS2_PLACEMENT_3D ( 'NONE', #123, #139, #138 ) ;
#125 = CIRCLE ( 'NONE', #124, 16.30000000000000100 ) ;
#126 = DIRECTION ( 'NONE',  ( 1.000000000000000000, 0.0000000000000000000, 0.0000000000000000000 ) ) ;
#127 = DIRECTION ( 'NONE',  ( 1.000000000000000000, 0.0000000000000000000, 0.0000000000000000000 ) ) ;
#128 = DIRECTION ( 'NONE',  ( -0.0000000000000000000, -0.0000000000000000000, 1.000000000000000000 ) ) ;
#129 = CARTESIAN_POINT ( 'NONE',  ( 0.0000000000000000000, 0.0000000000000000000, -4.336808689942017700E-016 ) ) ;
#130 = VECTOR ( 'NONE', #153, 1000.000000000000000 ) ;
#131 = CARTESIAN_POINT ( 'NONE',  ( 13.68217003306558200, 1.675527235657023600E-015, -120.0000000000000000 ) ) ;
#132 = LINE ( 'NONE', #131, #130 ) ;
#133 = AXIS2_PLACEMENT_3D ( 'NONE', #129, #128, #127 ) ;
#134 = CYLINDRICAL_SURFACE ( 'NONE', #133, 16.30000000000000100 ) ;
#135 = FACE_OUTER_BOUND ( 'NONE', #19, .T. ) ;
#136 = CARTESIAN_POINT ( 'NONE',  ( 1.476691571756713400E-015, -12.05849999999999300, -4.716977458137601800E-016 ) ) ;
#137 = CARTESIAN_POINT ( 'NONE',  ( 0.0000000000000000000, 12.05849999999998600, 4.716977458137601800E-016 ) ) ;
#138 = DIRECTION ( 'NONE',  ( 1.000000000000000000, 0.0000000000000000000, 0.0000000000000000000 ) ) ;
#139 = DIRECTION ( 'NONE',  ( -0.0000000000000000000, -0.0000000000000000000, 1.000000000000000000 ) ) ;
#140 = AXIS2_PLACEMENT_3D ( 'NONE', #141, #121, #126 ) ;
#141 = CARTESIAN_POINT ( 'NONE',  ( 0.0000000000000000000, 0.0000000000000000000, -103.9069999999999700 ) ) ;
#142 = DIRECTION ( 'NONE',  ( -0.0000000000000000000, 3.911744792584156800E-017, -1.000000000000000000 ) ) ;
#143 = CARTESIAN_POINT ( 'NONE',  ( 0.0000000000000000000, -3.469446951953614200E-015, 0.0000000000000000000 ) ) ;
#144 = AXIS2_PLACEMENT_3D ( 'NONE', #143, #142, #149 ) ;
#145 = DIRECTION ( 'NONE',  ( -0.0000000000000000000, -0.0000000000000000000, 1.000000000000000000 ) ) ;
#146 = CARTESIAN_POINT ( 'NONE',  ( -16.30000000000000100, 1.996108356730475200E-015, -4.336808689942017700E-016 ) ) ;
#147 = LINE ( 'NONE', #146, #156 ) ;
#148 = CARTESIAN_POINT ( 'NONE',  ( 16.30000000000000100, 0.0000000000000000000, 0.0000000000000000000 ) ) ;
#149 = DIRECTION ( 'NONE',  ( 0.0000000000000000000, 1.000000000000000000, 3.911744792584157400E-017 ) ) ;
#150 = DIRECTION ( 'NONE',  ( -0.0000000000000000000, 3.911744792584156800E-017, -1.000000000000000000 ) ) ;
#151 = CARTESIAN_POINT ( 'NONE',  ( 0.0000000000000000000, 1.224646799147375100E-015, -120.0000000000000400 ) ) ;
#152 = AXIS2_PLACEMENT_3D ( 'NONE', #151, #150, #93 ) ;
#153 = DIRECTION ( 'NONE',  ( 0.7071067811865634500, 8.659274570719550200E-017, -0.7071067811865315900 ) ) ;
#154 = CYLINDRICAL_SURFACE ( 'NONE', #152, 12.05850000000000400 ) ;
#155 = FACE_OUTER_BOUND ( 'NONE', #24, .T. ) ;
#156 = VECTOR ( 'NONE', #145, 1000.000000000000000 ) ;
#157 = CIRCLE ( 'NONE', #144, 12.05849999999999000 ) ;
#158 = CARTESIAN_POINT ( 'NONE',  ( -16.30000000000000100, 1.996108356730475200E-015, 0.0000000000000000000 ) ) ;
#159 = CARTESIAN_POINT ( 'NONE',  ( 0.0000000000000000000, 0.0000000000000000000, 0.0000000000000000000 ) ) ;
#160 = DIRECTION ( 'NONE',  ( -0.0000000000000000000, -0.0000000000000000000, 1.000000000000000000 ) ) ;
#161 = VECTOR ( 'NONE', #166, 1000.000000000000000 ) ;
#162 = CIRCLE ( 'NONE', #173, 16.30000000000000100 ) ;
#163 = DIRECTION ( 'NONE',  ( 0.0000000000000000000, 1.000000000000000000, 3.911744792584157400E-017 ) ) ;
#164 = CARTESIAN_POINT ( 'NONE',  ( 16.30000000000000100, 0.0000000000000000000, -4.336808689942017700E-016 ) ) ;
#165 = LINE ( 'NONE', #164, #161 ) ;
#166 = DIRECTION ( 'NONE',  ( -0.0000000000000000000, -0.0000000000000000000, 1.000000000000000000 ) ) ;
#167 = CARTESIAN_POINT ( 'NONE',  ( 13.22049999999999900, 0.0000000000000000000, -103.9069999999999700 ) ) ;
#168 = DIRECTION ( 'NONE',  ( 1.000000000000000000, 0.0000000000000000000, 0.0000000000000000000 ) ) ;
#169 = DIRECTION ( 'NONE',  ( -0.0000000000000000000, -0.0000000000000000000, 1.000000000000000000 ) ) ;
#170 = CARTESIAN_POINT ( 'NONE',  ( 0.0000000000000000000, 0.0000000000000000000, -102.9999999999999900 ) ) ;
#171 = AXIS2_PLACEMENT_3D ( 'NONE', #170, #169, #168 ) ;
#172 = CIRCLE ( 'NONE', #171, 12.05849999999998600 ) ;
#173 = AXIS2_PLACEMENT_3D ( 'NONE', #159, #160, #192 ) ;
#174 = DIRECTION ( 'NONE',  ( -0.0000000000000000000, 3.911744792584156800E-017, -1.000000000000000000 ) ) ;
#175 = CARTESIAN_POINT ( 'NONE',  ( 0.0000000000000000000, -3.469446951953614200E-015, 0.0000000000000000000 ) ) ;
#176 = AXIS2_PLACEMENT_3D ( 'NONE', #175, #174, #163 ) ;
#177 = DIRECTION ( 'NONE',  ( -0.7071067811865634500, 0.0000000000000000000, -0.7071067811865315900 ) ) ;
#178 = VECTOR ( 'NONE', #177, 1000.000000000000000 ) ;
#179 = CARTESIAN_POINT ( 'NONE',  ( -13.68217003306558200, 0.0000000000000000000, -120.0000000000000000 ) ) ;
#180 = LINE ( 'NONE', #179, #178 ) ;
#181 = CARTESIAN_POINT ( 'NONE',  ( 13.22049999999999900, 0.0000000000000000000, -119.5383299669344400 ) ) ;
#182 = CARTESIAN_POINT ( 'NONE',  ( -13.22049999999999900, 1.618990830070873800E-015, -119.5383299669344400 ) ) ;
#183 = DIRECTION ( 'NONE',  ( 1.000000000000000000, 0.0000000000000000000, 0.0000000000000000000 ) ) ;
#184 = DIRECTION ( 'NONE',  ( -0.0000000000000000000, -0.0000000000000000000, 1.000000000000000000 ) ) ;
#185 = CARTESIAN_POINT ( 'NONE',  ( 0.0000000000000000000, 0.0000000000000000000, -119.5383299669344400 ) ) ;
#186 = AXIS2_PLACEMENT_3D ( 'NONE', #185, #184, #183 ) ;
#187 = CIRCLE ( 'NONE', #186, 13.22049999999999900 ) ;
#188 = DIRECTION ( 'NONE',  ( 0.7882917068561171600, 9.653470328814879000E-017, -0.6153017023394860000 ) ) ;
#189 = VECTOR ( 'NONE', #188, 1000.000000000000000 ) ;
#190 = CARTESIAN_POINT ( 'NONE',  ( 13.22049999999999900, 1.618990830070873800E-015, -103.9069999999999700 ) ) ;
#191 = LINE ( 'NONE', #190, #189 ) ;
#192 = DIRECTION ( 'NONE',  ( 1.000000000000000000, 0.0000000000000000000, 0.0000000000000000000 ) ) ;
#193 = CIRCLE ( 'NONE', #176, 12.05849999999999000 ) ;
#194 = CARTESIAN_POINT ( 'NONE',  ( 0.0000000000000000000, 0.0000000000000000000, -120.0000000000000000 ) ) ;
#195 = CONICAL_SURFACE ( 'NONE', #223, 13.22049999999999900, 0.9080276881268852800 ) ;
#196 = DIRECTION ( 'NONE',  ( -0.0000000000000000000, 3.911744792584156800E-017, -1.000000000000000000 ) ) ;
#197 = VECTOR ( 'NONE', #196, 1000.000000000000000 ) ;
#198 = CARTESIAN_POINT ( 'NONE',  ( 0.0000000000000000000, 12.05850000000000600, -120.0000000000000400 ) ) ;
#199 = LINE ( 'NONE', #198, #197 ) ;
#200 = COORDINATED_UNIVERSAL_TIME_OFFSET ( 1, 0, .AHEAD. ) ;
#201 = DIRECTION ( 'NONE',  ( 1.000000000000000000, 0.0000000000000000000, 0.0000000000000000000 ) ) ;
#202 = DIRECTION ( 'NONE',  ( -0.0000000000000000000, -0.0000000000000000000, 1.000000000000000000 ) ) ;
#203 = CARTESIAN_POINT ( 'NONE',  ( 0.0000000000000000000, 0.0000000000000000000, -4.336808689942017700E-016 ) ) ;
#204 = AXIS2_PLACEMENT_3D ( 'NONE', #203, #202, #201 ) ;
#205 = CYLINDRICAL_SURFACE ( 'NONE', #204, 13.22049999999999900 ) ;
#206 = DIRECTION ( 'NONE',  ( -1.000000000000000000, 0.0000000000000000000, -0.0000000000000000000 ) ) ;
#207 = DIRECTION ( 'NONE',  ( 0.0000000000000000000, 0.0000000000000000000, -1.000000000000000000 ) ) ;
#208 = CARTESIAN_POINT ( 'NONE',  ( 0.0000000000000000000, 16.30000000000000100, -2.168404344971008900E-016 ) ) ;
#209 = FACE_OUTER_BOUND ( 'NONE', #345, .T. ) ;
#210 = CARTESIAN_POINT ( 'NONE',  ( 0.0000000000000000000, 0.0000000000000000000, -103.9069999999999700 ) ) ;
#211 = CARTESIAN_POINT ( 'NONE',  ( -13.68217003306558200, 0.0000000000000000000, -120.0000000000000000 ) ) ;
#212 = AXIS2_PLACEMENT_3D ( 'NONE', #208, #207, #206 ) ;
#213 = PLANE ( 'NONE',  #212 ) ;
#214 = FACE_OUTER_BOUND ( 'NONE', #344, .T. ) ;
#215 = FACE_BOUND ( 'NONE', #63, .T. ) ;
#216 = DIRECTION ( 'NONE',  ( -0.0000000000000000000, 3.911744792584156800E-017, -1.000000000000000000 ) ) ;
#217 = AXIS2_PLACEMENT_3D ( 'NONE', #194, #228, #218 ) ;
#218 = DIRECTION ( 'NONE',  ( 1.000000000000000000, 0.0000000000000000000, 0.0000000000000000000 ) ) ;
#219 = CARTESIAN_POINT ( 'NONE',  ( 13.68217003306558200, 1.675527235657023600E-015, -120.0000000000000000 ) ) ;
#220 = LINE ( 'NONE', #225, #224 ) ;
#221 = DIRECTION ( 'NONE',  ( -1.000000000000000000, 0.0000000000000000000, 0.0000000000000000000 ) ) ;
#222 = DIRECTION ( 'NONE',  ( 0.0000000000000000000, 0.0000000000000000000, -1.000000000000000000 ) ) ;
#223 = AXIS2_PLACEMENT_3D ( 'NONE', #210, #222, #221 ) ;
#224 = VECTOR ( 'NONE', #216, 1000.000000000000000 ) ;
#225 = CARTESIAN_POINT ( 'NONE',  ( 1.476691571756714000E-015, -12.05850000000000200, -120.0000000000000400 ) ) ;
#226 = CIRCLE ( 'NONE', #217, 13.68217003306558200 ) ;
#227 = FACE_OUTER_BOUND ( 'NONE', #41, .T. ) ;
#228 = DIRECTION ( 'NONE',  ( -0.0000000000000000000, -0.0000000000000000000, 1.000000000000000000 ) ) ;
#229 = CARTESIAN_POINT ( 'NONE',  ( 0.0000000000000000000, 0.0000000000000000000, -120.0000000000000000 ) ) ;
#230 = AXIS2_PLACEMENT_3D ( 'NONE', #229, #290, #289 ) ;
#231 = CIRCLE ( 'NONE', #230, 13.68217003306558200 ) ;
#232 = FACE_OUTER_BOUND ( 'NONE', #77, .T. ) ;
#233 = DIRECTION ( 'NONE',  ( 1.000000000000000000, 0.0000000000000000000, 0.0000000000000000000 ) ) ;
#234 = DIRECTION ( 'NONE',  ( -0.0000000000000000000, -0.0000000000000000000, 1.000000000000000000 ) ) ;
#235 = CARTESIAN_POINT ( 'NONE',  ( 0.0000000000000000000, 0.0000000000000000000, -103.9069999999999700 ) ) ;
#236 = DIRECTION ( 'NONE',  ( 1.000000000000000000, 0.0000000000000000000, 0.0000000000000000000 ) ) ;
#237 = DIRECTION ( 'NONE',  ( -0.0000000000000000000, -0.0000000000000000000, 1.000000000000000000 ) ) ;
#238 = CARTESIAN_POINT ( 'NONE',  ( 0.0000000000000000000, 0.0000000000000000000, 0.0000000000000000000 ) ) ;
#239 = AXIS2_PLACEMENT_3D ( 'NONE', #238, #237, #236 ) ;
#240 = CIRCLE ( 'NONE', #239, 16.30000000000000100 ) ;
#241 = DIRECTION ( 'NONE',  ( -0.0000000000000000000, -0.0000000000000000000, 1.000000000000000000 ) ) ;
#242 = VECTOR ( 'NONE', #241, 1000.000000000000000 ) ;
#243 = CARTESIAN_POINT ( 'NONE',  ( 13.22049999999999900, 0.0000000000000000000, -4.336808689942017700E-016 ) ) ;
#244 = LINE ( 'NONE', #243, #242 ) ;
#245 = DIRECTION ( 'NONE',  ( -0.0000000000000000000, -0.0000000000000000000, 1.000000000000000000 ) ) ;
#246 = VECTOR ( 'NONE', #245, 1000.000000000000000 ) ;
#247 = CARTESIAN_POINT ( 'NONE',  ( -13.22049999999999900, 1.618990830070873800E-015, -4.336808689942017700E-016 ) ) ;
#248 = LINE ( 'NONE', #247, #246 ) ;
#249 = DIRECTION ( 'NONE',  ( 1.000000000000000000, 0.0000000000000000000, 0.0000000000000000000 ) ) ;
#250 = DIRECTION ( 'NONE',  ( -0.0000000000000000000, -0.0000000000000000000, 1.000000000000000000 ) ) ;
#251 = CARTESIAN_POINT ( 'NONE',  ( 0.0000000000000000000, 0.0000000000000000000, -102.9999999999999900 ) ) ;
#252 = AXIS2_PLACEMENT_3D ( 'NONE', #251, #250, #249 ) ;
#253 = CIRCLE ( 'NONE', #252, 12.05849999999998600 ) ;
#254 = CARTESIAN_POINT ( 'NONE',  ( 0.0000000000000000000, 12.05849999999998600, -102.9999999999999900 ) ) ;
#255 = DIRECTION ( 'NONE',  ( 1.000000000000000000, 0.0000000000000000000, 0.0000000000000000000 ) ) ;
#256 = DIRECTION ( 'NONE',  ( -0.0000000000000000000, -0.0000000000000000000, 1.000000000000000000 ) ) ;
#257 = APPROVAL_ROLE ( '' ) ;
#258 = APPROVAL ( #259, 'UNSPECIFIED' ) ;
#259 = APPROVAL_STATUS ( 'not_yet_approved' ) ;
#260 = PERSON_AND_ORGANIZATION ( #59, #267 ) ;
#261 = PRODUCT_DEFINITION ( 'UNKNOWN', '', #392, #262 ) ;
#262 = DESIGN_CONTEXT ( 'detailed design', #264, 'design' ) ;
#263 = APPLICATION_PROTOCOL_DEFINITION ( 'international standard', 'config_control_design', 1994, #264 ) ;
#264 = APPLICATION_CONTEXT ( 'configuration controlled 3d designs of mechanical parts and assemblies' ) ;
#265 = CC_DESIGN_PERSON_AND_ORGANIZATION_ASSIGNMENT ( #272, #266, ( #60 ) ) ;
#266 = PERSON_AND_ORGANIZATION_ROLE ( 'design_owner' ) ;
#267 = ORGANIZATION ( 'UNSPECIFIED', 'UNSPECIFIED', '' ) ;
#268 = CARTESIAN_POINT ( 'NONE',  ( 0.0000000000000000000, 0.0000000000000000000, 0.0000000000000000000 ) ) ;
#269 = AXIS2_PLACEMENT_3D ( 'NONE', #268, #271, #270 ) ;
#270 = DIRECTION ( 'NONE',  ( 1.000000000000000000, 0.0000000000000000000, 0.0000000000000000000 ) ) ;
#271 = DIRECTION ( 'NONE',  ( 0.0000000000000000000, 0.0000000000000000000, 1.000000000000000000 ) ) ;
#272 = PERSON_AND_ORGANIZATION ( #59, #267 ) ;
#273 = ADVANCED_BREP_SHAPE_REPRESENTATION ( '19-0408-45_outokumpu', ( #10, #269 ), #274 ) ;
#274 =( GEOMETRIC_REPRESENTATION_CONTEXT ( 3 ) GLOBAL_UNCERTAINTY_ASSIGNED_CONTEXT ( ( #275 ) ) GLOBAL_UNIT_ASSIGNED_CONTEXT ( ( #278, #277, #276 ) ) REPRESENTATION_CONTEXT ( 'NONE', 'WORKASPACE' ) );
#275 = UNCERTAINTY_MEASURE_WITH_UNIT (LENGTH_MEASURE( 1.000000000000000100E-005 ), #278, 'distance_accuracy_value', 'NONE');
#276 =( NAMED_UNIT ( * ) SI_UNIT ( $, .STERADIAN. ) SOLID_ANGLE_UNIT ( ) );
#277 =( NAMED_UNIT ( * ) PLANE_ANGLE_UNIT ( ) SI_UNIT ( $, .RADIAN. ) );
#278 =( LENGTH_UNIT ( ) NAMED_UNIT ( * ) SI_UNIT ( .MILLI., .METRE. ) );
#279 = AXIS2_PLACEMENT_3D ( 'NONE', #288, #331, #330 ) ;
#280 = CYLINDRICAL_SURFACE ( 'NONE', #279, 13.22049999999999900 ) ;
#281 = CARTESIAN_POINT ( 'NONE',  ( 0.0000000000000000000, 0.0000000000000000000, -103.9069999999999700 ) ) ;
#282 = FACE_OUTER_BOUND ( 'NONE', #87, .T. ) ;
#283 = FACE_OUTER_BOUND ( 'NONE', #61, .T. ) ;
#284 = AXIS2_PLACEMENT_3D ( 'NONE', #286, #291, #287 ) ;
#285 = AXIS2_PLACEMENT_3D ( 'NONE', #235, #234, #233 ) ;
#286 = CARTESIAN_POINT ( 'NONE',  ( 0.0000000000000000000, 1.224646799147375100E-015, -120.0000000000000400 ) ) ;
#287 = DIRECTION ( 'NONE',  ( 0.0000000000000000000, 1.000000000000000000, 0.0000000000000000000 ) ) ;
#288 = CARTESIAN_POINT ( 'NONE',  ( 0.0000000000000000000, 0.0000000000000000000, -4.336808689942017700E-016 ) ) ;
#289 = DIRECTION ( 'NONE',  ( 1.000000000000000000, 0.0000000000000000000, 0.0000000000000000000 ) ) ;
#290 = DIRECTION ( 'NONE',  ( -0.0000000000000000000, -0.0000000000000000000, 1.000000000000000000 ) ) ;
#291 = DIRECTION ( 'NONE',  ( -0.0000000000000000000, 3.911744792584156800E-017, -1.000000000000000000 ) ) ;
#292 = CONICAL_SURFACE ( 'NONE', #293, 13.68217003306558200, 0.7853981633974708200 ) ;
#293 = AXIS2_PLACEMENT_3D ( 'NONE', #307, #306, #305 ) ;
#294 = DIRECTION ( 'NONE',  ( -1.000000000000000000, 0.0000000000000000000, 0.0000000000000000000 ) ) ;
#295 = DIRECTION ( 'NONE',  ( 0.0000000000000000000, 0.0000000000000000000, -1.000000000000000000 ) ) ;
#296 = FACE_OUTER_BOUND ( 'NONE', #96, .T. ) ;
#297 = CYLINDRICAL_SURFACE ( 'NONE', #284, 12.05850000000000400 ) ;
#298 = CIRCLE ( 'NONE', #285, 13.22049999999999900 ) ;
#299 = DIRECTION ( 'NONE',  ( 1.000000000000000000, 0.0000000000000000000, 0.0000000000000000000 ) ) ;
#300 = DIRECTION ( 'NONE',  ( -0.0000000000000000000, -0.0000000000000000000, 1.000000000000000000 ) ) ;
#301 = CARTESIAN_POINT ( 'NONE',  ( 0.0000000000000000000, 0.0000000000000000000, -119.5383299669344400 ) ) ;
#302 = AXIS2_PLACEMENT_3D ( 'NONE', #301, #300, #299 ) ;
#303 = CIRCLE ( 'NONE', #302, 13.22049999999999900 ) ;
#304 = FACE_OUTER_BOUND ( 'NONE', #40, .T. ) ;
#305 = DIRECTION ( 'NONE',  ( -1.000000000000000000, 0.0000000000000000000, 0.0000000000000000000 ) ) ;
#306 = DIRECTION ( 'NONE',  ( 0.0000000000000000000, 0.0000000000000000000, -1.000000000000000000 ) ) ;
#307 = CARTESIAN_POINT ( 'NONE',  ( 0.0000000000000000000, 0.0000000000000000000, -120.0000000000000000 ) ) ;
#308 = CARTESIAN_POINT ( 'NONE',  ( 0.0000000000000000000, 0.0000000000000000000, -102.9999999999999900 ) ) ;
#309 = AXIS2_PLACEMENT_3D ( 'NONE', #308, #256, #255 ) ;
#310 = CIRCLE ( 'NONE', #309, 12.05849999999998600 ) ;
#311 = DIRECTION ( 'NONE',  ( 1.000000000000000000, 0.0000000000000000000, 0.0000000000000000000 ) ) ;
#312 = DIRECTION ( 'NONE',  ( 0.0000000000000000000, -0.0000000000000000000, 1.000000000000000000 ) ) ;
#313 = AXIS2_PLACEMENT_3D ( 'NONE', #314, #312, #311 ) ;
#314 = CARTESIAN_POINT ( 'NONE',  ( 0.0000000000000000000, 16.30000000000000100, -120.0000000000000000 ) ) ;
#315 = PLANE ( 'NONE',  #313 ) ;
#316 = FACE_BOUND ( 'NONE', #98, .T. ) ;
#317 = FACE_OUTER_BOUND ( 'NONE', #338, .T. ) ;
#318 = DIRECTION ( 'NONE',  ( 1.000000000000000000, 0.0000000000000000000, 0.0000000000000000000 ) ) ;
#319 = DIRECTION ( 'NONE',  ( -0.0000000000000000000, -0.0000000000000000000, 1.000000000000000000 ) ) ;
#320 = CARTESIAN_POINT ( 'NONE',  ( 0.0000000000000000000, 0.0000000000000000000, -120.0000000000000000 ) ) ;
#321 = AXIS2_PLACEMENT_3D ( 'NONE', #320, #319, #318 ) ;
#322 = DIRECTION ( 'NONE',  ( 1.000000000000000000, 0.0000000000000000000, 0.0000000000000000000 ) ) ;
#323 = DIRECTION ( 'NONE',  ( -0.0000000000000000000, -0.0000000000000000000, 1.000000000000000000 ) ) ;
#324 = CARTESIAN_POINT ( 'NONE',  ( 0.0000000000000000000, 0.0000000000000000000, -4.336808689942017700E-016 ) ) ;
#325 = AXIS2_PLACEMENT_3D ( 'NONE', #324, #323, #322 ) ;
#326 = CIRCLE ( 'NONE', #321, 16.30000000000000100 ) ;
#327 = CYLINDRICAL_SURFACE ( 'NONE', #325, 16.30000000000000100 ) ;
#328 = AXIS2_PLACEMENT_3D ( 'NONE', #281, #295, #294 ) ;
#329 = CONICAL_SURFACE ( 'NONE', #328, 13.22049999999999900, 0.9080276881268852800 ) ;
#330 = DIRECTION ( 'NONE',  ( 1.000000000000000000, 0.0000000000000000000, 0.0000000000000000000 ) ) ;
#331 = DIRECTION ( 'NONE',  ( -0.0000000000000000000, -0.0000000000000000000, 1.000000000000000000 ) ) ;
#332 = ORIENTED_EDGE ( 'NONE', *, *, #348, .F. ) ;
#333 = ORIENTED_EDGE ( 'NONE', *, *, #48, .F. ) ;
#334 = ORIENTED_EDGE ( 'NONE', *, *, #336, .T. ) ;
#335 = ADVANCED_FACE ( 'NONE', ( #304 ), #327, .T. ) ;
#336 = EDGE_CURVE ( 'NONE', #7, #8, #326, .T. ) ;
#337 = ORIENTED_EDGE ( 'NONE', *, *, #336, .F. ) ;
#338 = EDGE_LOOP ( 'NONE', ( #341, #337 ) ) ;
#339 = ORIENTED_EDGE ( 'NONE', *, *, #33, .T. ) ;
#340 = ADVANCED_FACE ( 'NONE', ( #317, #316 ), #315, .F. ) ;
#341 = ORIENTED_EDGE ( 'NONE', *, *, #18, .F. ) ;
#342 = EDGE_CURVE ( 'NONE', #346, #15, #310, .T. ) ;
#343 = ORIENTED_EDGE ( 'NONE', *, *, #26, .T. ) ;
#344 = EDGE_LOOP ( 'NONE', ( #73, #74 ) ) ;
#345 = EDGE_LOOP ( 'NONE', ( #333, #351, #353, #354 ) ) ;
#346 = VERTEX_POINT ( 'NONE', #254 ) ;
#347 = ORIENTED_EDGE ( 'NONE', *, *, #43, .F. ) ;
#348 = EDGE_CURVE ( 'NONE', #3, #346, #253, .T. ) ;
#349 = ORIENTED_EDGE ( 'NONE', *, *, #11, .F. ) ;
#350 = ORIENTED_EDGE ( 'NONE', *, *, #68, .F. ) ;
#351 = ORIENTED_EDGE ( 'NONE', *, *, #352, .T. ) ;
#352 = EDGE_CURVE ( 'NONE', #49, #4, #248, .T. ) ;
#353 = ORIENTED_EDGE ( 'NONE', *, *, #17, .T. ) ;
#354 = ORIENTED_EDGE ( 'NONE', *, *, #355, .F. ) ;
#355 = EDGE_CURVE ( 'NONE', #50, #44, #244, .T. ) ;
#356 = ORIENTED_EDGE ( 'NONE', *, *, #65, .T. ) ;
#357 = ORIENTED_EDGE ( 'NONE', *, *, #358, .F. ) ;
#358 = EDGE_CURVE ( 'NONE', #28, #29, #240, .T. ) ;
#359 = APPROVAL_PERSON_ORGANIZATION ( #363, #361, #360 ) ;
#360 = APPROVAL_ROLE ( '' ) ;
#361 = APPROVAL ( #362, 'UNSPECIFIED' ) ;
#362 = APPROVAL_STATUS ( 'not_yet_approved' ) ;
#363 = PERSON_AND_ORGANIZATION ( #59, #267 ) ;
#364 = CC_DESIGN_DATE_AND_TIME_ASSIGNMENT ( #366, #365, ( #373 ) ) ;
#365 = DATE_TIME_ROLE ( 'classification_date' ) ;
#366 = DATE_AND_TIME ( #367, #368 ) ;
#367 = CALENDAR_DATE ( 2015, 11, 8 ) ;
#368 = LOCAL_TIME ( 11, 40, 33.00000000000000000, #369 ) ;
#369 = COORDINATED_UNIVERSAL_TIME_OFFSET ( 1, 0, .AHEAD. ) ;
#370 = CC_DESIGN_PERSON_AND_ORGANIZATION_ASSIGNMENT ( #372, #371, ( #373 ) ) ;
#371 = PERSON_AND_ORGANIZATION_ROLE ( 'classification_officer' ) ;
#372 = PERSON_AND_ORGANIZATION ( #59, #267 ) ;
#373 = SECURITY_CLASSIFICATION ( '', '', #374 ) ;
#374 = SECURITY_CLASSIFICATION_LEVEL ( 'unclassified' ) ;
#375 = CC_DESIGN_PERSON_AND_ORGANIZATION_ASSIGNMENT ( #377, #376, ( #392 ) ) ;
#376 = PERSON_AND_ORGANIZATION_ROLE ( 'design_supplier' ) ;
#377 = PERSON_AND_ORGANIZATION ( #59, #267 ) ;
#378 = CC_DESIGN_PERSON_AND_ORGANIZATION_ASSIGNMENT ( #380, #379, ( #392 ) ) ;
#379 = PERSON_AND_ORGANIZATION_ROLE ( 'creator' ) ;
#380 = PERSON_AND_ORGANIZATION ( #59, #267 ) ;
#381 = CC_DESIGN_APPROVAL ( #389, ( #392 ) ) ;
#382 = APPROVAL_DATE_TIME ( #383, #389 ) ;
#383 = DATE_AND_TIME ( #384, #385 ) ;
#384 = CALENDAR_DATE ( 2015, 11, 8 ) ;
#385 = LOCAL_TIME ( 11, 40, 33.00000000000000000, #386 ) ;
#386 = COORDINATED_UNIVERSAL_TIME_OFFSET ( 1, 0, .AHEAD. ) ;
#387 = APPROVAL_PERSON_ORGANIZATION ( #391, #389, #388 ) ;
#388 = APPROVAL_ROLE ( '' ) ;
#389 = APPROVAL ( #390, 'UNSPECIFIED' ) ;
#390 = APPROVAL_STATUS ( 'not_yet_approved' ) ;
#391 = PERSON_AND_ORGANIZATION ( #59, #267 ) ;
#392 = PRODUCT_DEFINITION_FORMATION_WITH_SPECIFIED_SOURCE ( 'ANY', '', #60, .NOT_KNOWN. ) ;
#393 = SHAPE_DEFINITION_REPRESENTATION ( #403, #273 ) ;
#394 = CC_DESIGN_DATE_AND_TIME_ASSIGNMENT ( #396, #395, ( #261 ) ) ;
#395 = DATE_TIME_ROLE ( 'creation_date' ) ;
#396 = DATE_AND_TIME ( #397, #398 ) ;
#397 = CALENDAR_DATE ( 2015, 11, 8 ) ;
#398 = LOCAL_TIME ( 11, 40, 33.00000000000000000, #399 ) ;
#399 = COORDINATED_UNIVERSAL_TIME_OFFSET ( 1, 0, .AHEAD. ) ;
#400 = CC_DESIGN_PERSON_AND_ORGANIZATION_ASSIGNMENT ( #402, #401, ( #261 ) ) ;
#401 = PERSON_AND_ORGANIZATION_ROLE ( 'creator' ) ;
#402 = PERSON_AND_ORGANIZATION ( #59, #267 ) ;
#403 = PRODUCT_DEFINITION_SHAPE ( 'NONE', 'NONE',  #261 ) ;
#404 = PRODUCT_RELATED_PRODUCT_CATEGORY ( 'detail', '', ( #60 ) ) ;
#405 = CC_DESIGN_SECURITY_CLASSIFICATION ( #373, ( #392 ) ) ;
#406 = CC_DESIGN_APPROVAL ( #361, ( #373 ) ) ;
#407 = APPROVAL_DATE_TIME ( #408, #361 ) ;
#408 = DATE_AND_TIME ( #409, #410 ) ;
#409 = CALENDAR_DATE ( 2015, 11, 8 ) ;
#410 = LOCAL_TIME ( 11, 40, 33.00000000000000000, #411 ) ;
#411 = COORDINATED_UNIVERSAL_TIME_OFFSET ( 1, 0, .AHEAD. ) ;
#412 = APPLICATION_CONTEXT ( 'configuration controlled 3d designs of mechanical parts and assemblies' ) ;
#413 = MECHANICAL_CONTEXT ( 'NONE', #412, 'mechanical' ) ;
#414 = APPLICATION_PROTOCOL_DEFINITION ( 'international standard', 'config_control_design', 1994, #412 ) ;
#415 = LOCAL_TIME ( 11, 40, 33.00000000000000000, #200 ) ;
#416 = CALENDAR_DATE ( 2015, 11, 8 ) ;
#417 = APPROVAL_DATE_TIME ( #419, #258 ) ;
#418 = CC_DESIGN_APPROVAL ( #258, ( #261 ) ) ;
#419 = DATE_AND_TIME ( #416, #415 ) ;
ENDSEC;
END-ISO-10303-21;
