ISO-10303-21;
HEADER;
FILE_DESCRIPTION (( 'STEP AP203' ),
    '1' );
FILE_NAME ('3D_R152_DN88.9_17305255.STEP',
    '2024-08-13T07:49:17',
    ( '' ),
    ( '' ),
    'SwSTEP 2.0',
    'SolidWorks 2024',
    '' );
FILE_SCHEMA (( 'CONFIG_CONTROL_DESIGN' ));
ENDSEC;

DATA;
#1 = AXIS2_PLACEMENT_3D ( 'NONE', #29, #145, #124 ) ;
#2 = PERSON_AND_ORGANIZATION_ROLE ( 'creator' ) ;
#3 = EDGE_CURVE ( 'NONE', #106, #198, #56, .T. ) ;
#4 = PERSON_AND_ORGANIZATION ( #89, #140 ) ;
#5 = PRODUCT_DEFINITION_FORMATION_WITH_SPECIFIED_SOURCE ( 'ANY', '', #206, .NOT_KNOWN. ) ;
#6 = EDGE_CURVE ( 'NONE', #220, #26, #183, .T. ) ;
#7 = DIRECTION ( 'NONE',  ( 0.000000000000000000, 0.000000000000000000, 1.000000000000000000 ) ) ;
#8 = ORIENTED_EDGE ( 'NONE', *, *, #70, .T. ) ;
#9 = ORIENTED_EDGE ( 'NONE', *, *, #178, .F. ) ;
#10 = CC_DESIGN_PERSON_AND_ORGANIZATION_ASSIGNMENT ( #157, #84, ( #5 ) ) ;
#11 = CYLINDRICAL_SURFACE ( 'NONE', #44, 68.99999999999998579 ) ;
#12 = AXIS2_PLACEMENT_3D ( 'NONE', #72, #174, #79 ) ;
#13 = DIRECTION ( 'NONE',  ( 0.000000000000000000, 0.000000000000000000, 1.000000000000000000 ) ) ;
#14 = DIRECTION ( 'NONE',  ( 0.000000000000000000, 0.000000000000000000, -1.000000000000000000 ) ) ;
#15 = CARTESIAN_POINT ( 'NONE',  ( 0.000000000000000000, 10.00000000000000000, -158.4000000000000057 ) ) ;
#16 = FACE_OUTER_BOUND ( 'NONE', #65, .T. ) ;
#17 = VECTOR ( 'NONE', #36, 1000.000000000000000 ) ;
#18 = CARTESIAN_POINT ( 'NONE',  ( 0.000000000000000000, 10.00000000000000000, -68.99999999999998579 ) ) ;
#19 = APPROVAL_ROLE ( '' ) ;
#20 = DIRECTION ( 'NONE',  ( 1.000000000000000000, 0.000000000000000000, 0.000000000000000000 ) ) ;
#21 = DATE_TIME_ROLE ( 'creation_date' ) ;
#22 = CC_DESIGN_PERSON_AND_ORGANIZATION_ASSIGNMENT ( #197, #2, ( #127 ) ) ;
#23 = DATE_AND_TIME ( #24, #60 ) ;
#24 = CALENDAR_DATE ( 2024, 13, 8 ) ;
#25 = ADVANCED_FACE ( 'NONE', ( #165, #47 ), #167, .T. ) ;
#26 = VERTEX_POINT ( 'NONE', #108 ) ;
#27 = EDGE_LOOP ( 'NONE', ( #180, #8 ) ) ;
#28 = EDGE_CURVE ( 'NONE', #33, #220, #92, .T. ) ;
#29 = CARTESIAN_POINT ( 'NONE',  ( 0.000000000000000000, 10.00000000000000000, 0.000000000000000000 ) ) ;
#30 = APPROVAL_PERSON_ORGANIZATION ( #234, #190, #194 ) ;
#31 = AXIS2_PLACEMENT_3D ( 'NONE', #54, #247, #52 ) ;
#32 = ORIENTED_EDGE ( 'NONE', *, *, #216, .F. ) ;
#33 = VERTEX_POINT ( 'NONE', #128 ) ;
#34 = CYLINDRICAL_SURFACE ( 'NONE', #69, 68.99999999999998579 ) ;
#35 = DIRECTION ( 'NONE',  ( 0.000000000000000000, 0.000000000000000000, -1.000000000000000000 ) ) ;
#36 = DIRECTION ( 'NONE',  ( -0.000000000000000000, -1.000000000000000000, -0.000000000000000000 ) ) ;
#37 = CARTESIAN_POINT ( 'NONE',  ( 1.939840529849407524E-14, 0.000000000000000000, 158.4000000000000057 ) ) ;
#38 = APPROVAL ( #142, 'UNSPECIFIED' ) ;
#39 = PERSON_AND_ORGANIZATION ( #89, #140 ) ;
#40 =( NAMED_UNIT ( * ) SI_UNIT ( $, .STERADIAN. ) SOLID_ANGLE_UNIT ( ) );
#41 = AXIS2_PLACEMENT_3D ( 'NONE', #186, #55, #14 ) ;
#42 = PERSON_AND_ORGANIZATION_ROLE ( 'classification_officer' ) ;
#43 = CARTESIAN_POINT ( 'NONE',  ( 0.000000000000000000, 0.000000000000000000, 0.000000000000000000 ) ) ;
#44 = AXIS2_PLACEMENT_3D ( 'NONE', #151, #205, #207 ) ;
#45 = ORIENTED_EDGE ( 'NONE', *, *, #160, .T. ) ;
#46 = EDGE_CURVE ( 'NONE', #33, #164, #202, .T. ) ;
#47 = FACE_BOUND ( 'NONE', #240, .T. ) ;
#48 = DIRECTION ( 'NONE',  ( 0.000000000000000000, 0.000000000000000000, 1.000000000000000000 ) ) ;
#49 = AXIS2_PLACEMENT_3D ( 'NONE', #43, #249, #20 ) ;
#50 = AXIS2_PLACEMENT_3D ( 'NONE', #209, #153, #13 ) ;
#51 = ORIENTED_EDGE ( 'NONE', *, *, #138, .T. ) ;
#52 = DIRECTION ( 'NONE',  ( 0.000000000000000000, 0.000000000000000000, 1.000000000000000000 ) ) ;
#53 = DIRECTION ( 'NONE',  ( 0.000000000000000000, 1.000000000000000000, 0.000000000000000000 ) ) ;
#54 = CARTESIAN_POINT ( 'NONE',  ( 0.000000000000000000, 10.00000000000000000, 0.000000000000000000 ) ) ;
#55 = DIRECTION ( 'NONE',  ( -0.000000000000000000, -1.000000000000000000, -0.000000000000000000 ) ) ;
#56 = CIRCLE ( 'NONE', #219, 158.4000000000000057 ) ;
#57 = CALENDAR_DATE ( 2024, 13, 8 ) ;
#58 = DATE_AND_TIME ( #82, #73 ) ;
#59 = DATE_TIME_ROLE ( 'classification_date' ) ;
#60 = LOCAL_TIME ( 9, 49, 17.00000000000000000, #81 ) ;
#61 = AXIS2_PLACEMENT_3D ( 'NONE', #171, #175, #35 ) ;
#62 = ADVANCED_FACE ( 'NONE', ( #184 ), #11, .F. ) ;
#63 = CC_DESIGN_DATE_AND_TIME_ASSIGNMENT ( #23, #21, ( #127 ) ) ;
#64 = CARTESIAN_POINT ( 'NONE',  ( 0.000000000000000000, 10.00000000000000000, 0.000000000000000000 ) ) ;
#65 = EDGE_LOOP ( 'NONE', ( #71, #51, #242, #86 ) ) ;
#66 = VERTEX_POINT ( 'NONE', #211 ) ;
#67 = SECURITY_CLASSIFICATION ( '', '', #158 ) ;
#68 = CARTESIAN_POINT ( 'NONE',  ( 8.450062914116734689E-15, 10.00000000000000000, 68.99999999999998579 ) ) ;
#69 = AXIS2_PLACEMENT_3D ( 'NONE', #226, #96, #76 ) ;
#70 = EDGE_CURVE ( 'NONE', #164, #26, #148, .T. ) ;
#71 = ORIENTED_EDGE ( 'NONE', *, *, #3, .F. ) ;
#72 = CARTESIAN_POINT ( 'NONE',  ( 0.000000000000000000, 0.000000000000000000, 0.000000000000000000 ) ) ;
#73 = LOCAL_TIME ( 9, 49, 17.00000000000000000, #237 ) ;
#74 = CARTESIAN_POINT ( 'NONE',  ( 0.000000000000000000, 10.00000000000000000, -158.4000000000000057 ) ) ;
#75 = ADVANCED_FACE ( 'NONE', ( #93 ), #34, .F. ) ;
#76 = DIRECTION ( 'NONE',  ( 0.000000000000000000, 0.000000000000000000, -1.000000000000000000 ) ) ;
#77 = CC_DESIGN_DATE_AND_TIME_ASSIGNMENT ( #58, #59, ( #67 ) ) ;
#78 = CARTESIAN_POINT ( 'NONE',  ( 0.000000000000000000, 0.000000000000000000, 0.000000000000000000 ) ) ;
#79 = DIRECTION ( 'NONE',  ( 0.000000000000000000, 0.000000000000000000, 1.000000000000000000 ) ) ;
#80 = CALENDAR_DATE ( 2024, 13, 8 ) ;
#81 = COORDINATED_UNIVERSAL_TIME_OFFSET ( 1, 0, .AHEAD. ) ;
#82 = CALENDAR_DATE ( 2024, 13, 8 ) ;
#83 = ADVANCED_FACE ( 'NONE', ( #227 ), #134, .T. ) ;
#84 = PERSON_AND_ORGANIZATION_ROLE ( 'creator' ) ;
#85 = ORIENTED_EDGE ( 'NONE', *, *, #6, .T. ) ;
#86 = ORIENTED_EDGE ( 'NONE', *, *, #160, .F. ) ;
#87 = DIRECTION ( 'NONE',  ( 0.000000000000000000, 1.000000000000000000, 0.000000000000000000 ) ) ;
#88 = EDGE_LOOP ( 'NONE', ( #224, #125 ) ) ;
#89 = PERSON ( 'UNSPECIFIED', 'UNSPECIFIED', 'UNSPECIFIED', ('UNSPECIFIED'), ('UNSPECIFIED'), ('UNSPECIFIED') ) ;
#90 = EDGE_CURVE ( 'NONE', #26, #164, #236, .T. ) ;
#91 = ORIENTED_EDGE ( 'NONE', *, *, #28, .T. ) ;
#92 = CIRCLE ( 'NONE', #123, 68.99999999999998579 ) ;
#93 = FACE_OUTER_BOUND ( 'NONE', #239, .T. ) ;
#94 = FACE_BOUND ( 'NONE', #27, .T. ) ;
#95 = LINE ( 'NONE', #133, #203 ) ;
#96 = DIRECTION ( 'NONE',  ( -0.000000000000000000, -1.000000000000000000, -0.000000000000000000 ) ) ;
#97 = ADVANCED_FACE ( 'NONE', ( #16 ), #228, .T. ) ;
#98 = APPROVAL_STATUS ( 'not_yet_approved' ) ;
#99 = PRODUCT_RELATED_PRODUCT_CATEGORY ( 'detail', '', ( #206 ) ) ;
#100 = PERSON_AND_ORGANIZATION ( #89, #140 ) ;
#101 = CC_DESIGN_PERSON_AND_ORGANIZATION_ASSIGNMENT ( #121, #214, ( #206 ) ) ;
#102 = SHAPE_DEFINITION_REPRESENTATION ( #208, #189 ) ;
#103 = VECTOR ( 'NONE', #147, 1000.000000000000000 ) ;
#104 = ORIENTED_EDGE ( 'NONE', *, *, #28, .F. ) ;
#105 = ORIENTED_EDGE ( 'NONE', *, *, #46, .F. ) ;
#106 = VERTEX_POINT ( 'NONE', #131 ) ;
#107 = EDGE_LOOP ( 'NONE', ( #241, #32 ) ) ;
#108 = CARTESIAN_POINT ( 'NONE',  ( 0.000000000000000000, 0.000000000000000000, -68.99999999999998579 ) ) ;
#109 =( LENGTH_UNIT ( ) NAMED_UNIT ( * ) SI_UNIT ( .MILLI., .METRE. ) );
#110 = VECTOR ( 'NONE', #199, 1000.000000000000000 ) ;
#111 = CARTESIAN_POINT ( 'NONE',  ( 0.000000000000000000, 0.000000000000000000, 0.000000000000000000 ) ) ;
#112 = DIRECTION ( 'NONE',  ( 0.000000000000000000, 1.000000000000000000, 0.000000000000000000 ) ) ;
#113 = CC_DESIGN_APPROVAL ( #38, ( #67 ) ) ;
#114 = DIRECTION ( 'NONE',  ( 0.000000000000000000, 0.000000000000000000, 1.000000000000000000 ) ) ;
#115 = CC_DESIGN_APPROVAL ( #190, ( #127 ) ) ;
#116 = DIRECTION ( 'NONE',  ( 0.000000000000000000, 0.000000000000000000, 1.000000000000000000 ) ) ;
#117 = AXIS2_PLACEMENT_3D ( 'NONE', #132, #112, #192 ) ;
#118 = PERSON_AND_ORGANIZATION ( #89, #140 ) ;
#119 = APPROVAL_DATE_TIME ( #193, #162 ) ;
#120 = APPLICATION_PROTOCOL_DEFINITION ( 'international standard', 'config_control_design', 1994, #215 ) ;
#121 = PERSON_AND_ORGANIZATION ( #89, #140 ) ;
#122 = COORDINATED_UNIVERSAL_TIME_OFFSET ( 1, 0, .AHEAD. ) ;
#123 = AXIS2_PLACEMENT_3D ( 'NONE', #150, #223, #48 ) ;
#124 = DIRECTION ( 'NONE',  ( 0.000000000000000000, -0.000000000000000000, 1.000000000000000000 ) ) ;
#125 = ORIENTED_EDGE ( 'NONE', *, *, #3, .T. ) ;
#126 = ORIENTED_EDGE ( 'NONE', *, *, #155, .T. ) ;
#127 = PRODUCT_DEFINITION ( 'UNKNOWN', '', #5, #163 ) ;
#128 = CARTESIAN_POINT ( 'NONE',  ( 8.450062914116734689E-15, 10.00000000000000000, 68.99999999999998579 ) ) ;
#129 = AXIS2_PLACEMENT_3D ( 'NONE', #170, #53, #116 ) ;
#130 = VERTEX_POINT ( 'NONE', #37 ) ;
#131 = CARTESIAN_POINT ( 'NONE',  ( 1.939840529849407524E-14, 10.00000000000000000, 158.4000000000000057 ) ) ;
#132 = CARTESIAN_POINT ( 'NONE',  ( 0.000000000000000000, 0.000000000000000000, 0.000000000000000000 ) ) ;
#133 = CARTESIAN_POINT ( 'NONE',  ( 1.939840529849407524E-14, 10.00000000000000000, 158.4000000000000057 ) ) ;
#134 = CYLINDRICAL_SURFACE ( 'NONE', #61, 158.4000000000000057 ) ;
#135 = LOCAL_TIME ( 9, 49, 17.00000000000000000, #213 ) ;
#136 = APPROVAL_ROLE ( '' ) ;
#137 = APPROVAL_DATE_TIME ( #139, #38 ) ;
#138 = EDGE_CURVE ( 'NONE', #106, #130, #95, .T. ) ;
#139 = DATE_AND_TIME ( #141, #232 ) ;
#140 = ORGANIZATION ( 'UNSPECIFIED', 'UNSPECIFIED', '' ) ;
#141 = CALENDAR_DATE ( 2024, 13, 8 ) ;
#142 = APPROVAL_STATUS ( 'not_yet_approved' ) ;
#143 = ORIENTED_EDGE ( 'NONE', *, *, #212, .F. ) ;
#144 = ORIENTED_EDGE ( 'NONE', *, *, #70, .F. ) ;
#145 = DIRECTION ( 'NONE',  ( 0.000000000000000000, 1.000000000000000000, 0.000000000000000000 ) ) ;
#146 = CC_DESIGN_SECURITY_CLASSIFICATION ( #67, ( #5 ) ) ;
#147 = DIRECTION ( 'NONE',  ( -0.000000000000000000, -1.000000000000000000, -0.000000000000000000 ) ) ;
#148 = CIRCLE ( 'NONE', #12, 68.99999999999998579 ) ;
#149 = AXIS2_PLACEMENT_3D ( 'NONE', #78, #172, #210 ) ;
#150 = CARTESIAN_POINT ( 'NONE',  ( 0.000000000000000000, 10.00000000000000000, 0.000000000000000000 ) ) ;
#151 = CARTESIAN_POINT ( 'NONE',  ( 0.000000000000000000, 10.00000000000000000, 0.000000000000000000 ) ) ;
#152 = APPLICATION_CONTEXT ( 'configuration controlled 3d designs of mechanical parts and assemblies' ) ;
#153 = DIRECTION ( 'NONE',  ( 0.000000000000000000, 1.000000000000000000, 0.000000000000000000 ) ) ;
#154 = AXIS2_PLACEMENT_3D ( 'NONE', #111, #248, #114 ) ;
#155 = EDGE_CURVE ( 'NONE', #66, #130, #225, .T. ) ;
#156 = COORDINATED_UNIVERSAL_TIME_OFFSET ( 1, 0, .AHEAD. ) ;
#157 = PERSON_AND_ORGANIZATION ( #89, #140 ) ;
#158 = SECURITY_CLASSIFICATION_LEVEL ( 'unclassified' ) ;
#159 = CIRCLE ( 'NONE', #50, 68.99999999999998579 ) ;
#160 = EDGE_CURVE ( 'NONE', #198, #66, #244, .T. ) ;
#161 = EDGE_LOOP ( 'NONE', ( #105, #91, #85, #144 ) ) ;
#162 = APPROVAL ( #177, 'UNSPECIFIED' ) ;
#163 = DESIGN_CONTEXT ( 'detailed design', #152, 'design' ) ;
#164 = VERTEX_POINT ( 'NONE', #188 ) ;
#165 = FACE_OUTER_BOUND ( 'NONE', #88, .T. ) ;
#166 = CC_DESIGN_PERSON_AND_ORGANIZATION_ASSIGNMENT ( #118, #231, ( #5 ) ) ;
#167 = PLANE ( 'NONE',  #1 ) ;
#168 = ORIENTED_EDGE ( 'NONE', *, *, #6, .F. ) ;
#169 = CLOSED_SHELL ( 'NONE', ( #75, #97, #25, #230, #83, #62 ) ) ;
#170 = CARTESIAN_POINT ( 'NONE',  ( 0.000000000000000000, 0.000000000000000000, 0.000000000000000000 ) ) ;
#171 = CARTESIAN_POINT ( 'NONE',  ( 0.000000000000000000, 10.00000000000000000, 0.000000000000000000 ) ) ;
#172 = DIRECTION ( 'NONE',  ( 0.000000000000000000, 1.000000000000000000, 0.000000000000000000 ) ) ;
#173 = APPROVAL_PERSON_ORGANIZATION ( #100, #162, #19 ) ;
#174 = DIRECTION ( 'NONE',  ( 0.000000000000000000, 1.000000000000000000, 0.000000000000000000 ) ) ;
#175 = DIRECTION ( 'NONE',  ( -0.000000000000000000, -1.000000000000000000, -0.000000000000000000 ) ) ;
#176 = APPROVAL_DATE_TIME ( #196, #190 ) ;
#177 = APPROVAL_STATUS ( 'not_yet_approved' ) ;
#178 = EDGE_CURVE ( 'NONE', #220, #33, #159, .T. ) ;
#179 =( GEOMETRIC_REPRESENTATION_CONTEXT ( 3 ) GLOBAL_UNCERTAINTY_ASSIGNED_CONTEXT ( ( #238 ) ) GLOBAL_UNIT_ASSIGNED_CONTEXT ( ( #109, #246, #40 ) ) REPRESENTATION_CONTEXT ( 'NONE', 'WORKASPACE' ) );
#180 = ORIENTED_EDGE ( 'NONE', *, *, #90, .T. ) ;
#181 = ORIENTED_EDGE ( 'NONE', *, *, #178, .T. ) ;
#182 = ORIENTED_EDGE ( 'NONE', *, *, #138, .F. ) ;
#183 = LINE ( 'NONE', #200, #110 ) ;
#184 = FACE_OUTER_BOUND ( 'NONE', #161, .T. ) ;
#185 = PLANE ( 'NONE',  #149 ) ;
#186 = CARTESIAN_POINT ( 'NONE',  ( 0.000000000000000000, 10.00000000000000000, 0.000000000000000000 ) ) ;
#187 = FACE_OUTER_BOUND ( 'NONE', #107, .T. ) ;
#188 = CARTESIAN_POINT ( 'NONE',  ( 8.450062914116734689E-15, 0.000000000000000000, 68.99999999999998579 ) ) ;
#189 = ADVANCED_BREP_SHAPE_REPRESENTATION ( '3D_R152_DN88.9_17305255', ( #233, #49 ), #179 ) ;
#190 = APPROVAL ( #98, 'UNSPECIFIED' ) ;
#191 = CIRCLE ( 'NONE', #117, 158.4000000000000057 ) ;
#192 = DIRECTION ( 'NONE',  ( 0.000000000000000000, 0.000000000000000000, 1.000000000000000000 ) ) ;
#193 = DATE_AND_TIME ( #80, #201 ) ;
#194 = APPROVAL_ROLE ( '' ) ;
#195 = APPLICATION_PROTOCOL_DEFINITION ( 'international standard', 'config_control_design', 1994, #152 ) ;
#196 = DATE_AND_TIME ( #57, #135 ) ;
#197 = PERSON_AND_ORGANIZATION ( #89, #140 ) ;
#198 = VERTEX_POINT ( 'NONE', #15 ) ;
#199 = DIRECTION ( 'NONE',  ( -0.000000000000000000, -1.000000000000000000, -0.000000000000000000 ) ) ;
#200 = CARTESIAN_POINT ( 'NONE',  ( 0.000000000000000000, 10.00000000000000000, -68.99999999999998579 ) ) ;
#201 = LOCAL_TIME ( 9, 49, 17.00000000000000000, #122 ) ;
#202 = LINE ( 'NONE', #68, #103 ) ;
#203 = VECTOR ( 'NONE', #245, 1000.000000000000000 ) ;
#204 = EDGE_LOOP ( 'NONE', ( #182, #143, #45, #126 ) ) ;
#205 = DIRECTION ( 'NONE',  ( -0.000000000000000000, -1.000000000000000000, -0.000000000000000000 ) ) ;
#206 = PRODUCT ( '3D_R152_DN88.9_17305255', '3D_R152_DN88.9_17305255', '', ( #218 ) ) ;
#207 = DIRECTION ( 'NONE',  ( 0.000000000000000000, 0.000000000000000000, -1.000000000000000000 ) ) ;
#208 = PRODUCT_DEFINITION_SHAPE ( 'NONE', 'NONE',  #127 ) ;
#209 = CARTESIAN_POINT ( 'NONE',  ( 0.000000000000000000, 10.00000000000000000, 0.000000000000000000 ) ) ;
#210 = DIRECTION ( 'NONE',  ( 0.000000000000000000, -0.000000000000000000, 1.000000000000000000 ) ) ;
#211 = CARTESIAN_POINT ( 'NONE',  ( 0.000000000000000000, 0.000000000000000000, -158.4000000000000057 ) ) ;
#212 = EDGE_CURVE ( 'NONE', #198, #106, #217, .T. ) ;
#213 = COORDINATED_UNIVERSAL_TIME_OFFSET ( 1, 0, .AHEAD. ) ;
#214 = PERSON_AND_ORGANIZATION_ROLE ( 'design_owner' ) ;
#215 = APPLICATION_CONTEXT ( 'configuration controlled 3d designs of mechanical parts and assemblies' ) ;
#216 = EDGE_CURVE ( 'NONE', #130, #66, #191, .T. ) ;
#217 = CIRCLE ( 'NONE', #31, 158.4000000000000057 ) ;
#218 = MECHANICAL_CONTEXT ( 'NONE', #215, 'mechanical' ) ;
#219 = AXIS2_PLACEMENT_3D ( 'NONE', #64, #87, #7 ) ;
#220 = VERTEX_POINT ( 'NONE', #18 ) ;
#221 = ORIENTED_EDGE ( 'NONE', *, *, #90, .F. ) ;
#222 = APPROVAL_PERSON_ORGANIZATION ( #39, #38, #136 ) ;
#223 = DIRECTION ( 'NONE',  ( 0.000000000000000000, 1.000000000000000000, 0.000000000000000000 ) ) ;
#224 = ORIENTED_EDGE ( 'NONE', *, *, #212, .T. ) ;
#225 = CIRCLE ( 'NONE', #129, 158.4000000000000057 ) ;
#226 = CARTESIAN_POINT ( 'NONE',  ( 0.000000000000000000, 10.00000000000000000, 0.000000000000000000 ) ) ;
#227 = FACE_OUTER_BOUND ( 'NONE', #204, .T. ) ;
#228 = CYLINDRICAL_SURFACE ( 'NONE', #41, 158.4000000000000057 ) ;
#229 = CC_DESIGN_PERSON_AND_ORGANIZATION_ASSIGNMENT ( #4, #42, ( #67 ) ) ;
#230 = ADVANCED_FACE ( 'NONE', ( #187, #94 ), #185, .F. ) ;
#231 = PERSON_AND_ORGANIZATION_ROLE ( 'design_supplier' ) ;
#232 = LOCAL_TIME ( 9, 49, 17.00000000000000000, #156 ) ;
#233 = MANIFOLD_SOLID_BREP ( 'Aufsatz-Linear austragen1', #169 ) ;
#234 = PERSON_AND_ORGANIZATION ( #89, #140 ) ;
#235 = CC_DESIGN_APPROVAL ( #162, ( #5 ) ) ;
#236 = CIRCLE ( 'NONE', #154, 68.99999999999998579 ) ;
#237 = COORDINATED_UNIVERSAL_TIME_OFFSET ( 1, 0, .AHEAD. ) ;
#238 = UNCERTAINTY_MEASURE_WITH_UNIT (LENGTH_MEASURE( 1.000000000000000082E-05 ), #109, 'distance_accuracy_value', 'NONE');
#239 = EDGE_LOOP ( 'NONE', ( #181, #243, #221, #168 ) ) ;
#240 = EDGE_LOOP ( 'NONE', ( #9, #104 ) ) ;
#241 = ORIENTED_EDGE ( 'NONE', *, *, #155, .F. ) ;
#242 = ORIENTED_EDGE ( 'NONE', *, *, #216, .T. ) ;
#243 = ORIENTED_EDGE ( 'NONE', *, *, #46, .T. ) ;
#244 = LINE ( 'NONE', #74, #17 ) ;
#245 = DIRECTION ( 'NONE',  ( -0.000000000000000000, -1.000000000000000000, -0.000000000000000000 ) ) ;
#246 =( NAMED_UNIT ( * ) PLANE_ANGLE_UNIT ( ) SI_UNIT ( $, .RADIAN. ) );
#247 = DIRECTION ( 'NONE',  ( 0.000000000000000000, 1.000000000000000000, 0.000000000000000000 ) ) ;
#248 = DIRECTION ( 'NONE',  ( 0.000000000000000000, 1.000000000000000000, 0.000000000000000000 ) ) ;
#249 = DIRECTION ( 'NONE',  ( 0.000000000000000000, 0.000000000000000000, 1.000000000000000000 ) ) ;
ENDSEC;
END-ISO-10303-21;
