ISO-10303-21;
HEADER;
FILE_DESCRIPTION (( 'STEP AP203' ),
    '1' );
FILE_NAME ('3D_R1655_21.3x2_17362105.STEP',
    '2024-08-05T08:32:42',
    ( '' ),
    ( '' ),
    'SwSTEP 2.0',
    'SolidWorks 2024',
    '' );
FILE_SCHEMA (( 'CONFIG_CONTROL_DESIGN' ));
ENDSEC;

DATA;
#1 = ADVANCED_FACE ( 'NONE', ( #249, #10 ), #39, .T. ) ;
#2 = AXIS2_PLACEMENT_3D ( 'NONE', #88, #196, #29 ) ;
#3 = CIRCLE ( 'NONE', #143, 10.65000000000000036 ) ;
#4 = ADVANCED_FACE ( 'NONE', ( #209 ), #99, .F. ) ;
#5 = MANIFOLD_SOLID_BREP ( 'Wandung1', #12 ) ;
#6 = PLANE ( 'NONE',  #113 ) ;
#7 = CARTESIAN_POINT ( 'NONE',  ( 0.000000000000000000, 0.000000000000000000, 0.000000000000000000 ) ) ;
#8 = VERTEX_POINT ( 'NONE', #66 ) ;
#9 = CARTESIAN_POINT ( 'NONE',  ( 0.000000000000000000, -1.304248841091931261E-15, 0.000000000000000000 ) ) ;
#10 = FACE_OUTER_BOUND ( 'NONE', #72, .T. ) ;
#11 = DIRECTION ( 'NONE',  ( -2.259334488757232034E-16, 0.000000000000000000, 1.000000000000000000 ) ) ;
#12 = CLOSED_SHELL ( 'NONE', ( #4, #35, #44, #1, #118, #101 ) ) ;
#13 = ORIENTED_EDGE ( 'NONE', *, *, #64, .F. ) ;
#14 = DIRECTION ( 'NONE',  ( -2.259334488757232034E-16, 0.000000000000000000, 1.000000000000000000 ) ) ;
#15 = EDGE_CURVE ( 'NONE', #185, #222, #150, .T. ) ;
#16 = DATE_TIME_ROLE ( 'creation_date' ) ;
#17 = TOROIDAL_SURFACE ( 'NONE', #141, 45.00000000000000000, 10.65000000000000036 ) ;
#18 = CALENDAR_DATE ( 2024, 5, 8 ) ;
#19 = ORGANIZATION ( 'UNSPECIFIED', 'UNSPECIFIED', '' ) ;
#20 =( GEOMETRIC_REPRESENTATION_CONTEXT ( 3 ) GLOBAL_UNCERTAINTY_ASSIGNED_CONTEXT ( ( #194 ) ) GLOBAL_UNIT_ASSIGNED_CONTEXT ( ( #149, #36, #41 ) ) REPRESENTATION_CONTEXT ( 'NONE', 'WORKASPACE' ) );
#21 = CARTESIAN_POINT ( 'NONE',  ( 0.000000000000000000, 0.000000000000000000, 0.000000000000000000 ) ) ;
#22 = DATE_AND_TIME ( #112, #28 ) ;
#23 = EDGE_CURVE ( 'NONE', #105, #147, #51, .T. ) ;
#24 = AXIS2_PLACEMENT_3D ( 'NONE', #220, #32, #48 ) ;
#25 = CARTESIAN_POINT ( 'NONE',  ( -1.579414882657212363E-13, 0.000000000000000000, -53.64999999999999858 ) ) ;
#26 = AXIS2_PLACEMENT_3D ( 'NONE', #7, #102, #83 ) ;
#27 = CARTESIAN_POINT ( 'NONE',  ( -1.657299742909483442E-13, 0.000000000000000000, -55.64999999999999858 ) ) ;
#28 = LOCAL_TIME ( 10, 32, 42.00000000000000000, #132 ) ;
#29 = DIRECTION ( 'NONE',  ( 2.943923360032083867E-15, 0.000000000000000000, 1.000000000000000000 ) ) ;
#30 = EDGE_CURVE ( 'NONE', #122, #222, #169, .T. ) ;
#31 = ORIENTED_EDGE ( 'NONE', *, *, #197, .F. ) ;
#32 = DIRECTION ( 'NONE',  ( -1.000000000000000000, 0.000000000000000000, 2.943923360032083078E-15 ) ) ;
#33 = ORIENTED_EDGE ( 'NONE', *, *, #197, .T. ) ;
#34 = ORIENTED_EDGE ( 'NONE', *, *, #78, .T. ) ;
#35 = ADVANCED_FACE ( 'NONE', ( #161 ), #17, .T. ) ;
#36 =( NAMED_UNIT ( * ) PLANE_ANGLE_UNIT ( ) SI_UNIT ( $, .RADIAN. ) );
#37 = ORIENTED_EDGE ( 'NONE', *, *, #137, .F. ) ;
#38 = DIRECTION ( 'NONE',  ( 1.000000000000000000, 0.000000000000000000, 0.000000000000000000 ) ) ;
#39 = PLANE ( 'NONE',  #211 ) ;
#40 = AXIS2_PLACEMENT_3D ( 'NONE', #177, #140, #106 ) ;
#41 =( NAMED_UNIT ( * ) SI_UNIT ( $, .STERADIAN. ) SOLID_ANGLE_UNIT ( ) );
#42 = CIRCLE ( 'NONE', #71, 10.65000000000000036 ) ;
#43 = APPLICATION_PROTOCOL_DEFINITION ( 'international standard', 'config_control_design', 1994, #87 ) ;
#44 = ADVANCED_FACE ( 'NONE', ( #124 ), #94, .T. ) ;
#45 = COORDINATED_UNIVERSAL_TIME_OFFSET ( 1, 0, .AHEAD. ) ;
#46 = AXIS2_PLACEMENT_3D ( 'NONE', #121, #11, #119 ) ;
#47 = DIRECTION ( 'NONE',  ( 0.000000000000000000, 0.000000000000000000, 1.000000000000000000 ) ) ;
#48 = DIRECTION ( 'NONE',  ( 2.943923360032083867E-15, 0.000000000000000000, 1.000000000000000000 ) ) ;
#49 = ORIENTED_EDGE ( 'NONE', *, *, #23, .T. ) ;
#50 = APPROVAL ( #60, 'UNSPECIFIED' ) ;
#51 = CIRCLE ( 'NONE', #2, 8.649999999999998579 ) ;
#52 = DIRECTION ( 'NONE',  ( -2.259334488757232034E-16, 0.000000000000000000, 1.000000000000000000 ) ) ;
#53 = ORIENTED_EDGE ( 'NONE', *, *, #173, .T. ) ;
#54 = SECURITY_CLASSIFICATION ( '', '', #206 ) ;
#55 = CARTESIAN_POINT ( 'NONE',  ( -45.00000000000000000, 0.000000000000000000, -8.266365894244658788E-15 ) ) ;
#56 = CIRCLE ( 'NONE', #63, 10.65000000000000036 ) ;
#57 = CARTESIAN_POINT ( 'NONE',  ( -1.030244067222649532E-13, 0.000000000000000000, -34.35000000000000142 ) ) ;
#58 = ORIENTED_EDGE ( 'NONE', *, *, #137, .T. ) ;
#59 = PERSON_AND_ORGANIZATION ( #135, #19 ) ;
#60 = APPROVAL_STATUS ( 'not_yet_approved' ) ;
#61 = PERSON_AND_ORGANIZATION ( #135, #19 ) ;
#62 = DIRECTION ( 'NONE',  ( 1.000000000000000000, 0.000000000000000000, 2.259334488757231541E-16 ) ) ;
#63 = AXIS2_PLACEMENT_3D ( 'NONE', #55, #103, #109 ) ;
#64 = EDGE_CURVE ( 'NONE', #105, #8, #69, .T. ) ;
#65 = APPLICATION_CONTEXT ( 'configuration controlled 3d designs of mechanical parts and assemblies' ) ;
#66 = CARTESIAN_POINT ( 'NONE',  ( -53.64999999999999858, 0.000000000000000000, -1.212132953218254953E-14 ) ) ;
#67 = CARTESIAN_POINT ( 'NONE',  ( 0.000000000000000000, 0.000000000000000000, 0.000000000000000000 ) ) ;
#68 = EDGE_LOOP ( 'NONE', ( #33, #49 ) ) ;
#69 = CIRCLE ( 'NONE', #212, 53.64999999999999858 ) ;
#70 = DIRECTION ( 'NONE',  ( 0.000000000000000000, 1.000000000000000000, 0.000000000000000000 ) ) ;
#71 = AXIS2_PLACEMENT_3D ( 'NONE', #142, #198, #204 ) ;
#72 = EDGE_LOOP ( 'NONE', ( #128, #146 ) ) ;
#73 = DIRECTION ( 'NONE',  ( 2.943923360032083078E-15, 0.000000000000000000, 1.000000000000000000 ) ) ;
#74 = ORIENTED_EDGE ( 'NONE', *, *, #114, .T. ) ;
#75 = CARTESIAN_POINT ( 'NONE',  ( -45.00000000000000000, 0.000000000000000000, -1.016700519940754376E-14 ) ) ;
#76 = EDGE_LOOP ( 'NONE', ( #207, #53, #74, #158 ) ) ;
#77 = PERSON_AND_ORGANIZATION ( #135, #19 ) ;
#78 = EDGE_CURVE ( 'NONE', #92, #122, #42, .T. ) ;
#79 = CC_DESIGN_APPROVAL ( #129, ( #54 ) ) ;
#80 = AXIS2_PLACEMENT_3D ( 'NONE', #181, #70, #144 ) ;
#81 = CARTESIAN_POINT ( 'NONE',  ( -1.343771905066066424E-13, 0.000000000000000000, -45.00000000000000000 ) ) ;
#82 = PRODUCT_RELATED_PRODUCT_CATEGORY ( 'detail', '', ( #175 ) ) ;
#83 = DIRECTION ( 'NONE',  ( 0.000000000000000000, 0.000000000000000000, 1.000000000000000000 ) ) ;
#84 = ORIENTED_EDGE ( 'NONE', *, *, #78, .F. ) ;
#85 = CARTESIAN_POINT ( 'NONE',  ( -1.343771905066066424E-13, 0.000000000000000000, -45.00000000000000000 ) ) ;
#86 = VERTEX_POINT ( 'NONE', #104 ) ;
#87 = APPLICATION_CONTEXT ( 'configuration controlled 3d designs of mechanical parts and assemblies' ) ;
#88 = CARTESIAN_POINT ( 'NONE',  ( -1.324765512014437259E-13, 0.000000000000000000, -45.00000000000000000 ) ) ;
#89 = ORIENTED_EDGE ( 'NONE', *, *, #15, .F. ) ;
#90 = DIRECTION ( 'NONE',  ( 0.000000000000000000, 0.000000000000000000, 1.000000000000000000 ) ) ;
#91 = CALENDAR_DATE ( 2024, 5, 8 ) ;
#92 = VERTEX_POINT ( 'NONE', #57 ) ;
#93 = APPROVAL_DATE_TIME ( #22, #50 ) ;
#94 = TOROIDAL_SURFACE ( 'NONE', #40, 45.00000000000000000, 10.65000000000000036 ) ;
#95 = CC_DESIGN_PERSON_AND_ORGANIZATION_ASSIGNMENT ( #61, #234, ( #175 ) ) ;
#96 = DATE_AND_TIME ( #110, #123 ) ;
#97 = PERSON_AND_ORGANIZATION ( #135, #19 ) ;
#98 = PRODUCT_DEFINITION_SHAPE ( 'NONE', 'NONE',  #235 ) ;
#99 = TOROIDAL_SURFACE ( 'NONE', #243, 45.00000000000000000, 8.650000000000000355 ) ;
#100 = CIRCLE ( 'NONE', #245, 36.35000000000000142 ) ;
#101 = ADVANCED_FACE ( 'NONE', ( #164 ), #176, .F. ) ;
#102 = DIRECTION ( 'NONE',  ( 0.000000000000000000, 1.000000000000000000, 0.000000000000000000 ) ) ;
#103 = DIRECTION ( 'NONE',  ( -2.259334488757232034E-16, 0.000000000000000000, 1.000000000000000000 ) ) ;
#104 = CARTESIAN_POINT ( 'NONE',  ( -36.35000000000000142, 0.000000000000000000, -8.212680866632537989E-15 ) ) ;
#105 = VERTEX_POINT ( 'NONE', #25 ) ;
#106 = DIRECTION ( 'NONE',  ( 0.000000000000000000, 0.000000000000000000, 1.000000000000000000 ) ) ;
#107 = DIRECTION ( 'NONE',  ( 0.000000000000000000, 0.000000000000000000, 1.000000000000000000 ) ) ;
#108 = EDGE_LOOP ( 'NONE', ( #13, #31, #168, #182 ) ) ;
#109 = DIRECTION ( 'NONE',  ( 1.000000000000000000, 0.000000000000000000, 2.259334488757235485E-16 ) ) ;
#110 = CALENDAR_DATE ( 2024, 5, 8 ) ;
#111 = CARTESIAN_POINT ( 'NONE',  ( -45.00000000000000000, 0.000000000000000000, -8.266365894244658788E-15 ) ) ;
#112 = CALENDAR_DATE ( 2024, 5, 8 ) ;
#113 = AXIS2_PLACEMENT_3D ( 'NONE', #81, #202, #73 ) ;
#114 = EDGE_CURVE ( 'NONE', #92, #185, #224, .T. ) ;
#115 = COORDINATED_UNIVERSAL_TIME_OFFSET ( 1, 0, .AHEAD. ) ;
#116 = PRODUCT_DEFINITION_FORMATION_WITH_SPECIFIED_SOURCE ( 'ANY', '', #175, .NOT_KNOWN. ) ;
#117 = APPROVAL_ROLE ( '' ) ;
#118 = ADVANCED_FACE ( 'NONE', ( #120, #246 ), #6, .F. ) ;
#119 = DIRECTION ( 'NONE',  ( 1.000000000000000000, 0.000000000000000000, 2.259334488757235485E-16 ) ) ;
#120 = FACE_BOUND ( 'NONE', #68, .T. ) ;
#121 = CARTESIAN_POINT ( 'NONE',  ( -45.00000000000000000, 0.000000000000000000, -8.266365894244658788E-15 ) ) ;
#122 = VERTEX_POINT ( 'NONE', #27 ) ;
#123 = LOCAL_TIME ( 10, 32, 42.00000000000000000, #115 ) ;
#124 = FACE_OUTER_BOUND ( 'NONE', #76, .T. ) ;
#125 = DIRECTION ( 'NONE',  ( 1.000000000000000000, 0.000000000000000000, 2.259334488757231541E-16 ) ) ;
#126 = ORIENTED_EDGE ( 'NONE', *, *, #231, .F. ) ;
#127 = PERSON_AND_ORGANIZATION_ROLE ( 'creator' ) ;
#128 = ORIENTED_EDGE ( 'NONE', *, *, #15, .T. ) ;
#129 = APPROVAL ( #208, 'UNSPECIFIED' ) ;
#130 = PERSON_AND_ORGANIZATION ( #135, #19 ) ;
#131 = DIRECTION ( 'NONE',  ( 1.000000000000000000, 0.000000000000000000, 2.259334488757235978E-16 ) ) ;
#132 = COORDINATED_UNIVERSAL_TIME_OFFSET ( 1, 0, .AHEAD. ) ;
#133 = PERSON_AND_ORGANIZATION ( #135, #19 ) ;
#134 = MECHANICAL_CONTEXT ( 'NONE', #65, 'mechanical' ) ;
#135 = PERSON ( 'UNSPECIFIED', 'UNSPECIFIED', 'UNSPECIFIED', ('UNSPECIFIED'), ('UNSPECIFIED'), ('UNSPECIFIED') ) ;
#136 = CIRCLE ( 'NONE', #24, 8.649999999999998579 ) ;
#137 = EDGE_CURVE ( 'NONE', #8, #86, #213, .T. ) ;
#138 = LOCAL_TIME ( 10, 32, 42.00000000000000000, #45 ) ;
#139 = CARTESIAN_POINT ( 'NONE',  ( -34.35000000000000142, 0.000000000000000000, -5.860174663718203458E-15 ) ) ;
#140 = DIRECTION ( 'NONE',  ( 0.000000000000000000, 1.000000000000000000, 0.000000000000000000 ) ) ;
#141 = AXIS2_PLACEMENT_3D ( 'NONE', #67, #184, #107 ) ;
#142 = CARTESIAN_POINT ( 'NONE',  ( -1.343771905066066424E-13, 0.000000000000000000, -45.00000000000000000 ) ) ;
#143 = AXIS2_PLACEMENT_3D ( 'NONE', #85, #159, #240 ) ;
#144 = DIRECTION ( 'NONE',  ( 0.000000000000000000, 0.000000000000000000, 1.000000000000000000 ) ) ;
#145 = CARTESIAN_POINT ( 'NONE',  ( -55.64999999999999858, 0.000000000000000000, -1.067255712477111333E-14 ) ) ;
#146 = ORIENTED_EDGE ( 'NONE', *, *, #215, .T. ) ;
#147 = VERTEX_POINT ( 'NONE', #156 ) ;
#148 = CC_DESIGN_SECURITY_CLASSIFICATION ( #54, ( #116 ) ) ;
#149 =( LENGTH_UNIT ( ) NAMED_UNIT ( * ) SI_UNIT ( .MILLI., .METRE. ) );
#150 = CIRCLE ( 'NONE', #46, 10.65000000000000036 ) ;
#151 = CC_DESIGN_DATE_AND_TIME_ASSIGNMENT ( #96, #16, ( #235 ) ) ;
#152 = LOCAL_TIME ( 10, 32, 42.00000000000000000, #172 ) ;
#153 = AXIS2_PLACEMENT_3D ( 'NONE', #221, #52, #125 ) ;
#154 = DESIGN_CONTEXT ( 'detailed design', #87, 'design' ) ;
#155 = CC_DESIGN_PERSON_AND_ORGANIZATION_ASSIGNMENT ( #170, #127, ( #116 ) ) ;
#156 = CARTESIAN_POINT ( 'NONE',  ( -1.070116141371662029E-13, 0.000000000000000000, -36.35000000000000142 ) ) ;
#157 = DIRECTION ( 'NONE',  ( 0.000000000000000000, 1.000000000000000000, 0.000000000000000000 ) ) ;
#158 = ORIENTED_EDGE ( 'NONE', *, *, #215, .F. ) ;
#159 = DIRECTION ( 'NONE',  ( -1.000000000000000000, 0.000000000000000000, 2.943923360032083078E-15 ) ) ;
#160 = EDGE_LOOP ( 'NONE', ( #34, #201, #89, #203 ) ) ;
#161 = FACE_OUTER_BOUND ( 'NONE', #160, .T. ) ;
#162 = ORIENTED_EDGE ( 'NONE', *, *, #173, .F. ) ;
#163 = AXIS2_PLACEMENT_3D ( 'NONE', #9, #242, #90 ) ;
#164 = FACE_OUTER_BOUND ( 'NONE', #108, .T. ) ;
#165 = CC_DESIGN_DATE_AND_TIME_ASSIGNMENT ( #167, #229, ( #54 ) ) ;
#166 = ORIENTED_EDGE ( 'NONE', *, *, #64, .T. ) ;
#167 = DATE_AND_TIME ( #18, #236 ) ;
#168 = ORIENTED_EDGE ( 'NONE', *, *, #179, .T. ) ;
#169 = CIRCLE ( 'NONE', #26, 55.64999999999999858 ) ;
#170 = PERSON_AND_ORGANIZATION ( #135, #19 ) ;
#171 = DATE_AND_TIME ( #91, #152 ) ;
#172 = COORDINATED_UNIVERSAL_TIME_OFFSET ( 1, 0, .AHEAD. ) ;
#173 = EDGE_CURVE ( 'NONE', #122, #92, #3, .T. ) ;
#174 = APPROVAL_DATE_TIME ( #218, #129 ) ;
#175 = PRODUCT ( '3D_R1655_21.3x2_17362105', '3D_R1655_21.3x2_17362105', '', ( #134 ) ) ;
#176 = TOROIDAL_SURFACE ( 'NONE', #80, 45.00000000000000000, 8.650000000000000355 ) ;
#177 = CARTESIAN_POINT ( 'NONE',  ( 0.000000000000000000, 0.000000000000000000, 0.000000000000000000 ) ) ;
#178 = CARTESIAN_POINT ( 'NONE',  ( 0.000000000000000000, 0.000000000000000000, 0.000000000000000000 ) ) ;
#179 = EDGE_CURVE ( 'NONE', #147, #86, #100, .T. ) ;
#180 = APPROVAL_PERSON_ORGANIZATION ( #253, #50, #191 ) ;
#181 = CARTESIAN_POINT ( 'NONE',  ( 0.000000000000000000, 0.000000000000000000, 0.000000000000000000 ) ) ;
#182 = ORIENTED_EDGE ( 'NONE', *, *, #231, .T. ) ;
#183 = DIRECTION ( 'NONE',  ( 0.000000000000000000, 0.000000000000000000, 1.000000000000000000 ) ) ;
#184 = DIRECTION ( 'NONE',  ( 0.000000000000000000, 1.000000000000000000, 0.000000000000000000 ) ) ;
#185 = VERTEX_POINT ( 'NONE', #139 ) ;
#186 = APPROVAL_ROLE ( '' ) ;
#187 = COORDINATED_UNIVERSAL_TIME_OFFSET ( 1, 0, .AHEAD. ) ;
#188 = APPROVAL_PERSON_ORGANIZATION ( #130, #129, #117 ) ;
#189 = AXIS2_PLACEMENT_3D ( 'NONE', #21, #190, #38 ) ;
#190 = DIRECTION ( 'NONE',  ( 0.000000000000000000, 0.000000000000000000, 1.000000000000000000 ) ) ;
#191 = APPROVAL_ROLE ( '' ) ;
#192 = CC_DESIGN_PERSON_AND_ORGANIZATION_ASSIGNMENT ( #97, #252, ( #116 ) ) ;
#193 = SHAPE_DEFINITION_REPRESENTATION ( #98, #238 ) ;
#194 = UNCERTAINTY_MEASURE_WITH_UNIT (LENGTH_MEASURE( 1.000000000000000082E-05 ), #149, 'distance_accuracy_value', 'NONE');
#195 = AXIS2_PLACEMENT_3D ( 'NONE', #75, #14, #62 ) ;
#196 = DIRECTION ( 'NONE',  ( -1.000000000000000000, 0.000000000000000000, 2.943923360032083078E-15 ) ) ;
#197 = EDGE_CURVE ( 'NONE', #147, #105, #136, .T. ) ;
#198 = DIRECTION ( 'NONE',  ( -1.000000000000000000, 0.000000000000000000, 2.943923360032083078E-15 ) ) ;
#199 = DIRECTION ( 'NONE',  ( 0.000000000000000000, 1.000000000000000000, 0.000000000000000000 ) ) ;
#200 = CC_DESIGN_APPROVAL ( #50, ( #116 ) ) ;
#201 = ORIENTED_EDGE ( 'NONE', *, *, #30, .T. ) ;
#202 = DIRECTION ( 'NONE',  ( -1.000000000000000000, 0.000000000000000000, 2.943923360032083078E-15 ) ) ;
#203 = ORIENTED_EDGE ( 'NONE', *, *, #114, .F. ) ;
#204 = DIRECTION ( 'NONE',  ( 2.943923360032082289E-15, 0.000000000000000000, 1.000000000000000000 ) ) ;
#205 = ORIENTED_EDGE ( 'NONE', *, *, #179, .F. ) ;
#206 = SECURITY_CLASSIFICATION_LEVEL ( 'unclassified' ) ;
#207 = ORIENTED_EDGE ( 'NONE', *, *, #30, .F. ) ;
#208 = APPROVAL_STATUS ( 'not_yet_approved' ) ;
#209 = FACE_OUTER_BOUND ( 'NONE', #226, .T. ) ;
#210 = CC_DESIGN_PERSON_AND_ORGANIZATION_ASSIGNMENT ( #77, #232, ( #54 ) ) ;
#211 = AXIS2_PLACEMENT_3D ( 'NONE', #111, #230, #131 ) ;
#212 = AXIS2_PLACEMENT_3D ( 'NONE', #178, #157, #183 ) ;
#213 = CIRCLE ( 'NONE', #153, 8.649999999999998579 ) ;
#214 = APPROVAL_DATE_TIME ( #171, #239 ) ;
#215 = EDGE_CURVE ( 'NONE', #222, #185, #56, .T. ) ;
#216 = CALENDAR_DATE ( 2024, 5, 8 ) ;
#217 = CC_DESIGN_APPROVAL ( #239, ( #235 ) ) ;
#218 = DATE_AND_TIME ( #216, #138 ) ;
#219 = CARTESIAN_POINT ( 'NONE',  ( 0.000000000000000000, -1.059319481262460570E-15, 0.000000000000000000 ) ) ;
#220 = CARTESIAN_POINT ( 'NONE',  ( -1.324765512014437259E-13, 0.000000000000000000, -45.00000000000000000 ) ) ;
#221 = CARTESIAN_POINT ( 'NONE',  ( -45.00000000000000000, 0.000000000000000000, -1.016700519940754376E-14 ) ) ;
#222 = VERTEX_POINT ( 'NONE', #145 ) ;
#223 = DIRECTION ( 'NONE',  ( 0.000000000000000000, 1.000000000000000000, 0.000000000000000000 ) ) ;
#224 = CIRCLE ( 'NONE', #163, 34.35000000000000142 ) ;
#225 = DIRECTION ( 'NONE',  ( 0.000000000000000000, 0.000000000000000000, 1.000000000000000000 ) ) ;
#226 = EDGE_LOOP ( 'NONE', ( #228, #166, #58, #205 ) ) ;
#227 = PERSON_AND_ORGANIZATION_ROLE ( 'creator' ) ;
#228 = ORIENTED_EDGE ( 'NONE', *, *, #23, .F. ) ;
#229 = DATE_TIME_ROLE ( 'classification_date' ) ;
#230 = DIRECTION ( 'NONE',  ( -2.259334488757235978E-16, 0.000000000000000000, 1.000000000000000000 ) ) ;
#231 = EDGE_CURVE ( 'NONE', #86, #8, #237, .T. ) ;
#232 = PERSON_AND_ORGANIZATION_ROLE ( 'classification_officer' ) ;
#233 = APPLICATION_PROTOCOL_DEFINITION ( 'international standard', 'config_control_design', 1994, #65 ) ;
#234 = PERSON_AND_ORGANIZATION_ROLE ( 'design_owner' ) ;
#235 = PRODUCT_DEFINITION ( 'UNKNOWN', '', #116, #154 ) ;
#236 = LOCAL_TIME ( 10, 32, 42.00000000000000000, #187 ) ;
#237 = CIRCLE ( 'NONE', #195, 8.649999999999998579 ) ;
#238 = ADVANCED_BREP_SHAPE_REPRESENTATION ( '3D_R1655_21.3x2_17362105', ( #5, #189 ), #20 ) ;
#239 = APPROVAL ( #248, 'UNSPECIFIED' ) ;
#240 = DIRECTION ( 'NONE',  ( 2.943923360032082289E-15, 0.000000000000000000, 1.000000000000000000 ) ) ;
#241 = CARTESIAN_POINT ( 'NONE',  ( 0.000000000000000000, 0.000000000000000000, 0.000000000000000000 ) ) ;
#242 = DIRECTION ( 'NONE',  ( 0.000000000000000000, 1.000000000000000000, 0.000000000000000000 ) ) ;
#243 = AXIS2_PLACEMENT_3D ( 'NONE', #241, #199, #225 ) ;
#244 = EDGE_LOOP ( 'NONE', ( #84, #162 ) ) ;
#245 = AXIS2_PLACEMENT_3D ( 'NONE', #219, #223, #47 ) ;
#246 = FACE_OUTER_BOUND ( 'NONE', #244, .T. ) ;
#247 = EDGE_LOOP ( 'NONE', ( #126, #37 ) ) ;
#248 = APPROVAL_STATUS ( 'not_yet_approved' ) ;
#249 = FACE_BOUND ( 'NONE', #247, .T. ) ;
#250 = CC_DESIGN_PERSON_AND_ORGANIZATION_ASSIGNMENT ( #59, #227, ( #235 ) ) ;
#251 = APPROVAL_PERSON_ORGANIZATION ( #133, #239, #186 ) ;
#252 = PERSON_AND_ORGANIZATION_ROLE ( 'design_supplier' ) ;
#253 = PERSON_AND_ORGANIZATION ( #135, #19 ) ;
ENDSEC;
END-ISO-10303-21;
