ISO-10303-21;
HEADER;
FILE_DESCRIPTION (( 'STEP AP203' ),
    '1' );
FILE_NAME ('3D_GR1442_48 x 4_188741175.STEP',
    '2024-10-22T15:35:46',
    ( '' ),
    ( '' ),
    'SwSTEP 2.0',
    'SolidWorks 2023',
    '' );
FILE_SCHEMA (( 'CONFIG_CONTROL_DESIGN' ));
ENDSEC;

DATA;
#1 = DIRECTION ( 'NONE',  ( -0.000000000000000000, -1.000000000000000000, -0.000000000000000000 ) ) ;
#2 = TOROIDAL_SURFACE ( 'NONE', #154, 23.75000000000000355, 0.2500000000000000000 ) ;
#3 = CARTESIAN_POINT ( 'NONE',  ( 0.000000000000000000, 0.000000000000000000, 0.000000000000000000 ) ) ;
#4 = AXIS2_PLACEMENT_3D ( 'NONE', #178, #176, #70 ) ;
#5 = DIRECTION ( 'NONE',  ( 0.000000000000000000, 0.000000000000000000, 1.000000000000000000 ) ) ;
#6 = DIRECTION ( 'NONE',  ( 0.000000000000000000, 0.000000000000000000, 1.000000000000000000 ) ) ;
#7 = ADVANCED_FACE ( 'NONE', ( #43 ), #22, .T. ) ;
#8 = CARTESIAN_POINT ( 'NONE',  ( 0.000000000000000000, 3.750000000000000000, 0.000000000000000000 ) ) ;
#9 =( NAMED_UNIT ( * ) PLANE_ANGLE_UNIT ( ) SI_UNIT ( $, .RADIAN. ) );
#10 = DIRECTION ( 'NONE',  ( 0.000000000000000000, 1.000000000000000000, 0.000000000000000000 ) ) ;
#11 = FACE_OUTER_BOUND ( 'NONE', #99, .T. ) ;
#12 = APPROVAL_PERSON_ORGANIZATION ( #60, #56, #123 ) ;
#13 = APPROVAL_STATUS ( 'not_yet_approved' ) ;
#14 = PERSON_AND_ORGANIZATION ( #200, #61 ) ;
#15 = VERTEX_POINT ( 'NONE', #146 ) ;
#16 = PERSON_AND_ORGANIZATION ( #200, #61 ) ;
#17 = CC_DESIGN_SECURITY_CLASSIFICATION ( #196, ( #26 ) ) ;
#18 = COORDINATED_UNIVERSAL_TIME_OFFSET ( 1, 0, .AHEAD. ) ;
#19 = ORIENTED_EDGE ( 'NONE', *, *, #205, .T. ) ;
#20 = CIRCLE ( 'NONE', #195, 23.75000000000000355 ) ;
#21 = CC_DESIGN_APPROVAL ( #56, ( #196 ) ) ;
#22 = CYLINDRICAL_SURFACE ( 'NONE', #160, 24.00000000000000355 ) ;
#23 = CARTESIAN_POINT ( 'NONE',  ( 0.000000000000000000, 0.000000000000000000, 23.75000000000000355 ) ) ;
#24 = CARTESIAN_POINT ( 'NONE',  ( 0.000000000000000000, 3.750000000000000000, 0.000000000000000000 ) ) ;
#25 = DIRECTION ( 'NONE',  ( 0.000000000000000000, 0.000000000000000000, -1.000000000000000000 ) ) ;
#26 = PRODUCT_DEFINITION_FORMATION_WITH_SPECIFIED_SOURCE ( 'ANY', '', #129, .NOT_KNOWN. ) ;
#27 = VERTEX_POINT ( 'NONE', #23 ) ;
#28 = APPROVAL ( #13, 'UNSPECIFIED' ) ;
#29 = DIRECTION ( 'NONE',  ( 0.000000000000000000, 1.000000000000000000, 0.000000000000000000 ) ) ;
#30 = DIRECTION ( 'NONE',  ( 0.000000000000000000, 0.000000000000000000, 1.000000000000000000 ) ) ;
#31 = DIRECTION ( 'NONE',  ( -0.000000000000000000, -1.000000000000000000, -0.000000000000000000 ) ) ;
#32 = CARTESIAN_POINT ( 'NONE',  ( 0.000000000000000000, 4.000000000000000000, 0.000000000000000000 ) ) ;
#33 = APPROVAL_DATE_TIME ( #98, #56 ) ;
#34 = CIRCLE ( 'NONE', #46, 23.75000000000000355 ) ;
#35 = DATE_AND_TIME ( #272, #102 ) ;
#36 = CIRCLE ( 'NONE', #73, 0.2500000000000002220 ) ;
#37 = CIRCLE ( 'NONE', #96, 0.2500000000000002220 ) ;
#38 = APPROVAL_STATUS ( 'not_yet_approved' ) ;
#39 = ORIENTED_EDGE ( 'NONE', *, *, #185, .T. ) ;
#40 = APPLICATION_CONTEXT ( 'configuration controlled 3d designs of mechanical parts and assemblies' ) ;
#41 = CARTESIAN_POINT ( 'NONE',  ( 0.000000000000000000, 4.000000000000000000, 0.000000000000000000 ) ) ;
#42 = ADVANCED_FACE ( 'NONE', ( #211 ), #107, .T. ) ;
#43 = FACE_OUTER_BOUND ( 'NONE', #140, .T. ) ;
#44 = DIRECTION ( 'NONE',  ( 0.000000000000000000, 1.000000000000000000, 0.000000000000000000 ) ) ;
#45 = LINE ( 'NONE', #241, #253 ) ;
#46 = AXIS2_PLACEMENT_3D ( 'NONE', #219, #29, #30 ) ;
#47 = DIRECTION ( 'NONE',  ( 0.000000000000000000, 0.000000000000000000, 1.000000000000000000 ) ) ;
#48 = DIRECTION ( 'NONE',  ( 0.000000000000000000, 0.000000000000000000, 1.000000000000000000 ) ) ;
#49 = FACE_OUTER_BOUND ( 'NONE', #270, .T. ) ;
#50 = AXIS2_PLACEMENT_3D ( 'NONE', #116, #31, #48 ) ;
#51 = AXIS2_PLACEMENT_3D ( 'NONE', #94, #236, #6 ) ;
#52 = EDGE_CURVE ( 'NONE', #59, #27, #20, .T. ) ;
#53 = FACE_OUTER_BOUND ( 'NONE', #230, .T. ) ;
#54 = PERSON_AND_ORGANIZATION ( #200, #61 ) ;
#55 = AXIS2_PLACEMENT_3D ( 'NONE', #255, #262, #114 ) ;
#56 = APPROVAL ( #38, 'UNSPECIFIED' ) ;
#57 = CALENDAR_DATE ( 2024, 22, 10 ) ;
#58 = ORIENTED_EDGE ( 'NONE', *, *, #205, .F. ) ;
#59 = VERTEX_POINT ( 'NONE', #279 ) ;
#60 = PERSON_AND_ORGANIZATION ( #200, #61 ) ;
#61 = ORGANIZATION ( 'UNSPECIFIED', 'UNSPECIFIED', '' ) ;
#62 = DIRECTION ( 'NONE',  ( 0.000000000000000000, 0.000000000000000000, 1.000000000000000000 ) ) ;
#63 = DIRECTION ( 'NONE',  ( 0.000000000000000000, 0.000000000000000000, 1.000000000000000000 ) ) ;
#64 = CC_DESIGN_DATE_AND_TIME_ASSIGNMENT ( #35, #250, ( #196 ) ) ;
#65 = CARTESIAN_POINT ( 'NONE',  ( 2.939152317953648289E-15, 3.750000000000000000, 24.00000000000000355 ) ) ;
#66 = DIRECTION ( 'NONE',  ( 0.000000000000000000, 1.000000000000000000, 0.000000000000000000 ) ) ;
#67 = PRODUCT_RELATED_PRODUCT_CATEGORY ( 'detail', '', ( #129 ) ) ;
#68 = DIRECTION ( 'NONE',  ( -0.000000000000000000, -1.000000000000000000, -0.000000000000000000 ) ) ;
#69 = ADVANCED_BREP_SHAPE_REPRESENTATION ( '3D_GR1442_48 x 4_188741175', ( #77, #4 ), #168 ) ;
#70 = DIRECTION ( 'NONE',  ( 1.000000000000000000, 0.000000000000000000, 0.000000000000000000 ) ) ;
#71 = DIRECTION ( 'NONE',  ( 1.224646799147349509E-16, 0.000000000000000000, -1.000000000000000000 ) ) ;
#72 = DIRECTION ( 'NONE',  ( 0.000000000000000000, 1.000000000000000000, 0.000000000000000000 ) ) ;
#73 = AXIS2_PLACEMENT_3D ( 'NONE', #198, #203, #71 ) ;
#74 = DIRECTION ( 'NONE',  ( 0.000000000000000000, 0.000000000000000000, 1.000000000000000000 ) ) ;
#75 = COORDINATED_UNIVERSAL_TIME_OFFSET ( 1, 0, .AHEAD. ) ;
#76 = EDGE_CURVE ( 'NONE', #210, #15, #217, .T. ) ;
#77 = MANIFOLD_SOLID_BREP ( 'Verrundung1', #84 ) ;
#78 = ORIENTED_EDGE ( 'NONE', *, *, #161, .F. ) ;
#79 = AXIS2_PLACEMENT_3D ( 'NONE', #261, #66, #149 ) ;
#80 = ORIENTED_EDGE ( 'NONE', *, *, #271, .T. ) ;
#81 = COORDINATED_UNIVERSAL_TIME_OFFSET ( 1, 0, .AHEAD. ) ;
#82 = VERTEX_POINT ( 'NONE', #171 ) ;
#83 = ORIENTED_EDGE ( 'NONE', *, *, #76, .T. ) ;
#84 = CLOSED_SHELL ( 'NONE', ( #42, #226, #7, #265, #93, #118, #193, #237 ) ) ;
#85 = PLANE ( 'NONE',  #172 ) ;
#86 = ORIENTED_EDGE ( 'NONE', *, *, #105, .F. ) ;
#87 = VERTEX_POINT ( 'NONE', #65 ) ;
#88 = AXIS2_PLACEMENT_3D ( 'NONE', #234, #150, #62 ) ;
#89 = CIRCLE ( 'NONE', #139, 24.00000000000000355 ) ;
#90 = EDGE_LOOP ( 'NONE', ( #58, #274, #227, #86 ) ) ;
#91 = PRODUCT_DEFINITION_SHAPE ( 'NONE', 'NONE',  #131 ) ;
#92 = CARTESIAN_POINT ( 'NONE',  ( 2.939152317953648289E-15, 4.000000000000000000, 24.00000000000000355 ) ) ;
#93 = ADVANCED_FACE ( 'NONE', ( #278 ), #235, .T. ) ;
#94 = CARTESIAN_POINT ( 'NONE',  ( 0.000000000000000000, 3.750000000000000000, 0.000000000000000000 ) ) ;
#95 = DIRECTION ( 'NONE',  ( -0.000000000000000000, -1.000000000000000000, -0.000000000000000000 ) ) ;
#96 = AXIS2_PLACEMENT_3D ( 'NONE', #180, #267, #240 ) ;
#97 = APPLICATION_PROTOCOL_DEFINITION ( 'international standard', 'config_control_design', 1994, #40 ) ;
#98 = DATE_AND_TIME ( #165, #277 ) ;
#99 = EDGE_LOOP ( 'NONE', ( #78, #132, #104, #224 ) ) ;
#100 = DATE_AND_TIME ( #248, #108 ) ;
#101 = AXIS2_PLACEMENT_3D ( 'NONE', #229, #110, #170 ) ;
#102 = LOCAL_TIME ( 17, 35, 46.00000000000000000, #18 ) ;
#103 = PERSON_AND_ORGANIZATION ( #200, #61 ) ;
#104 = ORIENTED_EDGE ( 'NONE', *, *, #166, .T. ) ;
#105 = EDGE_CURVE ( 'NONE', #159, #82, #119, .T. ) ;
#106 = CALENDAR_DATE ( 2024, 22, 10 ) ;
#107 = TOROIDAL_SURFACE ( 'NONE', #216, 23.75000000000000355, 0.2500000000000000000 ) ;
#108 = LOCAL_TIME ( 17, 35, 46.00000000000000000, #158 ) ;
#109 = CC_DESIGN_PERSON_AND_ORGANIZATION_ASSIGNMENT ( #103, #206, ( #129 ) ) ;
#110 = DIRECTION ( 'NONE',  ( 0.000000000000000000, 1.000000000000000000, 0.000000000000000000 ) ) ;
#111 = CARTESIAN_POINT ( 'NONE',  ( 0.000000000000000000, 0.000000000000000000, 0.000000000000000000 ) ) ;
#112 = CARTESIAN_POINT ( 'NONE',  ( 0.000000000000000000, 3.750000000000000000, 0.000000000000000000 ) ) ;
#113 = TOROIDAL_SURFACE ( 'NONE', #245, 23.75000000000000355, 0.2500000000000000000 ) ;
#114 = DIRECTION ( 'NONE',  ( 0.000000000000000000, -0.000000000000000000, 1.000000000000000000 ) ) ;
#115 = EDGE_CURVE ( 'NONE', #145, #87, #257, .T. ) ;
#116 = CARTESIAN_POINT ( 'NONE',  ( 0.000000000000000000, 0.000000000000000000, 0.000000000000000000 ) ) ;
#117 = DIRECTION ( 'NONE',  ( -1.000000000000000000, 0.000000000000000000, 0.000000000000000000 ) ) ;
#118 = ADVANCED_FACE ( 'NONE', ( #256 ), #85, .F. ) ;
#119 = CIRCLE ( 'NONE', #101, 23.75000000000000355 ) ;
#120 = PERSON_AND_ORGANIZATION ( #200, #61 ) ;
#121 = PERSON_AND_ORGANIZATION_ROLE ( 'design_supplier' ) ;
#122 = AXIS2_PLACEMENT_3D ( 'NONE', #133, #117, #220 ) ;
#123 = APPROVAL_ROLE ( '' ) ;
#124 = ORIENTED_EDGE ( 'NONE', *, *, #52, .F. ) ;
#125 = EDGE_CURVE ( 'NONE', #59, #15, #167, .T. ) ;
#126 = ORIENTED_EDGE ( 'NONE', *, *, #115, .T. ) ;
#127 = DIRECTION ( 'NONE',  ( 0.000000000000000000, 1.000000000000000000, 0.000000000000000000 ) ) ;
#128 = ORIENTED_EDGE ( 'NONE', *, *, #115, .F. ) ;
#129 = PRODUCT ( '3D_GR1442_48 x 4_188741175', '3D_GR1442_48 x 4_188741175', '', ( #157 ) ) ;
#130 = CARTESIAN_POINT ( 'NONE',  ( 2.923844232964306395E-15, 4.000000000000000000, -23.75000000000000355 ) ) ;
#131 = PRODUCT_DEFINITION ( 'UNKNOWN', '', #26, #239 ) ;
#132 = ORIENTED_EDGE ( 'NONE', *, *, #242, .T. ) ;
#133 = CARTESIAN_POINT ( 'NONE',  ( 0.000000000000000000, 0.2500000000000002220, 23.75000000000000355 ) ) ;
#134 = CARTESIAN_POINT ( 'NONE',  ( 2.939152317953648289E-15, 0.2500000000000002220, 24.00000000000000355 ) ) ;
#135 = CIRCLE ( 'NONE', #79, 24.00000000000000355 ) ;
#136 = APPROVAL_PERSON_ORGANIZATION ( #120, #28, #269 ) ;
#137 = DIRECTION ( 'NONE',  ( 0.000000000000000000, 0.000000000000000000, -1.000000000000000000 ) ) ;
#138 = APPROVAL_DATE_TIME ( #184, #221 ) ;
#139 = AXIS2_PLACEMENT_3D ( 'NONE', #8, #202, #266 ) ;
#140 = EDGE_LOOP ( 'NONE', ( #126, #249, #83, #169 ) ) ;
#141 = CC_DESIGN_PERSON_AND_ORGANIZATION_ASSIGNMENT ( #16, #188, ( #131 ) ) ;
#142 = ORIENTED_EDGE ( 'NONE', *, *, #125, .F. ) ;
#143 = EDGE_LOOP ( 'NONE', ( #148, #244 ) ) ;
#144 = ORIENTED_EDGE ( 'NONE', *, *, #276, .F. ) ;
#145 = VERTEX_POINT ( 'NONE', #174 ) ;
#146 = CARTESIAN_POINT ( 'NONE',  ( 0.000000000000000000, 0.2500000000000002220, -24.00000000000000355 ) ) ;
#147 = CIRCLE ( 'NONE', #50, 23.75000000000000355 ) ;
#148 = ORIENTED_EDGE ( 'NONE', *, *, #181, .T. ) ;
#149 = DIRECTION ( 'NONE',  ( 0.000000000000000000, 0.000000000000000000, 1.000000000000000000 ) ) ;
#150 = DIRECTION ( 'NONE',  ( 0.000000000000000000, 1.000000000000000000, 0.000000000000000000 ) ) ;
#151 = LOCAL_TIME ( 17, 35, 46.00000000000000000, #81 ) ;
#152 = CC_DESIGN_PERSON_AND_ORGANIZATION_ASSIGNMENT ( #163, #162, ( #26 ) ) ;
#153 = CARTESIAN_POINT ( 'NONE',  ( 0.000000000000000000, 0.2500000000000002220, 0.000000000000000000 ) ) ;
#154 = AXIS2_PLACEMENT_3D ( 'NONE', #199, #72, #47 ) ;
#155 = CC_DESIGN_APPROVAL ( #221, ( #131 ) ) ;
#156 = EDGE_CURVE ( 'NONE', #15, #210, #135, .T. ) ;
#157 = MECHANICAL_CONTEXT ( 'NONE', #233, 'mechanical' ) ;
#158 = COORDINATED_UNIVERSAL_TIME_OFFSET ( 1, 0, .AHEAD. ) ;
#159 = VERTEX_POINT ( 'NONE', #130 ) ;
#160 = AXIS2_PLACEMENT_3D ( 'NONE', #41, #68, #25 ) ;
#161 = EDGE_CURVE ( 'NONE', #87, #210, #213, .T. ) ;
#162 = PERSON_AND_ORGANIZATION_ROLE ( 'creator' ) ;
#163 = PERSON_AND_ORGANIZATION ( #200, #61 ) ;
#164 = ORIENTED_EDGE ( 'NONE', *, *, #76, .F. ) ;
#165 = CALENDAR_DATE ( 2024, 22, 10 ) ;
#166 = EDGE_CURVE ( 'NONE', #145, #15, #45, .T. ) ;
#167 = CIRCLE ( 'NONE', #275, 0.2500000000000002220 ) ;
#168 =( GEOMETRIC_REPRESENTATION_CONTEXT ( 3 ) GLOBAL_UNCERTAINTY_ASSIGNED_CONTEXT ( ( #183 ) ) GLOBAL_UNIT_ASSIGNED_CONTEXT ( ( #179, #9, #263 ) ) REPRESENTATION_CONTEXT ( 'NONE', 'WORKASPACE' ) );
#169 = ORIENTED_EDGE ( 'NONE', *, *, #166, .F. ) ;
#170 = DIRECTION ( 'NONE',  ( 0.000000000000000000, 0.000000000000000000, 1.000000000000000000 ) ) ;
#171 = CARTESIAN_POINT ( 'NONE',  ( 0.000000000000000000, 4.000000000000000000, 23.75000000000000355 ) ) ;
#172 = AXIS2_PLACEMENT_3D ( 'NONE', #3, #127, #212 ) ;
#173 = CC_DESIGN_PERSON_AND_ORGANIZATION_ASSIGNMENT ( #243, #186, ( #196 ) ) ;
#174 = CARTESIAN_POINT ( 'NONE',  ( 0.000000000000000000, 3.750000000000000000, -24.00000000000000355 ) ) ;
#175 = DIRECTION ( 'NONE',  ( -0.000000000000000000, -1.000000000000000000, -0.000000000000000000 ) ) ;
#176 = DIRECTION ( 'NONE',  ( 0.000000000000000000, 0.000000000000000000, 1.000000000000000000 ) ) ;
#177 = AXIS2_PLACEMENT_3D ( 'NONE', #32, #215, #137 ) ;
#178 = CARTESIAN_POINT ( 'NONE',  ( 0.000000000000000000, 0.000000000000000000, 0.000000000000000000 ) ) ;
#179 =( LENGTH_UNIT ( ) NAMED_UNIT ( * ) SI_UNIT ( .MILLI., .METRE. ) );
#180 = CARTESIAN_POINT ( 'NONE',  ( 0.000000000000000000, 3.750000000000000000, 23.75000000000000355 ) ) ;
#181 = EDGE_CURVE ( 'NONE', #27, #59, #147, .T. ) ;
#182 = VECTOR ( 'NONE', #175, 1000.000000000000000 ) ;
#183 = UNCERTAINTY_MEASURE_WITH_UNIT (LENGTH_MEASURE( 1.000000000000000082E-05 ), #179, 'distance_accuracy_value', 'NONE');
#184 = DATE_AND_TIME ( #106, #254 ) ;
#185 = EDGE_CURVE ( 'NONE', #27, #210, #238, .T. ) ;
#186 = PERSON_AND_ORGANIZATION_ROLE ( 'classification_officer' ) ;
#187 = CC_DESIGN_PERSON_AND_ORGANIZATION_ASSIGNMENT ( #14, #121, ( #26 ) ) ;
#188 = PERSON_AND_ORGANIZATION_ROLE ( 'creator' ) ;
#189 = ORIENTED_EDGE ( 'NONE', *, *, #271, .F. ) ;
#190 = DIRECTION ( 'NONE',  ( 0.000000000000000000, 0.000000000000000000, 1.000000000000000000 ) ) ;
#191 = EDGE_LOOP ( 'NONE', ( #128, #19, #189, #144 ) ) ;
#192 = DIRECTION ( 'NONE',  ( 1.224646799147349509E-16, 0.000000000000000000, -1.000000000000000000 ) ) ;
#193 = ADVANCED_FACE ( 'NONE', ( #53 ), #2, .T. ) ;
#194 = DIRECTION ( 'NONE',  ( -0.000000000000000000, -1.000000000000000000, -0.000000000000000000 ) ) ;
#195 = AXIS2_PLACEMENT_3D ( 'NONE', #111, #1, #190 ) ;
#196 = SECURITY_CLASSIFICATION ( '', '', #208 ) ;
#197 = ORIENTED_EDGE ( 'NONE', *, *, #156, .F. ) ;
#198 = CARTESIAN_POINT ( 'NONE',  ( 2.908536147974964502E-15, 3.750000000000000000, -23.75000000000000355 ) ) ;
#199 = CARTESIAN_POINT ( 'NONE',  ( 0.000000000000000000, 0.2500000000000002220, 0.000000000000000000 ) ) ;
#200 = PERSON ( 'UNSPECIFIED', 'UNSPECIFIED', 'UNSPECIFIED', ('UNSPECIFIED'), ('UNSPECIFIED'), ('UNSPECIFIED') ) ;
#201 = AXIS2_PLACEMENT_3D ( 'NONE', #112, #194, #5 ) ;
#202 = DIRECTION ( 'NONE',  ( -0.000000000000000000, -1.000000000000000000, -0.000000000000000000 ) ) ;
#203 = DIRECTION ( 'NONE',  ( 1.000000000000000000, -0.000000000000000000, 1.224646799147353207E-16 ) ) ;
#204 = FACE_OUTER_BOUND ( 'NONE', #90, .T. ) ;
#205 = EDGE_CURVE ( 'NONE', #145, #159, #36, .T. ) ;
#206 = PERSON_AND_ORGANIZATION_ROLE ( 'design_owner' ) ;
#207 = DATE_TIME_ROLE ( 'creation_date' ) ;
#208 = SECURITY_CLASSIFICATION_LEVEL ( 'unclassified' ) ;
#209 = APPROVAL_DATE_TIME ( #100, #28 ) ;
#210 = VERTEX_POINT ( 'NONE', #134 ) ;
#211 = FACE_OUTER_BOUND ( 'NONE', #191, .T. ) ;
#212 = DIRECTION ( 'NONE',  ( 0.000000000000000000, -0.000000000000000000, 1.000000000000000000 ) ) ;
#213 = LINE ( 'NONE', #92, #182 ) ;
#214 = ORIENTED_EDGE ( 'NONE', *, *, #125, .T. ) ;
#215 = DIRECTION ( 'NONE',  ( -0.000000000000000000, -1.000000000000000000, -0.000000000000000000 ) ) ;
#216 = AXIS2_PLACEMENT_3D ( 'NONE', #24, #44, #63 ) ;
#217 = CIRCLE ( 'NONE', #88, 24.00000000000000355 ) ;
#218 = CC_DESIGN_DATE_AND_TIME_ASSIGNMENT ( #223, #207, ( #131 ) ) ;
#219 = CARTESIAN_POINT ( 'NONE',  ( 0.000000000000000000, 4.000000000000000000, 0.000000000000000000 ) ) ;
#220 = DIRECTION ( 'NONE',  ( 0.000000000000000000, 0.000000000000000000, 1.000000000000000000 ) ) ;
#221 = APPROVAL ( #225, 'UNSPECIFIED' ) ;
#222 = SHAPE_DEFINITION_REPRESENTATION ( #91, #69 ) ;
#223 = DATE_AND_TIME ( #57, #151 ) ;
#224 = ORIENTED_EDGE ( 'NONE', *, *, #156, .T. ) ;
#225 = APPROVAL_STATUS ( 'not_yet_approved' ) ;
#226 = ADVANCED_FACE ( 'NONE', ( #49 ), #113, .T. ) ;
#227 = ORIENTED_EDGE ( 'NONE', *, *, #276, .T. ) ;
#228 = ORIENTED_EDGE ( 'NONE', *, *, #181, .F. ) ;
#229 = CARTESIAN_POINT ( 'NONE',  ( 0.000000000000000000, 4.000000000000000000, 0.000000000000000000 ) ) ;
#230 = EDGE_LOOP ( 'NONE', ( #142, #228, #39, #197 ) ) ;
#231 = APPROVAL_PERSON_ORGANIZATION ( #54, #221, #246 ) ;
#232 = CARTESIAN_POINT ( 'NONE',  ( 2.908536147974964502E-15, 0.2500000000000002220, -23.75000000000000355 ) ) ;
#233 = APPLICATION_CONTEXT ( 'configuration controlled 3d designs of mechanical parts and assemblies' ) ;
#234 = CARTESIAN_POINT ( 'NONE',  ( 0.000000000000000000, 0.2500000000000002220, 0.000000000000000000 ) ) ;
#235 = PLANE ( 'NONE',  #55 ) ;
#236 = DIRECTION ( 'NONE',  ( 0.000000000000000000, 1.000000000000000000, 0.000000000000000000 ) ) ;
#237 = ADVANCED_FACE ( 'NONE', ( #204 ), #259, .T. ) ;
#238 = CIRCLE ( 'NONE', #122, 0.2500000000000002220 ) ;
#239 = DESIGN_CONTEXT ( 'detailed design', #40, 'design' ) ;
#240 = DIRECTION ( 'NONE',  ( 0.000000000000000000, 0.000000000000000000, 1.000000000000000000 ) ) ;
#241 = CARTESIAN_POINT ( 'NONE',  ( 0.000000000000000000, 4.000000000000000000, -24.00000000000000355 ) ) ;
#242 = EDGE_CURVE ( 'NONE', #87, #145, #89, .T. ) ;
#243 = PERSON_AND_ORGANIZATION ( #200, #61 ) ;
#244 = ORIENTED_EDGE ( 'NONE', *, *, #52, .T. ) ;
#245 = AXIS2_PLACEMENT_3D ( 'NONE', #153, #10, #74 ) ;
#246 = APPROVAL_ROLE ( '' ) ;
#247 = ORIENTED_EDGE ( 'NONE', *, *, #105, .T. ) ;
#248 = CALENDAR_DATE ( 2024, 22, 10 ) ;
#249 = ORIENTED_EDGE ( 'NONE', *, *, #161, .T. ) ;
#250 = DATE_TIME_ROLE ( 'classification_date' ) ;
#251 = EDGE_LOOP ( 'NONE', ( #80, #247 ) ) ;
#252 = COORDINATED_UNIVERSAL_TIME_OFFSET ( 1, 0, .AHEAD. ) ;
#253 = VECTOR ( 'NONE', #95, 1000.000000000000000 ) ;
#254 = LOCAL_TIME ( 17, 35, 46.00000000000000000, #252 ) ;
#255 = CARTESIAN_POINT ( 'NONE',  ( 0.000000000000000000, 4.000000000000000000, 0.000000000000000000 ) ) ;
#256 = FACE_OUTER_BOUND ( 'NONE', #143, .T. ) ;
#257 = CIRCLE ( 'NONE', #201, 24.00000000000000355 ) ;
#258 = DIRECTION ( 'NONE',  ( 1.000000000000000000, -0.000000000000000000, 1.224646799147353207E-16 ) ) ;
#259 = TOROIDAL_SURFACE ( 'NONE', #51, 23.75000000000000355, 0.2500000000000000000 ) ;
#260 = CC_DESIGN_APPROVAL ( #28, ( #26 ) ) ;
#261 = CARTESIAN_POINT ( 'NONE',  ( 0.000000000000000000, 0.2500000000000002220, 0.000000000000000000 ) ) ;
#262 = DIRECTION ( 'NONE',  ( 0.000000000000000000, 1.000000000000000000, 0.000000000000000000 ) ) ;
#263 =( NAMED_UNIT ( * ) SI_UNIT ( $, .STERADIAN. ) SOLID_ANGLE_UNIT ( ) );
#264 = APPLICATION_PROTOCOL_DEFINITION ( 'international standard', 'config_control_design', 1994, #233 ) ;
#265 = ADVANCED_FACE ( 'NONE', ( #11 ), #268, .T. ) ;
#266 = DIRECTION ( 'NONE',  ( 0.000000000000000000, 0.000000000000000000, 1.000000000000000000 ) ) ;
#267 = DIRECTION ( 'NONE',  ( -1.000000000000000000, 0.000000000000000000, 0.000000000000000000 ) ) ;
#268 = CYLINDRICAL_SURFACE ( 'NONE', #177, 24.00000000000000355 ) ;
#269 = APPROVAL_ROLE ( '' ) ;
#270 = EDGE_LOOP ( 'NONE', ( #124, #214, #164, #273 ) ) ;
#271 = EDGE_CURVE ( 'NONE', #82, #159, #34, .T. ) ;
#272 = CALENDAR_DATE ( 2024, 22, 10 ) ;
#273 = ORIENTED_EDGE ( 'NONE', *, *, #185, .F. ) ;
#274 = ORIENTED_EDGE ( 'NONE', *, *, #242, .F. ) ;
#275 = AXIS2_PLACEMENT_3D ( 'NONE', #232, #258, #192 ) ;
#276 = EDGE_CURVE ( 'NONE', #87, #82, #37, .T. ) ;
#277 = LOCAL_TIME ( 17, 35, 46.00000000000000000, #75 ) ;
#278 = FACE_OUTER_BOUND ( 'NONE', #251, .T. ) ;
#279 = CARTESIAN_POINT ( 'NONE',  ( 2.923844232964306395E-15, 0.000000000000000000, -23.75000000000000355 ) ) ;
ENDSEC;
END-ISO-10303-21;
