ISO-10303-21;
HEADER;
/* Generated by software containing ST-Developer
 * from STEP Tools, Inc. (www.steptools.com) 
 */

FILE_DESCRIPTION(
/* description */ ('TUBO PER ARIA COMPRESSA \X\D815'),
/* implementation_level */ '2;1');

FILE_NAME(
/* name */ 
'R:\\Disegni3D_Area_Manager\\Inoxpres.step\\178_INOXPRES\\178015316_In
oxpres.stp',
/* time_stamp */ '2022-10-13T10:36:09+02:00',
/* author */ ('Vault'),
/* organization */ ('Raccorderie metalliche s.p.a. '),
/* preprocessor_version */ 'ST-DEVELOPER v18.1',
/* originating_system */ 'Autodesk Inventor 2020',
/* authorisation */ 'Raccorderie metalliche s.p.a. ');

FILE_SCHEMA (('AUTOMOTIVE_DESIGN { 1 0 10303 214 3 1 1 }'));
ENDSEC;

DATA;
#10=MECHANICAL_DESIGN_GEOMETRIC_PRESENTATION_REPRESENTATION('',(#13),#477);
#11=SHAPE_REPRESENTATION_RELATIONSHIP('SRR','None',#484,#12);
#12=ADVANCED_BREP_SHAPE_REPRESENTATION('',(#14),#476);
#13=STYLED_ITEM('',(#493),#14);
#14=MANIFOLD_SOLID_BREP('Solido1',#247);
#15=FACE_BOUND('',#56,.T.);
#16=FACE_BOUND('',#58,.T.);
#17=PLANE('',#307);
#18=PLANE('',#308);
#19=TOROIDAL_SURFACE('',#270,35.0000000000001,6.5);
#20=TOROIDAL_SURFACE('',#275,35.,6.5);
#21=TOROIDAL_SURFACE('',#281,35.,6.5);
#22=TOROIDAL_SURFACE('',#290,35.0000000000001,7.5);
#23=TOROIDAL_SURFACE('',#295,35.,7.5);
#24=TOROIDAL_SURFACE('',#301,35.,7.5);
#25=FACE_OUTER_BOUND('',#41,.T.);
#26=FACE_OUTER_BOUND('',#42,.T.);
#27=FACE_OUTER_BOUND('',#43,.T.);
#28=FACE_OUTER_BOUND('',#44,.T.);
#29=FACE_OUTER_BOUND('',#45,.T.);
#30=FACE_OUTER_BOUND('',#46,.T.);
#31=FACE_OUTER_BOUND('',#47,.T.);
#32=FACE_OUTER_BOUND('',#48,.T.);
#33=FACE_OUTER_BOUND('',#49,.T.);
#34=FACE_OUTER_BOUND('',#50,.T.);
#35=FACE_OUTER_BOUND('',#51,.T.);
#36=FACE_OUTER_BOUND('',#52,.T.);
#37=FACE_OUTER_BOUND('',#53,.T.);
#38=FACE_OUTER_BOUND('',#54,.T.);
#39=FACE_OUTER_BOUND('',#55,.T.);
#40=FACE_OUTER_BOUND('',#57,.T.);
#41=EDGE_LOOP('',(#155,#156,#157,#158));
#42=EDGE_LOOP('',(#159,#160,#161,#162));
#43=EDGE_LOOP('',(#163,#164,#165,#166));
#44=EDGE_LOOP('',(#167,#168,#169,#170));
#45=EDGE_LOOP('',(#171,#172,#173,#174,#175));
#46=EDGE_LOOP('',(#176,#177,#178,#179,#180,#181));
#47=EDGE_LOOP('',(#182,#183,#184,#185,#186));
#48=EDGE_LOOP('',(#187,#188,#189,#190));
#49=EDGE_LOOP('',(#191,#192,#193,#194));
#50=EDGE_LOOP('',(#195,#196,#197,#198));
#51=EDGE_LOOP('',(#199,#200,#201,#202));
#52=EDGE_LOOP('',(#203,#204,#205,#206,#207));
#53=EDGE_LOOP('',(#208,#209,#210,#211,#212,#213));
#54=EDGE_LOOP('',(#214,#215,#216,#217,#218));
#55=EDGE_LOOP('',(#219));
#56=EDGE_LOOP('',(#220));
#57=EDGE_LOOP('',(#221));
#58=EDGE_LOOP('',(#222));
#59=LINE('',#408,#67);
#60=LINE('',#417,#68);
#61=LINE('',#427,#69);
#62=LINE('',#437,#70);
#63=LINE('',#442,#71);
#64=LINE('',#450,#72);
#65=LINE('',#458,#73);
#66=LINE('',#470,#74);
#67=VECTOR('',#315,6.5);
#68=VECTOR('',#328,6.5);
#69=VECTOR('',#341,6.5);
#70=VECTOR('',#354,6.5);
#71=VECTOR('',#359,7.5);
#72=VECTOR('',#370,7.5);
#73=VECTOR('',#381,7.5);
#74=VECTOR('',#396,7.5);
#75=CIRCLE('',#268,6.5);
#76=CIRCLE('',#269,6.5);
#77=CIRCLE('',#271,6.5);
#78=CIRCLE('',#272,28.5);
#79=CIRCLE('',#274,6.5);
#80=CIRCLE('',#276,6.5);
#81=CIRCLE('',#277,28.5);
#82=CIRCLE('',#279,6.5);
#83=CIRCLE('',#280,6.5);
#84=CIRCLE('',#282,6.5);
#85=CIRCLE('',#283,28.5);
#86=CIRCLE('',#284,6.5);
#87=CIRCLE('',#286,6.5);
#88=CIRCLE('',#288,7.5);
#89=CIRCLE('',#289,7.5);
#90=CIRCLE('',#291,27.5000000000001);
#91=CIRCLE('',#292,7.5);
#92=CIRCLE('',#294,7.5);
#93=CIRCLE('',#296,27.5);
#94=CIRCLE('',#297,7.5);
#95=CIRCLE('',#299,7.5);
#96=CIRCLE('',#300,7.5);
#97=CIRCLE('',#302,27.5);
#98=CIRCLE('',#303,7.5);
#99=CIRCLE('',#304,7.5);
#100=CIRCLE('',#306,7.5);
#101=VERTEX_POINT('',#405);
#102=VERTEX_POINT('',#407);
#103=VERTEX_POINT('',#411);
#104=VERTEX_POINT('',#415);
#105=VERTEX_POINT('',#419);
#106=VERTEX_POINT('',#423);
#107=VERTEX_POINT('',#424);
#108=VERTEX_POINT('',#429);
#109=VERTEX_POINT('',#430);
#110=VERTEX_POINT('',#435);
#111=VERTEX_POINT('',#439);
#112=VERTEX_POINT('',#441);
#113=VERTEX_POINT('',#445);
#114=VERTEX_POINT('',#449);
#115=VERTEX_POINT('',#453);
#116=VERTEX_POINT('',#457);
#117=VERTEX_POINT('',#459);
#118=VERTEX_POINT('',#463);
#119=VERTEX_POINT('',#465);
#120=VERTEX_POINT('',#469);
#121=EDGE_CURVE('',#101,#101,#75,.T.);
#122=EDGE_CURVE('',#101,#102,#59,.T.);
#123=EDGE_CURVE('',#102,#102,#76,.T.);
#124=EDGE_CURVE('',#103,#103,#77,.T.);
#125=EDGE_CURVE('',#103,#101,#78,.T.);
#126=EDGE_CURVE('',#104,#104,#79,.T.);
#127=EDGE_CURVE('',#104,#103,#60,.T.);
#128=EDGE_CURVE('',#105,#105,#80,.T.);
#129=EDGE_CURVE('',#105,#104,#81,.T.);
#130=EDGE_CURVE('',#106,#107,#82,.T.);
#131=EDGE_CURVE('',#107,#106,#83,.T.);
#132=EDGE_CURVE('',#106,#105,#61,.T.);
#133=EDGE_CURVE('',#108,#109,#84,.T.);
#134=EDGE_CURVE('',#109,#107,#85,.T.);
#135=EDGE_CURVE('',#109,#108,#86,.T.);
#136=EDGE_CURVE('',#110,#110,#87,.T.);
#137=EDGE_CURVE('',#110,#108,#62,.T.);
#138=EDGE_CURVE('',#111,#111,#88,.T.);
#139=EDGE_CURVE('',#111,#112,#63,.T.);
#140=EDGE_CURVE('',#112,#112,#89,.T.);
#141=EDGE_CURVE('',#112,#113,#90,.T.);
#142=EDGE_CURVE('',#113,#113,#91,.T.);
#143=EDGE_CURVE('',#113,#114,#64,.T.);
#144=EDGE_CURVE('',#114,#114,#92,.T.);
#145=EDGE_CURVE('',#114,#115,#93,.T.);
#146=EDGE_CURVE('',#115,#115,#94,.T.);
#147=EDGE_CURVE('',#115,#116,#65,.T.);
#148=EDGE_CURVE('',#117,#116,#95,.T.);
#149=EDGE_CURVE('',#116,#117,#96,.T.);
#150=EDGE_CURVE('',#117,#118,#97,.T.);
#151=EDGE_CURVE('',#119,#118,#98,.T.);
#152=EDGE_CURVE('',#118,#119,#99,.T.);
#153=EDGE_CURVE('',#119,#120,#66,.T.);
#154=EDGE_CURVE('',#120,#120,#100,.T.);
#155=ORIENTED_EDGE('',*,*,#121,.T.);
#156=ORIENTED_EDGE('',*,*,#122,.T.);
#157=ORIENTED_EDGE('',*,*,#123,.F.);
#158=ORIENTED_EDGE('',*,*,#122,.F.);
#159=ORIENTED_EDGE('',*,*,#124,.T.);
#160=ORIENTED_EDGE('',*,*,#125,.T.);
#161=ORIENTED_EDGE('',*,*,#121,.F.);
#162=ORIENTED_EDGE('',*,*,#125,.F.);
#163=ORIENTED_EDGE('',*,*,#126,.T.);
#164=ORIENTED_EDGE('',*,*,#127,.T.);
#165=ORIENTED_EDGE('',*,*,#124,.F.);
#166=ORIENTED_EDGE('',*,*,#127,.F.);
#167=ORIENTED_EDGE('',*,*,#128,.T.);
#168=ORIENTED_EDGE('',*,*,#129,.T.);
#169=ORIENTED_EDGE('',*,*,#126,.F.);
#170=ORIENTED_EDGE('',*,*,#129,.F.);
#171=ORIENTED_EDGE('',*,*,#130,.T.);
#172=ORIENTED_EDGE('',*,*,#131,.T.);
#173=ORIENTED_EDGE('',*,*,#132,.T.);
#174=ORIENTED_EDGE('',*,*,#128,.F.);
#175=ORIENTED_EDGE('',*,*,#132,.F.);
#176=ORIENTED_EDGE('',*,*,#133,.T.);
#177=ORIENTED_EDGE('',*,*,#134,.T.);
#178=ORIENTED_EDGE('',*,*,#130,.F.);
#179=ORIENTED_EDGE('',*,*,#131,.F.);
#180=ORIENTED_EDGE('',*,*,#134,.F.);
#181=ORIENTED_EDGE('',*,*,#135,.T.);
#182=ORIENTED_EDGE('',*,*,#136,.F.);
#183=ORIENTED_EDGE('',*,*,#137,.T.);
#184=ORIENTED_EDGE('',*,*,#135,.F.);
#185=ORIENTED_EDGE('',*,*,#133,.F.);
#186=ORIENTED_EDGE('',*,*,#137,.F.);
#187=ORIENTED_EDGE('',*,*,#138,.T.);
#188=ORIENTED_EDGE('',*,*,#139,.T.);
#189=ORIENTED_EDGE('',*,*,#140,.F.);
#190=ORIENTED_EDGE('',*,*,#139,.F.);
#191=ORIENTED_EDGE('',*,*,#140,.T.);
#192=ORIENTED_EDGE('',*,*,#141,.T.);
#193=ORIENTED_EDGE('',*,*,#142,.F.);
#194=ORIENTED_EDGE('',*,*,#141,.F.);
#195=ORIENTED_EDGE('',*,*,#142,.T.);
#196=ORIENTED_EDGE('',*,*,#143,.T.);
#197=ORIENTED_EDGE('',*,*,#144,.F.);
#198=ORIENTED_EDGE('',*,*,#143,.F.);
#199=ORIENTED_EDGE('',*,*,#144,.T.);
#200=ORIENTED_EDGE('',*,*,#145,.T.);
#201=ORIENTED_EDGE('',*,*,#146,.F.);
#202=ORIENTED_EDGE('',*,*,#145,.F.);
#203=ORIENTED_EDGE('',*,*,#146,.T.);
#204=ORIENTED_EDGE('',*,*,#147,.T.);
#205=ORIENTED_EDGE('',*,*,#148,.F.);
#206=ORIENTED_EDGE('',*,*,#149,.F.);
#207=ORIENTED_EDGE('',*,*,#147,.F.);
#208=ORIENTED_EDGE('',*,*,#149,.T.);
#209=ORIENTED_EDGE('',*,*,#150,.T.);
#210=ORIENTED_EDGE('',*,*,#151,.F.);
#211=ORIENTED_EDGE('',*,*,#152,.F.);
#212=ORIENTED_EDGE('',*,*,#150,.F.);
#213=ORIENTED_EDGE('',*,*,#148,.T.);
#214=ORIENTED_EDGE('',*,*,#151,.T.);
#215=ORIENTED_EDGE('',*,*,#152,.T.);
#216=ORIENTED_EDGE('',*,*,#153,.T.);
#217=ORIENTED_EDGE('',*,*,#154,.F.);
#218=ORIENTED_EDGE('',*,*,#153,.F.);
#219=ORIENTED_EDGE('',*,*,#138,.F.);
#220=ORIENTED_EDGE('',*,*,#123,.T.);
#221=ORIENTED_EDGE('',*,*,#154,.T.);
#222=ORIENTED_EDGE('',*,*,#136,.T.);
#223=CYLINDRICAL_SURFACE('',#267,6.5);
#224=CYLINDRICAL_SURFACE('',#273,6.5);
#225=CYLINDRICAL_SURFACE('',#278,6.5);
#226=CYLINDRICAL_SURFACE('',#285,6.5);
#227=CYLINDRICAL_SURFACE('',#287,7.5);
#228=CYLINDRICAL_SURFACE('',#293,7.5);
#229=CYLINDRICAL_SURFACE('',#298,7.5);
#230=CYLINDRICAL_SURFACE('',#305,7.5);
#231=ADVANCED_FACE('',(#25),#223,.F.);
#232=ADVANCED_FACE('',(#26),#19,.F.);
#233=ADVANCED_FACE('',(#27),#224,.F.);
#234=ADVANCED_FACE('',(#28),#20,.F.);
#235=ADVANCED_FACE('',(#29),#225,.F.);
#236=ADVANCED_FACE('',(#30),#21,.F.);
#237=ADVANCED_FACE('',(#31),#226,.F.);
#238=ADVANCED_FACE('',(#32),#227,.T.);
#239=ADVANCED_FACE('',(#33),#22,.T.);
#240=ADVANCED_FACE('',(#34),#228,.T.);
#241=ADVANCED_FACE('',(#35),#23,.T.);
#242=ADVANCED_FACE('',(#36),#229,.T.);
#243=ADVANCED_FACE('',(#37),#24,.T.);
#244=ADVANCED_FACE('',(#38),#230,.T.);
#245=ADVANCED_FACE('',(#39,#15),#17,.F.);
#246=ADVANCED_FACE('',(#40,#16),#18,.T.);
#247=CLOSED_SHELL('',(#231,#232,#233,#234,#235,#236,#237,#238,#239,#240,
#241,#242,#243,#244,#245,#246));
#248=DERIVED_UNIT_ELEMENT(#250,1.);
#249=DERIVED_UNIT_ELEMENT(#479,3.);
#250=(
MASS_UNIT()
NAMED_UNIT(*)
SI_UNIT($,.GRAM.)
);
#251=DERIVED_UNIT((#248,#249));
#252=MEASURE_REPRESENTATION_ITEM('density measure',
POSITIVE_RATIO_MEASURE(1.),#251);
#253=PROPERTY_DEFINITION_REPRESENTATION(#258,#255);
#254=PROPERTY_DEFINITION_REPRESENTATION(#259,#256);
#255=REPRESENTATION('material name',(#257),#476);
#256=REPRESENTATION('density',(#252),#476);
#257=DESCRIPTIVE_REPRESENTATION_ITEM('Generico','Generico');
#258=PROPERTY_DEFINITION('material property','material name',#486);
#259=PROPERTY_DEFINITION('material property','density of part',#486);
#260=DATE_TIME_ROLE('creation_date');
#261=APPLIED_DATE_AND_TIME_ASSIGNMENT(#262,#260,(#486));
#262=DATE_AND_TIME(#263,#264);
#263=CALENDAR_DATE(2016,2,2);
#264=LOCAL_TIME(9,57,55.,#265);
#265=COORDINATED_UNIVERSAL_TIME_OFFSET(0,0,.BEHIND.);
#266=AXIS2_PLACEMENT_3D('placement',#403,#309,#310);
#267=AXIS2_PLACEMENT_3D('',#404,#311,#312);
#268=AXIS2_PLACEMENT_3D('',#406,#313,#314);
#269=AXIS2_PLACEMENT_3D('',#409,#316,#317);
#270=AXIS2_PLACEMENT_3D('',#410,#318,#319);
#271=AXIS2_PLACEMENT_3D('',#412,#320,#321);
#272=AXIS2_PLACEMENT_3D('',#413,#322,#323);
#273=AXIS2_PLACEMENT_3D('',#414,#324,#325);
#274=AXIS2_PLACEMENT_3D('',#416,#326,#327);
#275=AXIS2_PLACEMENT_3D('',#418,#329,#330);
#276=AXIS2_PLACEMENT_3D('',#420,#331,#332);
#277=AXIS2_PLACEMENT_3D('',#421,#333,#334);
#278=AXIS2_PLACEMENT_3D('',#422,#335,#336);
#279=AXIS2_PLACEMENT_3D('',#425,#337,#338);
#280=AXIS2_PLACEMENT_3D('',#426,#339,#340);
#281=AXIS2_PLACEMENT_3D('',#428,#342,#343);
#282=AXIS2_PLACEMENT_3D('',#431,#344,#345);
#283=AXIS2_PLACEMENT_3D('',#432,#346,#347);
#284=AXIS2_PLACEMENT_3D('',#433,#348,#349);
#285=AXIS2_PLACEMENT_3D('',#434,#350,#351);
#286=AXIS2_PLACEMENT_3D('',#436,#352,#353);
#287=AXIS2_PLACEMENT_3D('',#438,#355,#356);
#288=AXIS2_PLACEMENT_3D('',#440,#357,#358);
#289=AXIS2_PLACEMENT_3D('',#443,#360,#361);
#290=AXIS2_PLACEMENT_3D('',#444,#362,#363);
#291=AXIS2_PLACEMENT_3D('',#446,#364,#365);
#292=AXIS2_PLACEMENT_3D('',#447,#366,#367);
#293=AXIS2_PLACEMENT_3D('',#448,#368,#369);
#294=AXIS2_PLACEMENT_3D('',#451,#371,#372);
#295=AXIS2_PLACEMENT_3D('',#452,#373,#374);
#296=AXIS2_PLACEMENT_3D('',#454,#375,#376);
#297=AXIS2_PLACEMENT_3D('',#455,#377,#378);
#298=AXIS2_PLACEMENT_3D('',#456,#379,#380);
#299=AXIS2_PLACEMENT_3D('',#460,#382,#383);
#300=AXIS2_PLACEMENT_3D('',#461,#384,#385);
#301=AXIS2_PLACEMENT_3D('',#462,#386,#387);
#302=AXIS2_PLACEMENT_3D('',#464,#388,#389);
#303=AXIS2_PLACEMENT_3D('',#466,#390,#391);
#304=AXIS2_PLACEMENT_3D('',#467,#392,#393);
#305=AXIS2_PLACEMENT_3D('',#468,#394,#395);
#306=AXIS2_PLACEMENT_3D('',#471,#397,#398);
#307=AXIS2_PLACEMENT_3D('',#472,#399,#400);
#308=AXIS2_PLACEMENT_3D('',#473,#401,#402);
#309=DIRECTION('axis',(0.,0.,1.));
#310=DIRECTION('refdir',(1.,0.,0.));
#311=DIRECTION('center_axis',(-1.,0.,0.));
#312=DIRECTION('ref_axis',(0.,1.,0.));
#313=DIRECTION('center_axis',(1.,-1.66533453693773E-16,0.));
#314=DIRECTION('ref_axis',(1.70803542250024E-16,1.,0.));
#315=DIRECTION('',(-1.,0.,0.));
#316=DIRECTION('center_axis',(1.,0.,0.));
#317=DIRECTION('ref_axis',(0.,1.,0.));
#318=DIRECTION('center_axis',(0.,0.,1.));
#319=DIRECTION('ref_axis',(1.,0.,0.));
#320=DIRECTION('center_axis',(-1.,1.66533453693773E-16,0.));
#321=DIRECTION('ref_axis',(-1.70803542250024E-16,-1.,0.));
#322=DIRECTION('center_axis',(0.,0.,1.));
#323=DIRECTION('ref_axis',(1.,0.,0.));
#324=DIRECTION('center_axis',(1.,-2.32958269387304E-16,0.));
#325=DIRECTION('ref_axis',(-2.32958269387304E-16,-1.,0.));
#326=DIRECTION('center_axis',(-1.,1.66533453693773E-16,0.));
#327=DIRECTION('ref_axis',(-1.70803542250024E-16,-1.,0.));
#328=DIRECTION('',(1.,-2.32958269387304E-16,0.));
#329=DIRECTION('center_axis',(0.,0.,1.));
#330=DIRECTION('ref_axis',(1.,0.,0.));
#331=DIRECTION('center_axis',(-0.681250038633213,0.732050807568878,0.));
#332=DIRECTION('ref_axis',(-0.732050807568878,-0.681250038633213,0.));
#333=DIRECTION('center_axis',(0.,0.,1.));
#334=DIRECTION('ref_axis',(1.,0.,0.));
#335=DIRECTION('center_axis',(0.681250038633213,-0.732050807568877,0.));
#336=DIRECTION('ref_axis',(-0.732050807568877,-0.681250038633213,0.));
#337=DIRECTION('center_axis',(-0.681250038633213,0.732050807568878,0.));
#338=DIRECTION('ref_axis',(-0.732050807568878,-0.681250038633213,0.));
#339=DIRECTION('center_axis',(-0.681250038633213,0.732050807568878,0.));
#340=DIRECTION('ref_axis',(-0.732050807568878,-0.681250038633213,0.));
#341=DIRECTION('',(0.681250038633213,-0.732050807568877,0.));
#342=DIRECTION('center_axis',(0.,0.,-1.));
#343=DIRECTION('ref_axis',(-1.,0.,0.));
#344=DIRECTION('center_axis',(-1.,0.,0.));
#345=DIRECTION('ref_axis',(0.,-1.,0.));
#346=DIRECTION('center_axis',(0.,0.,-1.));
#347=DIRECTION('ref_axis',(-1.,0.,0.));
#348=DIRECTION('center_axis',(-1.,0.,0.));
#349=DIRECTION('ref_axis',(0.,-1.,0.));
#350=DIRECTION('center_axis',(1.,4.75015848697791E-16,0.));
#351=DIRECTION('ref_axis',(4.75015848697791E-16,-1.,0.));
#352=DIRECTION('center_axis',(1.,0.,0.));
#353=DIRECTION('ref_axis',(4.75015848697791E-16,-1.,0.));
#354=DIRECTION('',(1.,4.75015848697791E-16,0.));
#355=DIRECTION('center_axis',(-1.,0.,0.));
#356=DIRECTION('ref_axis',(0.,1.,0.));
#357=DIRECTION('center_axis',(1.,-1.66533453693773E-16,0.));
#358=DIRECTION('ref_axis',(7.40148683083438E-17,1.,0.));
#359=DIRECTION('',(1.,0.,0.));
#360=DIRECTION('center_axis',(1.,-1.66533453693773E-16,0.));
#361=DIRECTION('ref_axis',(7.40148683083438E-17,1.,0.));
#362=DIRECTION('center_axis',(0.,0.,1.));
#363=DIRECTION('ref_axis',(1.,0.,0.));
#364=DIRECTION('center_axis',(0.,0.,-1.));
#365=DIRECTION('ref_axis',(1.,0.,0.));
#366=DIRECTION('center_axis',(-1.,1.66533453693773E-16,0.));
#367=DIRECTION('ref_axis',(-7.40148683083438E-17,-1.,0.));
#368=DIRECTION('center_axis',(1.,-2.32958269387304E-16,0.));
#369=DIRECTION('ref_axis',(-2.32958269387304E-16,-1.,0.));
#370=DIRECTION('',(-1.,2.32958269387304E-16,0.));
#371=DIRECTION('center_axis',(-1.,1.66533453693773E-16,0.));
#372=DIRECTION('ref_axis',(-7.40148683083438E-17,-1.,0.));
#373=DIRECTION('center_axis',(0.,0.,1.));
#374=DIRECTION('ref_axis',(1.,0.,0.));
#375=DIRECTION('center_axis',(0.,0.,-1.));
#376=DIRECTION('ref_axis',(1.,0.,0.));
#377=DIRECTION('center_axis',(-0.681250038633213,0.732050807568878,0.));
#378=DIRECTION('ref_axis',(-0.732050807568878,-0.681250038633213,0.));
#379=DIRECTION('center_axis',(0.681250038633213,-0.732050807568877,0.));
#380=DIRECTION('ref_axis',(-0.732050807568877,-0.681250038633213,0.));
#381=DIRECTION('',(-0.681250038633213,0.732050807568877,0.));
#382=DIRECTION('center_axis',(-0.681250038633213,0.732050807568878,0.));
#383=DIRECTION('ref_axis',(-0.732050807568878,-0.681250038633213,0.));
#384=DIRECTION('center_axis',(-0.681250038633213,0.732050807568878,0.));
#385=DIRECTION('ref_axis',(-0.732050807568878,-0.681250038633213,0.));
#386=DIRECTION('center_axis',(0.,0.,-1.));
#387=DIRECTION('ref_axis',(-1.,0.,0.));
#388=DIRECTION('center_axis',(0.,0.,1.));
#389=DIRECTION('ref_axis',(-1.,0.,0.));
#390=DIRECTION('center_axis',(-1.,0.,0.));
#391=DIRECTION('ref_axis',(0.,-1.,0.));
#392=DIRECTION('center_axis',(-1.,0.,0.));
#393=DIRECTION('ref_axis',(0.,-1.,0.));
#394=DIRECTION('center_axis',(1.,4.75015848697791E-16,0.));
#395=DIRECTION('ref_axis',(4.75015848697791E-16,-1.,0.));
#396=DIRECTION('',(-1.,-4.75015848697791E-16,0.));
#397=DIRECTION('center_axis',(-1.,0.,0.));
#398=DIRECTION('ref_axis',(0.,-1.,0.));
#399=DIRECTION('center_axis',(1.,0.,0.));
#400=DIRECTION('ref_axis',(0.,0.,-1.));
#401=DIRECTION('center_axis',(-1.,0.,0.));
#402=DIRECTION('ref_axis',(0.,0.,1.));
#403=CARTESIAN_POINT('',(0.,0.,0.));
#404=CARTESIAN_POINT('Origin',(240.,1.77635683940025E-14,0.));
#405=CARTESIAN_POINT('',(240.,-6.49999999999999,7.9602041944578E-16));
#406=CARTESIAN_POINT('Origin',(240.,1.77635683940025E-14,0.));
#407=CARTESIAN_POINT('',(210.,-6.49999999999999,7.9602041944578E-16));
#408=CARTESIAN_POINT('',(240.,-6.49999999999998,7.9602041944578E-16));
#409=CARTESIAN_POINT('Origin',(210.,1.77635683940025E-14,0.));
#410=CARTESIAN_POINT('Origin',(240.,-35.,0.));
#411=CARTESIAN_POINT('',(240.,-63.5,7.9602041944578E-16));
#412=CARTESIAN_POINT('Origin',(240.,-70.0000000000001,0.));
#413=CARTESIAN_POINT('Origin',(240.,-35.,-7.9602041944578E-16));
#414=CARTESIAN_POINT('Origin',(125.621778264911,-70.,0.));
#415=CARTESIAN_POINT('',(125.621778264911,-63.5,7.9602041944578E-16));
#416=CARTESIAN_POINT('Origin',(125.621778264911,-70.,0.));
#417=CARTESIAN_POINT('',(125.621778264911,-63.5,7.9602041944578E-16));
#418=CARTESIAN_POINT('Origin',(125.621778264911,-35.,0.));
#419=CARTESIAN_POINT('',(104.758330249198,-54.4156261010466,7.9602041944578E-16));
#420=CARTESIAN_POINT('Origin',(100.,-58.8437513521625,0.));
#421=CARTESIAN_POINT('Origin',(125.621778264911,-35.,-7.9602041944578E-16));
#422=CARTESIAN_POINT('Origin',(55.6217782649107,-11.1562486478375,0.));
#423=CARTESIAN_POINT('',(60.3801085141084,-6.72812339672164,7.9602041944578E-16));
#424=CARTESIAN_POINT('',(50.863448015713,-15.5843738989534,7.9602041944578E-16));
#425=CARTESIAN_POINT('Origin',(55.6217782649107,-11.1562486478375,0.));
#426=CARTESIAN_POINT('Origin',(55.6217782649107,-11.1562486478375,0.));
#427=CARTESIAN_POINT('',(60.3801085141084,-6.72812339672165,7.9602041944578E-16));
#428=CARTESIAN_POINT('Origin',(30.,-35.,0.));
#429=CARTESIAN_POINT('',(30.,6.50000000000001,7.9602041944578E-16));
#430=CARTESIAN_POINT('',(30.,-6.49999999999999,7.9602041944578E-16));
#431=CARTESIAN_POINT('Origin',(30.,1.42504754609337E-14,0.));
#432=CARTESIAN_POINT('Origin',(30.,-35.,7.9602041944578E-16));
#433=CARTESIAN_POINT('Origin',(30.,1.42504754609337E-14,0.));
#434=CARTESIAN_POINT('Origin',(0.,0.,0.));
#435=CARTESIAN_POINT('',(0.,6.5,7.9602041944578E-16));
#436=CARTESIAN_POINT('Origin',(0.,0.,0.));
#437=CARTESIAN_POINT('',(-3.08760301653564E-15,6.5,7.9602041944578E-16));
#438=CARTESIAN_POINT('Origin',(240.,1.77635683940025E-14,0.));
#439=CARTESIAN_POINT('',(210.,-7.49999999999997,9.18485099360515E-16));
#440=CARTESIAN_POINT('Origin',(210.,1.77635683940025E-14,0.));
#441=CARTESIAN_POINT('',(240.,-7.49999999999997,9.18485099360515E-16));
#442=CARTESIAN_POINT('',(240.,-7.49999999999998,9.18485099360515E-16));
#443=CARTESIAN_POINT('Origin',(240.,1.77635683940025E-14,0.));
#444=CARTESIAN_POINT('Origin',(240.,-35.,0.));
#445=CARTESIAN_POINT('',(240.,-62.5,9.18485099360515E-16));
#446=CARTESIAN_POINT('Origin',(240.,-35.,-9.18485099360515E-16));
#447=CARTESIAN_POINT('Origin',(240.,-70.0000000000001,0.));
#448=CARTESIAN_POINT('Origin',(125.621778264911,-70.,0.));
#449=CARTESIAN_POINT('',(125.621778264911,-62.5,9.18485099360515E-16));
#450=CARTESIAN_POINT('',(125.621778264911,-62.5,9.18485099360515E-16));
#451=CARTESIAN_POINT('Origin',(125.621778264911,-70.,0.));
#452=CARTESIAN_POINT('Origin',(125.621778264911,-35.,0.));
#453=CARTESIAN_POINT('',(105.490381056767,-53.7343760624134,9.18485099360515E-16));
#454=CARTESIAN_POINT('Origin',(125.621778264911,-35.,-9.18485099360515E-16));
#455=CARTESIAN_POINT('Origin',(100.,-58.8437513521625,0.));
#456=CARTESIAN_POINT('Origin',(55.6217782649107,-11.1562486478375,0.));
#457=CARTESIAN_POINT('',(61.1121593216773,-6.04687335808843,9.18485099360515E-16));
#458=CARTESIAN_POINT('',(61.1121593216773,-6.04687335808844,9.18485099360515E-16));
#459=CARTESIAN_POINT('',(50.1313972081441,-16.2656239375866,9.18485099360515E-16));
#460=CARTESIAN_POINT('Origin',(55.6217782649107,-11.1562486478375,0.));
#461=CARTESIAN_POINT('Origin',(55.6217782649107,-11.1562486478375,0.));
#462=CARTESIAN_POINT('Origin',(30.,-35.,0.));
#463=CARTESIAN_POINT('',(30.,-7.49999999999999,9.18485099360515E-16));
#464=CARTESIAN_POINT('Origin',(30.,-35.,9.18485099360515E-16));
#465=CARTESIAN_POINT('',(30.,7.50000000000001,9.18485099360515E-16));
#466=CARTESIAN_POINT('Origin',(30.,1.42504754609337E-14,0.));
#467=CARTESIAN_POINT('Origin',(30.,1.42504754609337E-14,0.));
#468=CARTESIAN_POINT('Origin',(0.,0.,0.));
#469=CARTESIAN_POINT('',(0.,7.5,9.18485099360515E-16));
#470=CARTESIAN_POINT('',(-3.56261886523343E-15,7.5,9.18485099360515E-16));
#471=CARTESIAN_POINT('Origin',(0.,0.,0.));
#472=CARTESIAN_POINT('Origin',(210.,0.,0.));
#473=CARTESIAN_POINT('Origin',(0.,0.,0.));
#474=UNCERTAINTY_MEASURE_WITH_UNIT(LENGTH_MEASURE(0.01),#478,
'DISTANCE_ACCURACY_VALUE',
'Maximum model space distance between geometric entities at asserted c
onnectivities');
#475=UNCERTAINTY_MEASURE_WITH_UNIT(LENGTH_MEASURE(0.01),#478,
'DISTANCE_ACCURACY_VALUE',
'Maximum model space distance between geometric entities at asserted c
onnectivities');
#476=(
GEOMETRIC_REPRESENTATION_CONTEXT(3)
GLOBAL_UNCERTAINTY_ASSIGNED_CONTEXT((#474))
GLOBAL_UNIT_ASSIGNED_CONTEXT((#478,#480,#481))
REPRESENTATION_CONTEXT('','3D')
);
#477=(
GEOMETRIC_REPRESENTATION_CONTEXT(3)
GLOBAL_UNCERTAINTY_ASSIGNED_CONTEXT((#475))
GLOBAL_UNIT_ASSIGNED_CONTEXT((#478,#480,#481))
REPRESENTATION_CONTEXT('','3D')
);
#478=(
LENGTH_UNIT()
NAMED_UNIT(*)
SI_UNIT(.MILLI.,.METRE.)
);
#479=(
LENGTH_UNIT()
NAMED_UNIT(*)
SI_UNIT(.CENTI.,.METRE.)
);
#480=(
NAMED_UNIT(*)
PLANE_ANGLE_UNIT()
SI_UNIT($,.RADIAN.)
);
#481=(
NAMED_UNIT(*)
SI_UNIT($,.STERADIAN.)
SOLID_ANGLE_UNIT()
);
#482=SHAPE_DEFINITION_REPRESENTATION(#483,#484);
#483=PRODUCT_DEFINITION_SHAPE('',$,#486);
#484=SHAPE_REPRESENTATION('',(#266),#476);
#485=PRODUCT_DEFINITION_CONTEXT('part definition',#490,'design');
#486=PRODUCT_DEFINITION('178015316_Inoxpres','178015316_Inoxpres',#487,
#485);
#487=PRODUCT_DEFINITION_FORMATION('0',$,#492);
#488=PRODUCT_RELATED_PRODUCT_CATEGORY('178015316_Inoxpres',
'178015316_Inoxpres',(#492));
#489=APPLICATION_PROTOCOL_DEFINITION('international standard',
'automotive_design',2009,#490);
#490=APPLICATION_CONTEXT(
'Core Data for Automotive Mechanical Design Process');
#491=PRODUCT_CONTEXT('part definition',#490,'mechanical');
#492=PRODUCT('178015316_Inoxpres','178015316_Inoxpres',
'TUBO PER ARIA COMPRESSA \X\D815',(#491));
#493=PRESENTATION_STYLE_ASSIGNMENT((#494));
#494=SURFACE_STYLE_USAGE(.BOTH.,#497);
#495=SURFACE_STYLE_RENDERING_WITH_PROPERTIES($,#501,(#496));
#496=SURFACE_STYLE_TRANSPARENT(0.);
#497=SURFACE_SIDE_STYLE('',(#498,#495));
#498=SURFACE_STYLE_FILL_AREA(#499);
#499=FILL_AREA_STYLE('',(#500));
#500=FILL_AREA_STYLE_COLOUR('',#501);
#501=COLOUR_RGB('',0.886274509803922,0.917647058823529,0.894117647058824);
ENDSEC;
END-ISO-10303-21;
