ISO-10303-21;
HEADER;
/* Generated by software containing ST-Developer
 * from STEP Tools, Inc. (www.steptools.com) 
 */

FILE_DESCRIPTION(
/* description */ ('TAPPO DI CHIUSURA DN35'),
/* implementation_level */ '2;1');

FILE_NAME(
/* name */ 
'R:\\Disegni3D_Area_Manager\\Steelpres.step\\383_003_STEELPRES\\383035
003_Steelpres.stp',
/* time_stamp */ '2022-10-21T16:15:59+02:00',
/* author */ ('Vault'),
/* organization */ ('Raccorderie metalliche s.p.a. '),
/* preprocessor_version */ 'ST-DEVELOPER v18.1',
/* originating_system */ 'Autodesk Inventor 2020',
/* authorisation */ 'Raccorderie metalliche s.p.a. ');

FILE_SCHEMA (('AUTOMOTIVE_DESIGN { 1 0 10303 214 3 1 1 }'));
ENDSEC;

DATA;
#10=MECHANICAL_DESIGN_GEOMETRIC_PRESENTATION_REPRESENTATION('',(#13),#422);
#11=SHAPE_REPRESENTATION_RELATIONSHIP('SRR','None',#429,#12);
#12=ADVANCED_BREP_SHAPE_REPRESENTATION('',(#14),#421);
#13=STYLED_ITEM('',(#438),#14);
#14=MANIFOLD_SOLID_BREP('Solido1',#213);
#15=PLANE('',#252);
#16=PLANE('',#260);
#17=CONICAL_SURFACE('',#248,18.7,0.785398163397448);
#18=LINE('',#371,#23);
#19=LINE('',#385,#24);
#20=LINE('',#391,#25);
#21=LINE('',#405,#26);
#22=LINE('',#413,#27);
#23=VECTOR('',#291,17.9);
#24=VECTOR('',#308,18.7);
#25=VECTOR('',#317,19.2);
#26=VECTOR('',#334,17.7);
#27=VECTOR('',#345,17.9);
#28=CYLINDRICAL_SURFACE('',#239,17.9);
#29=CYLINDRICAL_SURFACE('',#253,19.2);
#30=CYLINDRICAL_SURFACE('',#261,17.7);
#31=CYLINDRICAL_SURFACE('',#266,17.9);
#32=FACE_OUTER_BOUND('',#44,.T.);
#33=FACE_OUTER_BOUND('',#45,.T.);
#34=FACE_OUTER_BOUND('',#46,.T.);
#35=FACE_OUTER_BOUND('',#47,.T.);
#36=FACE_OUTER_BOUND('',#48,.T.);
#37=FACE_OUTER_BOUND('',#49,.T.);
#38=FACE_OUTER_BOUND('',#50,.T.);
#39=FACE_OUTER_BOUND('',#51,.T.);
#40=FACE_OUTER_BOUND('',#52,.T.);
#41=FACE_OUTER_BOUND('',#53,.T.);
#42=FACE_OUTER_BOUND('',#54,.T.);
#43=FACE_OUTER_BOUND('',#55,.T.);
#44=EDGE_LOOP('',(#134,#135,#136,#137,#138,#139));
#45=EDGE_LOOP('',(#140,#141,#142,#143,#144,#145));
#46=EDGE_LOOP('',(#146,#147,#148,#149,#150,#151));
#47=EDGE_LOOP('',(#152,#153,#154,#155,#156));
#48=EDGE_LOOP('',(#157));
#49=EDGE_LOOP('',(#158,#159,#160,#161,#162,#163));
#50=EDGE_LOOP('',(#164,#165,#166,#167,#168,#169));
#51=EDGE_LOOP('',(#170,#171));
#52=EDGE_LOOP('',(#172,#173,#174,#175,#176,#177));
#53=EDGE_LOOP('',(#178,#179,#180,#181,#182,#183));
#54=EDGE_LOOP('',(#184,#185,#186,#187,#188,#189));
#55=EDGE_LOOP('',(#190,#191,#192,#193,#194,#195));
#56=CIRCLE('',#234,19.2);
#57=CIRCLE('',#235,19.2);
#58=CIRCLE('',#236,3.81321579387026);
#59=CIRCLE('',#237,18.5858469274164);
#60=CIRCLE('',#238,18.5858469274164);
#61=CIRCLE('',#240,17.9);
#62=CIRCLE('',#241,17.9);
#63=CIRCLE('',#242,17.9);
#64=CIRCLE('',#243,17.9);
#65=CIRCLE('',#245,17.9);
#66=CIRCLE('',#246,17.9);
#67=CIRCLE('',#247,3.);
#68=CIRCLE('',#249,18.2);
#69=CIRCLE('',#250,19.2);
#70=CIRCLE('',#251,19.2);
#71=CIRCLE('',#255,16.9);
#72=CIRCLE('',#256,0.8);
#73=CIRCLE('',#257,17.7);
#74=CIRCLE('',#258,17.7);
#75=CIRCLE('',#259,16.9);
#76=CIRCLE('',#262,17.7);
#77=CIRCLE('',#263,17.7);
#78=CIRCLE('',#265,2.);
#79=CIRCLE('',#267,17.9);
#80=CIRCLE('',#268,17.9);
#81=CIRCLE('',#270,0.6);
#82=VERTEX_POINT('',#356);
#83=VERTEX_POINT('',#357);
#84=VERTEX_POINT('',#360);
#85=VERTEX_POINT('',#362);
#86=VERTEX_POINT('',#366);
#87=VERTEX_POINT('',#367);
#88=VERTEX_POINT('',#370);
#89=VERTEX_POINT('',#372);
#90=VERTEX_POINT('',#376);
#91=VERTEX_POINT('',#377);
#92=VERTEX_POINT('',#382);
#93=VERTEX_POINT('',#384);
#94=VERTEX_POINT('',#386);
#95=VERTEX_POINT('',#393);
#96=VERTEX_POINT('',#394);
#97=VERTEX_POINT('',#396);
#98=VERTEX_POINT('',#398);
#99=VERTEX_POINT('',#404);
#100=VERTEX_POINT('',#406);
#101=VERTEX_POINT('',#412);
#102=VERTEX_POINT('',#414);
#103=EDGE_CURVE('',#82,#83,#56,.T.);
#104=EDGE_CURVE('',#83,#82,#57,.T.);
#105=EDGE_CURVE('',#83,#84,#58,.T.);
#106=EDGE_CURVE('',#84,#85,#59,.T.);
#107=EDGE_CURVE('',#85,#84,#60,.T.);
#108=EDGE_CURVE('',#86,#87,#61,.T.);
#109=EDGE_CURVE('',#87,#86,#62,.T.);
#110=EDGE_CURVE('',#87,#88,#18,.T.);
#111=EDGE_CURVE('',#89,#88,#63,.T.);
#112=EDGE_CURVE('',#88,#89,#64,.T.);
#113=EDGE_CURVE('',#90,#91,#65,.T.);
#114=EDGE_CURVE('',#91,#90,#66,.T.);
#115=EDGE_CURVE('',#91,#88,#67,.T.);
#116=EDGE_CURVE('',#92,#92,#68,.T.);
#117=EDGE_CURVE('',#92,#93,#19,.T.);
#118=EDGE_CURVE('',#93,#94,#69,.T.);
#119=EDGE_CURVE('',#94,#93,#70,.T.);
#120=EDGE_CURVE('',#94,#83,#20,.T.);
#121=EDGE_CURVE('',#95,#96,#71,.T.);
#122=EDGE_CURVE('',#96,#97,#72,.T.);
#123=EDGE_CURVE('',#97,#98,#73,.T.);
#124=EDGE_CURVE('',#98,#97,#74,.T.);
#125=EDGE_CURVE('',#96,#95,#75,.T.);
#126=EDGE_CURVE('',#97,#99,#21,.T.);
#127=EDGE_CURVE('',#100,#99,#76,.T.);
#128=EDGE_CURVE('',#99,#100,#77,.T.);
#129=EDGE_CURVE('',#87,#99,#78,.T.);
#130=EDGE_CURVE('',#91,#101,#22,.T.);
#131=EDGE_CURVE('',#102,#101,#79,.T.);
#132=EDGE_CURVE('',#101,#102,#80,.T.);
#133=EDGE_CURVE('',#84,#101,#81,.T.);
#134=ORIENTED_EDGE('',*,*,#103,.F.);
#135=ORIENTED_EDGE('',*,*,#104,.F.);
#136=ORIENTED_EDGE('',*,*,#105,.T.);
#137=ORIENTED_EDGE('',*,*,#106,.T.);
#138=ORIENTED_EDGE('',*,*,#107,.T.);
#139=ORIENTED_EDGE('',*,*,#105,.F.);
#140=ORIENTED_EDGE('',*,*,#108,.F.);
#141=ORIENTED_EDGE('',*,*,#109,.F.);
#142=ORIENTED_EDGE('',*,*,#110,.T.);
#143=ORIENTED_EDGE('',*,*,#111,.F.);
#144=ORIENTED_EDGE('',*,*,#112,.F.);
#145=ORIENTED_EDGE('',*,*,#110,.F.);
#146=ORIENTED_EDGE('',*,*,#113,.F.);
#147=ORIENTED_EDGE('',*,*,#114,.F.);
#148=ORIENTED_EDGE('',*,*,#115,.T.);
#149=ORIENTED_EDGE('',*,*,#112,.T.);
#150=ORIENTED_EDGE('',*,*,#111,.T.);
#151=ORIENTED_EDGE('',*,*,#115,.F.);
#152=ORIENTED_EDGE('',*,*,#116,.T.);
#153=ORIENTED_EDGE('',*,*,#117,.T.);
#154=ORIENTED_EDGE('',*,*,#118,.T.);
#155=ORIENTED_EDGE('',*,*,#119,.T.);
#156=ORIENTED_EDGE('',*,*,#117,.F.);
#157=ORIENTED_EDGE('',*,*,#116,.F.);
#158=ORIENTED_EDGE('',*,*,#118,.F.);
#159=ORIENTED_EDGE('',*,*,#119,.F.);
#160=ORIENTED_EDGE('',*,*,#120,.T.);
#161=ORIENTED_EDGE('',*,*,#104,.T.);
#162=ORIENTED_EDGE('',*,*,#103,.T.);
#163=ORIENTED_EDGE('',*,*,#120,.F.);
#164=ORIENTED_EDGE('',*,*,#121,.T.);
#165=ORIENTED_EDGE('',*,*,#122,.T.);
#166=ORIENTED_EDGE('',*,*,#123,.T.);
#167=ORIENTED_EDGE('',*,*,#124,.T.);
#168=ORIENTED_EDGE('',*,*,#122,.F.);
#169=ORIENTED_EDGE('',*,*,#125,.T.);
#170=ORIENTED_EDGE('',*,*,#121,.F.);
#171=ORIENTED_EDGE('',*,*,#125,.F.);
#172=ORIENTED_EDGE('',*,*,#124,.F.);
#173=ORIENTED_EDGE('',*,*,#123,.F.);
#174=ORIENTED_EDGE('',*,*,#126,.T.);
#175=ORIENTED_EDGE('',*,*,#127,.F.);
#176=ORIENTED_EDGE('',*,*,#128,.F.);
#177=ORIENTED_EDGE('',*,*,#126,.F.);
#178=ORIENTED_EDGE('',*,*,#108,.T.);
#179=ORIENTED_EDGE('',*,*,#129,.T.);
#180=ORIENTED_EDGE('',*,*,#128,.T.);
#181=ORIENTED_EDGE('',*,*,#127,.T.);
#182=ORIENTED_EDGE('',*,*,#129,.F.);
#183=ORIENTED_EDGE('',*,*,#109,.T.);
#184=ORIENTED_EDGE('',*,*,#113,.T.);
#185=ORIENTED_EDGE('',*,*,#130,.T.);
#186=ORIENTED_EDGE('',*,*,#131,.F.);
#187=ORIENTED_EDGE('',*,*,#132,.F.);
#188=ORIENTED_EDGE('',*,*,#130,.F.);
#189=ORIENTED_EDGE('',*,*,#114,.T.);
#190=ORIENTED_EDGE('',*,*,#107,.F.);
#191=ORIENTED_EDGE('',*,*,#106,.F.);
#192=ORIENTED_EDGE('',*,*,#133,.T.);
#193=ORIENTED_EDGE('',*,*,#132,.T.);
#194=ORIENTED_EDGE('',*,*,#131,.T.);
#195=ORIENTED_EDGE('',*,*,#133,.F.);
#196=TOROIDAL_SURFACE('',#233,18.0402588282837,3.81321579387026);
#197=TOROIDAL_SURFACE('',#244,20.5,3.);
#198=TOROIDAL_SURFACE('',#254,16.9,0.8);
#199=TOROIDAL_SURFACE('',#264,19.7,2.);
#200=TOROIDAL_SURFACE('',#269,18.5,0.6);
#201=ADVANCED_FACE('',(#32),#196,.T.);
#202=ADVANCED_FACE('',(#33),#28,.F.);
#203=ADVANCED_FACE('',(#34),#197,.T.);
#204=ADVANCED_FACE('',(#35),#17,.T.);
#205=ADVANCED_FACE('',(#36),#15,.T.);
#206=ADVANCED_FACE('',(#37),#29,.T.);
#207=ADVANCED_FACE('',(#38),#198,.F.);
#208=ADVANCED_FACE('',(#39),#16,.T.);
#209=ADVANCED_FACE('',(#40),#30,.F.);
#210=ADVANCED_FACE('',(#41),#199,.T.);
#211=ADVANCED_FACE('',(#42),#31,.F.);
#212=ADVANCED_FACE('',(#43),#200,.T.);
#213=CLOSED_SHELL('',(#201,#202,#203,#204,#205,#206,#207,#208,#209,#210,
#211,#212));
#214=DERIVED_UNIT_ELEMENT(#216,1.);
#215=DERIVED_UNIT_ELEMENT(#424,3.);
#216=(
MASS_UNIT()
NAMED_UNIT(*)
SI_UNIT($,.GRAM.)
);
#217=DERIVED_UNIT((#214,#215));
#218=MEASURE_REPRESENTATION_ITEM('density measure',
POSITIVE_RATIO_MEASURE(1.),#217);
#219=PROPERTY_DEFINITION_REPRESENTATION(#224,#221);
#220=PROPERTY_DEFINITION_REPRESENTATION(#225,#222);
#221=REPRESENTATION('material name',(#223),#421);
#222=REPRESENTATION('density',(#218),#421);
#223=DESCRIPTIVE_REPRESENTATION_ITEM('Generico','Generico');
#224=PROPERTY_DEFINITION('material property','material name',#431);
#225=PROPERTY_DEFINITION('material property','density of part',#431);
#226=DATE_TIME_ROLE('creation_date');
#227=APPLIED_DATE_AND_TIME_ASSIGNMENT(#228,#226,(#431));
#228=DATE_AND_TIME(#229,#230);
#229=CALENDAR_DATE(2016,12,1);
#230=LOCAL_TIME(14,59,2.,#231);
#231=COORDINATED_UNIVERSAL_TIME_OFFSET(0,0,.BEHIND.);
#232=AXIS2_PLACEMENT_3D('placement',#354,#271,#272);
#233=AXIS2_PLACEMENT_3D('',#355,#273,#274);
#234=AXIS2_PLACEMENT_3D('',#358,#275,#276);
#235=AXIS2_PLACEMENT_3D('',#359,#277,#278);
#236=AXIS2_PLACEMENT_3D('',#361,#279,#280);
#237=AXIS2_PLACEMENT_3D('',#363,#281,#282);
#238=AXIS2_PLACEMENT_3D('',#364,#283,#284);
#239=AXIS2_PLACEMENT_3D('',#365,#285,#286);
#240=AXIS2_PLACEMENT_3D('',#368,#287,#288);
#241=AXIS2_PLACEMENT_3D('',#369,#289,#290);
#242=AXIS2_PLACEMENT_3D('',#373,#292,#293);
#243=AXIS2_PLACEMENT_3D('',#374,#294,#295);
#244=AXIS2_PLACEMENT_3D('',#375,#296,#297);
#245=AXIS2_PLACEMENT_3D('',#378,#298,#299);
#246=AXIS2_PLACEMENT_3D('',#379,#300,#301);
#247=AXIS2_PLACEMENT_3D('',#380,#302,#303);
#248=AXIS2_PLACEMENT_3D('',#381,#304,#305);
#249=AXIS2_PLACEMENT_3D('',#383,#306,#307);
#250=AXIS2_PLACEMENT_3D('',#387,#309,#310);
#251=AXIS2_PLACEMENT_3D('',#388,#311,#312);
#252=AXIS2_PLACEMENT_3D('',#389,#313,#314);
#253=AXIS2_PLACEMENT_3D('',#390,#315,#316);
#254=AXIS2_PLACEMENT_3D('',#392,#318,#319);
#255=AXIS2_PLACEMENT_3D('',#395,#320,#321);
#256=AXIS2_PLACEMENT_3D('',#397,#322,#323);
#257=AXIS2_PLACEMENT_3D('',#399,#324,#325);
#258=AXIS2_PLACEMENT_3D('',#400,#326,#327);
#259=AXIS2_PLACEMENT_3D('',#401,#328,#329);
#260=AXIS2_PLACEMENT_3D('',#402,#330,#331);
#261=AXIS2_PLACEMENT_3D('',#403,#332,#333);
#262=AXIS2_PLACEMENT_3D('',#407,#335,#336);
#263=AXIS2_PLACEMENT_3D('',#408,#337,#338);
#264=AXIS2_PLACEMENT_3D('',#409,#339,#340);
#265=AXIS2_PLACEMENT_3D('',#410,#341,#342);
#266=AXIS2_PLACEMENT_3D('',#411,#343,#344);
#267=AXIS2_PLACEMENT_3D('',#415,#346,#347);
#268=AXIS2_PLACEMENT_3D('',#416,#348,#349);
#269=AXIS2_PLACEMENT_3D('',#417,#350,#351);
#270=AXIS2_PLACEMENT_3D('',#418,#352,#353);
#271=DIRECTION('axis',(0.,0.,1.));
#272=DIRECTION('refdir',(1.,0.,0.));
#273=DIRECTION('center_axis',(0.,1.,0.));
#274=DIRECTION('ref_axis',(0.,0.,1.));
#275=DIRECTION('center_axis',(0.,1.,0.));
#276=DIRECTION('ref_axis',(0.,0.,1.));
#277=DIRECTION('center_axis',(0.,1.,0.));
#278=DIRECTION('ref_axis',(0.,0.,1.));
#279=DIRECTION('center_axis',(-1.,0.,1.22464679914735E-16));
#280=DIRECTION('ref_axis',(-1.22464679914735E-16,0.,-1.));
#281=DIRECTION('center_axis',(0.,1.,0.));
#282=DIRECTION('ref_axis',(0.,-6.59183549554244E-18,1.));
#283=DIRECTION('center_axis',(0.,1.,0.));
#284=DIRECTION('ref_axis',(0.,-6.59183549554244E-18,1.));
#285=DIRECTION('center_axis',(0.,1.,0.));
#286=DIRECTION('ref_axis',(0.,0.,1.));
#287=DIRECTION('center_axis',(0.,-1.,0.));
#288=DIRECTION('ref_axis',(0.,0.,1.));
#289=DIRECTION('center_axis',(0.,-1.,0.));
#290=DIRECTION('ref_axis',(0.,0.,1.));
#291=DIRECTION('',(0.,-1.,0.));
#292=DIRECTION('center_axis',(0.,1.,0.));
#293=DIRECTION('ref_axis',(1.,0.,0.));
#294=DIRECTION('center_axis',(0.,1.,0.));
#295=DIRECTION('ref_axis',(1.,0.,0.));
#296=DIRECTION('center_axis',(0.,1.,0.));
#297=DIRECTION('ref_axis',(0.,0.,1.));
#298=DIRECTION('center_axis',(0.,1.,0.));
#299=DIRECTION('ref_axis',(1.,0.,0.));
#300=DIRECTION('center_axis',(0.,1.,0.));
#301=DIRECTION('ref_axis',(1.,0.,0.));
#302=DIRECTION('center_axis',(-1.,0.,1.22464679914735E-16));
#303=DIRECTION('ref_axis',(-1.22464679914735E-16,0.,-1.));
#304=DIRECTION('center_axis',(0.,-1.,0.));
#305=DIRECTION('ref_axis',(0.,0.,-1.));
#306=DIRECTION('center_axis',(0.,-1.,0.));
#307=DIRECTION('ref_axis',(0.,0.,-1.));
#308=DIRECTION('',(8.65956056235493E-17,-0.707106781186548,0.707106781186548));
#309=DIRECTION('center_axis',(0.,1.,0.));
#310=DIRECTION('ref_axis',(0.,0.,-1.));
#311=DIRECTION('center_axis',(0.,1.,0.));
#312=DIRECTION('ref_axis',(0.,0.,-1.));
#313=DIRECTION('center_axis',(0.,1.,0.));
#314=DIRECTION('ref_axis',(0.,0.,1.));
#315=DIRECTION('center_axis',(0.,1.,0.));
#316=DIRECTION('ref_axis',(0.,0.,1.));
#317=DIRECTION('',(0.,-1.,0.));
#318=DIRECTION('center_axis',(0.,1.,0.));
#319=DIRECTION('ref_axis',(0.,0.,1.));
#320=DIRECTION('center_axis',(0.,1.,0.));
#321=DIRECTION('ref_axis',(1.22464679914735E-16,0.,-1.));
#322=DIRECTION('center_axis',(-1.,0.,1.22464679914735E-16));
#323=DIRECTION('ref_axis',(-1.22464679914735E-16,0.,-1.));
#324=DIRECTION('center_axis',(0.,-1.,0.));
#325=DIRECTION('ref_axis',(1.22464679914735E-16,0.,-1.));
#326=DIRECTION('center_axis',(0.,-1.,0.));
#327=DIRECTION('ref_axis',(1.22464679914735E-16,0.,-1.));
#328=DIRECTION('center_axis',(0.,1.,0.));
#329=DIRECTION('ref_axis',(1.22464679914735E-16,0.,-1.));
#330=DIRECTION('center_axis',(0.,-1.,0.));
#331=DIRECTION('ref_axis',(0.,0.,-1.));
#332=DIRECTION('center_axis',(0.,1.,0.));
#333=DIRECTION('ref_axis',(0.,0.,1.));
#334=DIRECTION('',(0.,-1.,0.));
#335=DIRECTION('center_axis',(0.,1.,0.));
#336=DIRECTION('ref_axis',(0.,0.,1.));
#337=DIRECTION('center_axis',(0.,1.,0.));
#338=DIRECTION('ref_axis',(0.,0.,1.));
#339=DIRECTION('center_axis',(0.,1.,0.));
#340=DIRECTION('ref_axis',(0.,0.,1.));
#341=DIRECTION('center_axis',(-1.,0.,1.22464679914735E-16));
#342=DIRECTION('ref_axis',(-1.22464679914735E-16,0.,-1.));
#343=DIRECTION('center_axis',(0.,1.,0.));
#344=DIRECTION('ref_axis',(0.,0.,1.));
#345=DIRECTION('',(0.,-1.,0.));
#346=DIRECTION('center_axis',(0.,1.,0.));
#347=DIRECTION('ref_axis',(0.,0.,1.));
#348=DIRECTION('center_axis',(0.,1.,0.));
#349=DIRECTION('ref_axis',(0.,0.,1.));
#350=DIRECTION('center_axis',(0.,1.,0.));
#351=DIRECTION('ref_axis',(0.,0.,1.));
#352=DIRECTION('center_axis',(-1.,0.,1.22464679914735E-16));
#353=DIRECTION('ref_axis',(-1.22464679914735E-16,0.,-1.));
#354=CARTESIAN_POINT('',(0.,0.,0.));
#355=CARTESIAN_POINT('Origin',(0.,3.78015625292329,0.));
#356=CARTESIAN_POINT('',(0.,7.41273317643759,19.2));
#357=CARTESIAN_POINT('',(-2.35132185436292E-15,7.41273317643759,-19.2));
#358=CARTESIAN_POINT('Origin',(0.,7.41273317643759,0.));
#359=CARTESIAN_POINT('Origin',(0.,7.41273317643759,0.));
#360=CARTESIAN_POINT('',(-2.27610979491032E-15,0.00617316913684829,-18.5858469274164));
#361=CARTESIAN_POINT('Origin',(-2.20929452298474E-15,3.78015625292329,-18.0402588282837));
#362=CARTESIAN_POINT('',(0.,0.00617316913684773,18.5858469274164));
#363=CARTESIAN_POINT('Origin',(0.,0.00617316913684829,0.));
#364=CARTESIAN_POINT('Origin',(0.,0.00617316913684829,0.));
#365=CARTESIAN_POINT('Origin',(0.,5.93775381114064,0.));
#366=CARTESIAN_POINT('',(0.,6.59868841464841,17.9));
#367=CARTESIAN_POINT('',(-2.19211777047376E-15,6.59868841464841,-17.9));
#368=CARTESIAN_POINT('Origin',(0.,6.59868841464841,0.));
#369=CARTESIAN_POINT('Origin',(0.,6.59868841464841,0.));
#370=CARTESIAN_POINT('',(-2.19211777047376E-15,5.27681920763287,-17.9));
#371=CARTESIAN_POINT('',(-2.19211777047376E-15,5.93775381114064,-17.9));
#372=CARTESIAN_POINT('',(0.,5.27681920763287,17.9));
#373=CARTESIAN_POINT('Origin',(0.,5.27681920763287,0.));
#374=CARTESIAN_POINT('Origin',(0.,5.27681920763287,0.));
#375=CARTESIAN_POINT('Origin',(0.,3.78015625292329,0.));
#376=CARTESIAN_POINT('',(0.,2.28349329821371,17.9));
#377=CARTESIAN_POINT('',(-2.19211777047376E-15,2.28349329821371,-17.9));
#378=CARTESIAN_POINT('Origin',(0.,2.28349329821371,0.));
#379=CARTESIAN_POINT('Origin',(0.,2.28349329821371,0.));
#380=CARTESIAN_POINT('Origin',(-2.51052593825207E-15,3.78015625292329,-20.5));
#381=CARTESIAN_POINT('Origin',(0.,31.5,0.));
#382=CARTESIAN_POINT('',(-2.22885717444818E-15,32.,18.2));
#383=CARTESIAN_POINT('Origin',(0.,32.,0.));
#384=CARTESIAN_POINT('',(2.35132185436292E-15,31.,19.2));
#385=CARTESIAN_POINT('',(2.29008951440555E-15,31.5,18.7));
#386=CARTESIAN_POINT('',(-2.35132185436292E-15,31.,-19.2));
#387=CARTESIAN_POINT('Origin',(0.,31.,0.));
#388=CARTESIAN_POINT('Origin',(0.,31.,0.));
#389=CARTESIAN_POINT('Origin',(0.,32.,0.));
#390=CARTESIAN_POINT('Origin',(0.,17.2063665882188,0.));
#391=CARTESIAN_POINT('',(-2.35132185436292E-15,17.2063665882188,-19.2));
#392=CARTESIAN_POINT('Origin',(0.,26.2,0.));
#393=CARTESIAN_POINT('',(0.,27.,16.9));
#394=CARTESIAN_POINT('',(-2.06965309055903E-15,27.,-16.9));
#395=CARTESIAN_POINT('Origin',(0.,27.,0.));
#396=CARTESIAN_POINT('',(-2.16762483449082E-15,26.2,-17.7));
#397=CARTESIAN_POINT('Origin',(-2.06965309055903E-15,26.2,-16.9));
#398=CARTESIAN_POINT('',(-4.33524966898163E-15,26.2,17.7));
#399=CARTESIAN_POINT('Origin',(0.,26.2,0.));
#400=CARTESIAN_POINT('Origin',(0.,26.2,0.));
#401=CARTESIAN_POINT('Origin',(0.,27.,0.));
#402=CARTESIAN_POINT('Origin',(0.,27.,19.2));
#403=CARTESIAN_POINT('Origin',(0.,17.2352341016783,0.));
#404=CARTESIAN_POINT('',(-2.16762483449082E-15,7.47046820335655,-17.7));
#405=CARTESIAN_POINT('',(-2.16762483449082E-15,17.2352341016783,-17.7));
#406=CARTESIAN_POINT('',(0.,7.47046820335655,17.7));
#407=CARTESIAN_POINT('Origin',(0.,7.47046820335655,0.));
#408=CARTESIAN_POINT('Origin',(0.,7.47046820335655,0.));
#409=CARTESIAN_POINT('Origin',(0.,7.47046820335655,0.));
#410=CARTESIAN_POINT('Origin',(-2.41255419432029E-15,7.47046820335655,-19.7));
#411=CARTESIAN_POINT('Origin',(0.,0.917542648054294,0.));
#412=CARTESIAN_POINT('',(-2.19211777047376E-15,0.6,-17.9));
#413=CARTESIAN_POINT('',(-2.19211777047376E-15,0.917542648054294,-17.9));
#414=CARTESIAN_POINT('',(0.,0.6,17.9));
#415=CARTESIAN_POINT('Origin',(0.,0.6,0.));
#416=CARTESIAN_POINT('Origin',(0.,0.6,0.));
#417=CARTESIAN_POINT('Origin',(0.,0.6,0.));
#418=CARTESIAN_POINT('Origin',(-2.2655965784226E-15,0.6,-18.5));
#419=UNCERTAINTY_MEASURE_WITH_UNIT(LENGTH_MEASURE(0.01),#423,
'DISTANCE_ACCURACY_VALUE',
'Maximum model space distance between geometric entities at asserted c
onnectivities');
#420=UNCERTAINTY_MEASURE_WITH_UNIT(LENGTH_MEASURE(0.01),#423,
'DISTANCE_ACCURACY_VALUE',
'Maximum model space distance between geometric entities at asserted c
onnectivities');
#421=(
GEOMETRIC_REPRESENTATION_CONTEXT(3)
GLOBAL_UNCERTAINTY_ASSIGNED_CONTEXT((#419))
GLOBAL_UNIT_ASSIGNED_CONTEXT((#423,#425,#426))
REPRESENTATION_CONTEXT('','3D')
);
#422=(
GEOMETRIC_REPRESENTATION_CONTEXT(3)
GLOBAL_UNCERTAINTY_ASSIGNED_CONTEXT((#420))
GLOBAL_UNIT_ASSIGNED_CONTEXT((#423,#425,#426))
REPRESENTATION_CONTEXT('','3D')
);
#423=(
LENGTH_UNIT()
NAMED_UNIT(*)
SI_UNIT(.MILLI.,.METRE.)
);
#424=(
LENGTH_UNIT()
NAMED_UNIT(*)
SI_UNIT(.CENTI.,.METRE.)
);
#425=(
NAMED_UNIT(*)
PLANE_ANGLE_UNIT()
SI_UNIT($,.RADIAN.)
);
#426=(
NAMED_UNIT(*)
SI_UNIT($,.STERADIAN.)
SOLID_ANGLE_UNIT()
);
#427=SHAPE_DEFINITION_REPRESENTATION(#428,#429);
#428=PRODUCT_DEFINITION_SHAPE('',$,#431);
#429=SHAPE_REPRESENTATION('',(#232),#421);
#430=PRODUCT_DEFINITION_CONTEXT('part definition',#435,'design');
#431=PRODUCT_DEFINITION('383035003_Steelpres','383035003_Steelpres',#432,
#430);
#432=PRODUCT_DEFINITION_FORMATION('0',$,#437);
#433=PRODUCT_RELATED_PRODUCT_CATEGORY('383035003_Steelpres',
'383035003_Steelpres',(#437));
#434=APPLICATION_PROTOCOL_DEFINITION('international standard',
'automotive_design',2009,#435);
#435=APPLICATION_CONTEXT(
'Core Data for Automotive Mechanical Design Process');
#436=PRODUCT_CONTEXT('part definition',#435,'mechanical');
#437=PRODUCT('383035003_Steelpres','383035003_Steelpres',
'TAPPO DI CHIUSURA DN35',(#436));
#438=PRESENTATION_STYLE_ASSIGNMENT((#439));
#439=SURFACE_STYLE_USAGE(.BOTH.,#442);
#440=SURFACE_STYLE_RENDERING_WITH_PROPERTIES($,#446,(#441));
#441=SURFACE_STYLE_TRANSPARENT(0.);
#442=SURFACE_SIDE_STYLE('',(#443,#440));
#443=SURFACE_STYLE_FILL_AREA(#444);
#444=FILL_AREA_STYLE('',(#445));
#445=FILL_AREA_STYLE_COLOUR('',#446);
#446=COLOUR_RGB('',0.83921568627451,0.886274509803922,0.854901960784314);
ENDSEC;
END-ISO-10303-21;
