ISO-10303-21;
HEADER;
FILE_DESCRIPTION(('STEP AP214'),'1');
FILE_NAME('V-Boerdel-DN65.stp','2023-07-13T07:45:47',(' '),(' '),'Spatial InterOp 3D',' ',' ');
FILE_SCHEMA(('automotive_design'));
ENDSEC;
DATA;
#1=MECHANICAL_DESIGN_GEOMETRIC_PRESENTATION_REPRESENTATION(' ',(#10,#11,#12,#13,#14,#15,#16,#17,#18,#19,#20,#21,#22,#23),#6);
#2=PRODUCT_DEFINITION_CONTEXT('',#24,'design');
#3=APPLICATION_PROTOCOL_DEFINITION('INTERNATIONAL STANDARD','automotive_design',1994,#24);
#4=PRODUCT_CATEGORY_RELATIONSHIP('NONE','NONE',#25,#26);
#5=SHAPE_DEFINITION_REPRESENTATION(#27,#28);
#6= (GEOMETRIC_REPRESENTATION_CONTEXT(3)GLOBAL_UNCERTAINTY_ASSIGNED_CONTEXT((#31))GLOBAL_UNIT_ASSIGNED_CONTEXT((#33,#34,#35))REPRESENTATION_CONTEXT('NONE','WORKSPACE'));
#10=STYLED_ITEM('',(#37),#38);
#11=STYLED_ITEM('',(#39),#40);
#12=STYLED_ITEM('',(#41),#42);
#13=STYLED_ITEM('',(#43),#44);
#14=STYLED_ITEM('',(#45),#46);
#15=STYLED_ITEM('',(#47),#48);
#16=STYLED_ITEM('',(#49),#50);
#17=STYLED_ITEM('',(#51),#52);
#18=STYLED_ITEM('',(#53),#54);
#19=STYLED_ITEM('',(#55),#56);
#20=STYLED_ITEM('',(#57),#58);
#21=STYLED_ITEM('',(#59),#60);
#22=STYLED_ITEM('',(#61),#62);
#23=STYLED_ITEM('',(#63),#64);
#24=APPLICATION_CONTEXT(' ');
#25=PRODUCT_CATEGORY('part','NONE');
#26=PRODUCT_RELATED_PRODUCT_CATEGORY('detail',' ',(#65));
#27=PRODUCT_DEFINITION_SHAPE('NONE','NONE',#66);
#28=ADVANCED_BREP_SHAPE_REPRESENTATION('1',(#64,#67),#6);
#31=UNCERTAINTY_MEASURE_WITH_UNIT(LENGTH_MEASURE(1.0E-006),#33,'','');
#33= (CONVERSION_BASED_UNIT('MILLIMETRE',#70)LENGTH_UNIT()NAMED_UNIT(#73));
#34= (NAMED_UNIT(#75)PLANE_ANGLE_UNIT()SI_UNIT($,.RADIAN.));
#35= (NAMED_UNIT(#75)SOLID_ANGLE_UNIT()SI_UNIT($,.STERADIAN.));
#37=PRESENTATION_STYLE_ASSIGNMENT((#81));
#38=ADVANCED_FACE('',(#82),#83,.T.);
#39=PRESENTATION_STYLE_ASSIGNMENT((#84));
#40=ADVANCED_FACE('',(#85),#86,.T.);
#41=PRESENTATION_STYLE_ASSIGNMENT((#87));
#42=ADVANCED_FACE('',(#88),#89,.F.);
#43=PRESENTATION_STYLE_ASSIGNMENT((#90));
#44=ADVANCED_FACE('',(#91),#92,.T.);
#45=PRESENTATION_STYLE_ASSIGNMENT((#93));
#46=ADVANCED_FACE('',(#94),#95,.F.);
#47=PRESENTATION_STYLE_ASSIGNMENT((#96));
#48=ADVANCED_FACE('',(#97),#98,.F.);
#49=PRESENTATION_STYLE_ASSIGNMENT((#99));
#50=ADVANCED_FACE('',(#100,#101),#102,.T.);
#51=PRESENTATION_STYLE_ASSIGNMENT((#103));
#52=ADVANCED_FACE('',(#104),#105,.T.);
#53=PRESENTATION_STYLE_ASSIGNMENT((#106));
#54=ADVANCED_FACE('',(#107),#108,.F.);
#55=PRESENTATION_STYLE_ASSIGNMENT((#109));
#56=ADVANCED_FACE('',(#110,#111),#112,.T.);
#57=PRESENTATION_STYLE_ASSIGNMENT((#113));
#58=ADVANCED_FACE('',(#114),#115,.T.);
#59=PRESENTATION_STYLE_ASSIGNMENT((#116));
#60=ADVANCED_FACE('',(#117,#118),#119,.T.);
#61=PRESENTATION_STYLE_ASSIGNMENT((#120));
#62=ADVANCED_FACE('',(#121),#122,.T.);
#63=PRESENTATION_STYLE_ASSIGNMENT((#123));
#64=MANIFOLD_SOLID_BREP('1',#124);
#65=PRODUCT('1','1','PART-1-DESC',(#125));
#66=PRODUCT_DEFINITION('NONE','NONE',#126,#2);
#67=AXIS2_PLACEMENT_3D('',#127,#128,#129);
#70=LENGTH_MEASURE_WITH_UNIT(LENGTH_MEASURE(1.0),#130);
#73=DIMENSIONAL_EXPONENTS(1.0,0.0,0.0,0.0,0.0,0.0,0.0);
#75=DIMENSIONAL_EXPONENTS(0.0,0.0,0.0,0.0,0.0,0.0,0.0);
#81=SURFACE_STYLE_USAGE(.BOTH.,#131);
#82=FACE_OUTER_BOUND('',#132,.T.);
#83=TOROIDAL_SURFACE('',#133,43.85,9.0);
#84=SURFACE_STYLE_USAGE(.BOTH.,#134);
#85=FACE_OUTER_BOUND('',#135,.T.);
#86=CYLINDRICAL_SURFACE('',#136,61.0);
#87=SURFACE_STYLE_USAGE(.BOTH.,#137);
#88=FACE_OUTER_BOUND('',#138,.T.);
#89=TOROIDAL_SURFACE('',#139,43.05,5.0);
#90=SURFACE_STYLE_USAGE(.BOTH.,#140);
#91=FACE_OUTER_BOUND('',#141,.T.);
#92=CYLINDRICAL_SURFACE('',#142,38.05);
#93=SURFACE_STYLE_USAGE(.BOTH.,#143);
#94=FACE_OUTER_BOUND('',#144,.T.);
#95=CYLINDRICAL_SURFACE('',#145,34.85);
#96=SURFACE_STYLE_USAGE(.BOTH.,#146);
#97=FACE_OUTER_BOUND('',#147,.T.);
#98=CYLINDRICAL_SURFACE('',#148,34.85);
#99=SURFACE_STYLE_USAGE(.BOTH.,#149);
#100=FACE_OUTER_BOUND('',#150,.T.);
#101=FACE_BOUND('',#151,.T.);
#102=PLANE('',#152);
#103=SURFACE_STYLE_USAGE(.BOTH.,#153);
#104=FACE_OUTER_BOUND('',#154,.T.);
#105=CYLINDRICAL_SURFACE('',#155,38.05);
#106=SURFACE_STYLE_USAGE(.BOTH.,#156);
#107=FACE_OUTER_BOUND('',#157,.T.);
#108=TOROIDAL_SURFACE('',#158,43.05,5.0);
#109=SURFACE_STYLE_USAGE(.BOTH.,#159);
#110=FACE_OUTER_BOUND('',#160,.T.);
#111=FACE_BOUND('',#161,.T.);
#112=PLANE('',#162);
#113=SURFACE_STYLE_USAGE(.BOTH.,#163);
#114=FACE_OUTER_BOUND('',#164,.T.);
#115=CYLINDRICAL_SURFACE('',#165,61.0);
#116=SURFACE_STYLE_USAGE(.BOTH.,#166);
#117=FACE_BOUND('',#167,.T.);
#118=FACE_OUTER_BOUND('',#168,.T.);
#119=PLANE('',#169);
#120=SURFACE_STYLE_USAGE(.BOTH.,#170);
#121=FACE_OUTER_BOUND('',#171,.T.);
#122=TOROIDAL_SURFACE('',#172,43.85,9.0);
#123=SURFACE_STYLE_USAGE(.BOTH.,#173);
#124=CLOSED_SHELL('',(#38,#40,#42,#44,#46,#48,#50,#52,#54,#56,#58,#60,#62));
#125=PRODUCT_CONTEXT('',#24,'mechanical');
#126=PRODUCT_DEFINITION_FORMATION_WITH_SPECIFIED_SOURCE(' ','NONE',#65,.NOT_KNOWN.);
#127=CARTESIAN_POINT('',(0.0,0.0,0.0));
#128=DIRECTION('',(0.0,0.0,1.0));
#129=DIRECTION('',(1.0,0.0,0.0));
#130= (NAMED_UNIT(#73)LENGTH_UNIT()SI_UNIT(.MILLI.,.METRE.));
#131=SURFACE_SIDE_STYLE('',(#175));
#132=EDGE_LOOP('',(#176,#177,#178,#179,#180));
#133=AXIS2_PLACEMENT_3D('',#181,#182,#183);
#134=SURFACE_SIDE_STYLE('',(#184));
#135=EDGE_LOOP('',(#185,#186,#187,#188));
#136=AXIS2_PLACEMENT_3D('',#189,#190,#191);
#137=SURFACE_SIDE_STYLE('',(#192));
#138=EDGE_LOOP('',(#193,#194,#195,#196,#197,#198));
#139=AXIS2_PLACEMENT_3D('',#199,#200,#201);
#140=SURFACE_SIDE_STYLE('',(#202));
#141=EDGE_LOOP('',(#203,#204,#205,#206,#207));
#142=AXIS2_PLACEMENT_3D('',#208,#209,#210);
#143=SURFACE_SIDE_STYLE('',(#211));
#144=EDGE_LOOP('',(#212,#213,#214,#215,#216));
#145=AXIS2_PLACEMENT_3D('',#217,#218,#219);
#146=SURFACE_SIDE_STYLE('',(#220));
#147=EDGE_LOOP('',(#221,#222,#223,#224,#225));
#148=AXIS2_PLACEMENT_3D('',#226,#227,#228);
#149=SURFACE_SIDE_STYLE('',(#229));
#150=EDGE_LOOP('',(#230,#231));
#151=EDGE_LOOP('',(#232,#233));
#152=AXIS2_PLACEMENT_3D('',#234,#235,#236);
#153=SURFACE_SIDE_STYLE('',(#237));
#154=EDGE_LOOP('',(#238,#239,#240,#241,#242));
#155=AXIS2_PLACEMENT_3D('',#243,#244,#245);
#156=SURFACE_SIDE_STYLE('',(#246));
#157=EDGE_LOOP('',(#247,#248,#249,#250,#251));
#158=AXIS2_PLACEMENT_3D('',#252,#253,#254);
#159=SURFACE_SIDE_STYLE('',(#255));
#160=EDGE_LOOP('',(#256,#257));
#161=EDGE_LOOP('',(#258,#259,#260));
#162=AXIS2_PLACEMENT_3D('',#261,#262,#263);
#163=SURFACE_SIDE_STYLE('',(#264));
#164=EDGE_LOOP('',(#265,#266,#267,#268));
#165=AXIS2_PLACEMENT_3D('',#269,#270,#271);
#166=SURFACE_SIDE_STYLE('',(#272));
#167=EDGE_LOOP('',(#273,#274,#275));
#168=EDGE_LOOP('',(#276,#277));
#169=AXIS2_PLACEMENT_3D('',#278,#279,#280);
#170=SURFACE_SIDE_STYLE('',(#281));
#171=EDGE_LOOP('',(#282,#283,#284,#285,#286,#287));
#172=AXIS2_PLACEMENT_3D('',#288,#289,#290);
#173=SURFACE_SIDE_STYLE('',(#291));
#175=SURFACE_STYLE_FILL_AREA(#292);
#176=ORIENTED_EDGE('',*,*,#293,.F.);
#177=ORIENTED_EDGE('',*,*,#294,.T.);
#178=ORIENTED_EDGE('',*,*,#295,.F.);
#179=ORIENTED_EDGE('',*,*,#296,.F.);
#180=ORIENTED_EDGE('',*,*,#297,.F.);
#181=CARTESIAN_POINT('',(0.0,-9.0,0.0));
#182=DIRECTION('',(0.0,1.0,0.0));
#183=DIRECTION('',(0.0,0.0,1.0));
#184=SURFACE_STYLE_FILL_AREA(#298);
#185=ORIENTED_EDGE('',*,*,#299,.F.);
#186=ORIENTED_EDGE('',*,*,#300,.T.);
#187=ORIENTED_EDGE('',*,*,#301,.F.);
#188=ORIENTED_EDGE('',*,*,#302,.F.);
#189=CARTESIAN_POINT('',(0.0,-2.0,0.0));
#190=DIRECTION('',(0.0,1.0,0.0));
#191=DIRECTION('',(-1.0,0.0,0.0));
#192=SURFACE_STYLE_FILL_AREA(#303);
#193=ORIENTED_EDGE('',*,*,#304,.F.);
#194=ORIENTED_EDGE('',*,*,#305,.T.);
#195=ORIENTED_EDGE('',*,*,#306,.T.);
#196=ORIENTED_EDGE('',*,*,#307,.F.);
#197=ORIENTED_EDGE('',*,*,#308,.F.);
#198=ORIENTED_EDGE('',*,*,#309,.F.);
#199=CARTESIAN_POINT('',(0.0,-9.0,0.0));
#200=DIRECTION('',(0.0,1.0,0.0));
#201=DIRECTION('',(0.0,0.0,1.0));
#202=SURFACE_STYLE_FILL_AREA(#310);
#203=ORIENTED_EDGE('',*,*,#311,.F.);
#204=ORIENTED_EDGE('',*,*,#312,.T.);
#205=ORIENTED_EDGE('',*,*,#313,.F.);
#206=ORIENTED_EDGE('',*,*,#314,.F.);
#207=ORIENTED_EDGE('',*,*,#306,.F.);
#208=CARTESIAN_POINT('',(0.0,-16.0,0.0));
#209=DIRECTION('',(0.0,1.0,0.0));
#210=DIRECTION('',(-1.0,0.0,0.0));
#211=SURFACE_STYLE_FILL_AREA(#315);
#212=ORIENTED_EDGE('',*,*,#316,.F.);
#213=ORIENTED_EDGE('',*,*,#317,.F.);
#214=ORIENTED_EDGE('',*,*,#318,.F.);
#215=ORIENTED_EDGE('',*,*,#296,.T.);
#216=ORIENTED_EDGE('',*,*,#319,.T.);
#217=CARTESIAN_POINT('',(0.0,-16.0,0.0));
#218=DIRECTION('',(0.0,1.0,0.0));
#219=DIRECTION('',(-1.0,0.0,0.0));
#220=SURFACE_STYLE_FILL_AREA(#320);
#221=ORIENTED_EDGE('',*,*,#316,.T.);
#222=ORIENTED_EDGE('',*,*,#321,.T.);
#223=ORIENTED_EDGE('',*,*,#297,.T.);
#224=ORIENTED_EDGE('',*,*,#318,.T.);
#225=ORIENTED_EDGE('',*,*,#322,.F.);
#226=CARTESIAN_POINT('',(0.0,-16.0,0.0));
#227=DIRECTION('',(0.0,1.0,0.0));
#228=DIRECTION('',(-1.0,0.0,0.0));
#229=SURFACE_STYLE_FILL_AREA(#323);
#230=ORIENTED_EDGE('',*,*,#312,.F.);
#231=ORIENTED_EDGE('',*,*,#324,.F.);
#232=ORIENTED_EDGE('',*,*,#322,.T.);
#233=ORIENTED_EDGE('',*,*,#317,.T.);
#234=CARTESIAN_POINT('',(-36.45,-23.0,0.0));
#235=DIRECTION('',(0.0,-1.0,0.0));
#236=DIRECTION('',(1.0,0.0,0.0));
#237=SURFACE_STYLE_FILL_AREA(#325);
#238=ORIENTED_EDGE('',*,*,#311,.T.);
#239=ORIENTED_EDGE('',*,*,#305,.F.);
#240=ORIENTED_EDGE('',*,*,#326,.F.);
#241=ORIENTED_EDGE('',*,*,#313,.T.);
#242=ORIENTED_EDGE('',*,*,#324,.T.);
#243=CARTESIAN_POINT('',(0.0,-16.0,0.0));
#244=DIRECTION('',(0.0,1.0,0.0));
#245=DIRECTION('',(-1.0,0.0,0.0));
#246=SURFACE_STYLE_FILL_AREA(#327);
#247=ORIENTED_EDGE('',*,*,#304,.T.);
#248=ORIENTED_EDGE('',*,*,#328,.F.);
#249=ORIENTED_EDGE('',*,*,#307,.T.);
#250=ORIENTED_EDGE('',*,*,#314,.T.);
#251=ORIENTED_EDGE('',*,*,#326,.T.);
#252=CARTESIAN_POINT('',(0.0,-9.0,0.0));
#253=DIRECTION('',(0.0,1.0,0.0));
#254=DIRECTION('',(0.0,0.0,1.0));
#255=SURFACE_STYLE_FILL_AREA(#329);
#256=ORIENTED_EDGE('',*,*,#300,.F.);
#257=ORIENTED_EDGE('',*,*,#330,.F.);
#258=ORIENTED_EDGE('',*,*,#308,.T.);
#259=ORIENTED_EDGE('',*,*,#328,.T.);
#260=ORIENTED_EDGE('',*,*,#309,.T.);
#261=CARTESIAN_POINT('',(-52.025,-4.0,0.0));
#262=DIRECTION('',(0.0,-1.0,0.0));
#263=DIRECTION('',(1.0,0.0,0.0));
#264=SURFACE_STYLE_FILL_AREA(#331);
#265=ORIENTED_EDGE('',*,*,#299,.T.);
#266=ORIENTED_EDGE('',*,*,#332,.F.);
#267=ORIENTED_EDGE('',*,*,#301,.T.);
#268=ORIENTED_EDGE('',*,*,#330,.T.);
#269=CARTESIAN_POINT('',(0.0,-2.0,0.0));
#270=DIRECTION('',(0.0,1.0,0.0));
#271=DIRECTION('',(-1.0,0.0,0.0));
#272=SURFACE_STYLE_FILL_AREA(#333);
#273=ORIENTED_EDGE('',*,*,#334,.F.);
#274=ORIENTED_EDGE('',*,*,#335,.F.);
#275=ORIENTED_EDGE('',*,*,#294,.F.);
#276=ORIENTED_EDGE('',*,*,#302,.T.);
#277=ORIENTED_EDGE('',*,*,#332,.T.);
#278=CARTESIAN_POINT('',(-52.425,0.0,0.0));
#279=DIRECTION('',(0.0,1.0,0.0));
#280=DIRECTION('',(-1.0,0.0,0.0));
#281=SURFACE_STYLE_FILL_AREA(#336);
#282=ORIENTED_EDGE('',*,*,#293,.T.);
#283=ORIENTED_EDGE('',*,*,#321,.F.);
#284=ORIENTED_EDGE('',*,*,#319,.F.);
#285=ORIENTED_EDGE('',*,*,#295,.T.);
#286=ORIENTED_EDGE('',*,*,#335,.T.);
#287=ORIENTED_EDGE('',*,*,#334,.T.);
#288=CARTESIAN_POINT('',(0.0,-9.0,0.0));
#289=DIRECTION('',(0.0,1.0,0.0));
#290=DIRECTION('',(0.0,0.0,1.0));
#291=SURFACE_STYLE_FILL_AREA(#337);
#292=FILL_AREA_STYLE('',(#338));
#293=EDGE_CURVE('',#339,#340,#341,.T.);
#294=EDGE_CURVE('',#339,#342,#343,.T.);
#295=EDGE_CURVE('',#344,#342,#345,.T.);
#296=EDGE_CURVE('',#346,#344,#347,.T.);
#297=EDGE_CURVE('',#340,#346,#348,.T.);
#298=FILL_AREA_STYLE('',(#349));
#299=EDGE_CURVE('',#350,#351,#352,.T.);
#300=EDGE_CURVE('',#350,#353,#354,.T.);
#301=EDGE_CURVE('',#355,#353,#356,.T.);
#302=EDGE_CURVE('',#351,#355,#357,.T.);
#303=FILL_AREA_STYLE('',(#358));
#304=EDGE_CURVE('',#359,#360,#361,.T.);
#305=EDGE_CURVE('',#359,#362,#363,.T.);
#306=EDGE_CURVE('',#362,#364,#365,.T.);
#307=EDGE_CURVE('',#366,#364,#367,.T.);
#308=EDGE_CURVE('',#368,#366,#369,.T.);
#309=EDGE_CURVE('',#360,#368,#370,.T.);
#310=FILL_AREA_STYLE('',(#371));
#311=EDGE_CURVE('',#372,#362,#373,.T.);
#312=EDGE_CURVE('',#372,#374,#375,.T.);
#313=EDGE_CURVE('',#376,#374,#377,.T.);
#314=EDGE_CURVE('',#364,#376,#378,.T.);
#315=FILL_AREA_STYLE('',(#379));
#316=EDGE_CURVE('',#380,#381,#382,.T.);
#317=EDGE_CURVE('',#383,#380,#384,.T.);
#318=EDGE_CURVE('',#346,#383,#385,.T.);
#319=EDGE_CURVE('',#344,#381,#386,.T.);
#320=FILL_AREA_STYLE('',(#387));
#321=EDGE_CURVE('',#381,#340,#388,.T.);
#322=EDGE_CURVE('',#380,#383,#389,.T.);
#323=FILL_AREA_STYLE('',(#390));
#324=EDGE_CURVE('',#374,#372,#391,.T.);
#325=FILL_AREA_STYLE('',(#392));
#326=EDGE_CURVE('',#376,#359,#393,.T.);
#327=FILL_AREA_STYLE('',(#394));
#328=EDGE_CURVE('',#366,#360,#395,.T.);
#329=FILL_AREA_STYLE('',(#396));
#330=EDGE_CURVE('',#353,#350,#397,.T.);
#331=FILL_AREA_STYLE('',(#398));
#332=EDGE_CURVE('',#355,#351,#399,.T.);
#333=FILL_AREA_STYLE('',(#400));
#334=EDGE_CURVE('',#401,#339,#402,.T.);
#335=EDGE_CURVE('',#342,#401,#403,.T.);
#336=FILL_AREA_STYLE('',(#404));
#337=FILL_AREA_STYLE('',(#405));
#338=FILL_AREA_STYLE_COLOUR('',#406);
#339=VERTEX_POINT('',#407);
#340=VERTEX_POINT('',#408);
#341=CIRCLE('',#409,9.0);
#342=VERTEX_POINT('',#410);
#343=CIRCLE('',#411,43.85);
#344=VERTEX_POINT('',#412);
#345=CIRCLE('',#413,9.0);
#346=VERTEX_POINT('',#414);
#347=CIRCLE('',#415,34.85);
#348=CIRCLE('',#416,34.85);
#349=FILL_AREA_STYLE_COLOUR('',#417);
#350=VERTEX_POINT('',#418);
#351=VERTEX_POINT('',#419);
#352=LINE('',#420,#421);
#353=VERTEX_POINT('',#422);
#354=CIRCLE('',#423,61.0);
#355=VERTEX_POINT('',#424);
#356=LINE('',#425,#426);
#357=CIRCLE('',#427,61.0);
#358=FILL_AREA_STYLE_COLOUR('',#428);
#359=VERTEX_POINT('',#429);
#360=VERTEX_POINT('',#430);
#361=CIRCLE('',#431,5.0);
#362=VERTEX_POINT('',#432);
#363=CIRCLE('',#433,38.05);
#364=VERTEX_POINT('',#434);
#365=CIRCLE('',#435,38.05);
#366=VERTEX_POINT('',#436);
#367=CIRCLE('',#437,5.0);
#368=VERTEX_POINT('',#438);
#369=CIRCLE('',#439,43.05);
#370=CIRCLE('',#440,43.05);
#371=FILL_AREA_STYLE_COLOUR('',#441);
#372=VERTEX_POINT('',#442);
#373=LINE('',#443,#444);
#374=VERTEX_POINT('',#445);
#375=CIRCLE('',#446,38.05);
#376=VERTEX_POINT('',#447);
#377=LINE('',#448,#449);
#378=CIRCLE('',#450,38.05);
#379=FILL_AREA_STYLE_COLOUR('',#451);
#380=VERTEX_POINT('',#452);
#381=VERTEX_POINT('',#453);
#382=LINE('',#454,#455);
#383=VERTEX_POINT('',#456);
#384=CIRCLE('',#457,34.85);
#385=LINE('',#458,#459);
#386=CIRCLE('',#460,34.85);
#387=FILL_AREA_STYLE_COLOUR('',#461);
#388=CIRCLE('',#462,34.85);
#389=CIRCLE('',#463,34.85);
#390=FILL_AREA_STYLE_COLOUR('',#464);
#391=CIRCLE('',#465,38.05);
#392=FILL_AREA_STYLE_COLOUR('',#466);
#393=CIRCLE('',#467,38.05);
#394=FILL_AREA_STYLE_COLOUR('',#468);
#395=CIRCLE('',#469,43.05);
#396=FILL_AREA_STYLE_COLOUR('',#470);
#397=CIRCLE('',#471,61.0);
#398=FILL_AREA_STYLE_COLOUR('',#472);
#399=CIRCLE('',#473,61.0);
#400=FILL_AREA_STYLE_COLOUR('',#474);
#401=VERTEX_POINT('',#475);
#402=CIRCLE('',#476,43.85);
#403=CIRCLE('',#477,43.85);
#404=FILL_AREA_STYLE_COLOUR('',#478);
#405=FILL_AREA_STYLE_COLOUR('',#479);
#406=COLOUR_RGB('',1.0,1.0,0.0);
#407=CARTESIAN_POINT('',(-5.37007621426115E-015,0.0,43.85));
#408=CARTESIAN_POINT('',(-4.26789409502853E-015,-9.0,34.85));
#409=AXIS2_PLACEMENT_3D('',#480,#481,#482);
#410=CARTESIAN_POINT('',(5.37007621426115E-015,0.0,-43.85));
#411=AXIS2_PLACEMENT_3D('',#483,#484,#485);
#412=CARTESIAN_POINT('',(4.26789409502853E-015,-9.0,-34.85));
#413=AXIS2_PLACEMENT_3D('',#486,#487,#488);
#414=CARTESIAN_POINT('',(34.85,-9.0,4.26789409502853E-015));
#415=AXIS2_PLACEMENT_3D('',#489,#490,#491);
#416=AXIS2_PLACEMENT_3D('',#492,#493,#494);
#417=COLOUR_RGB('',1.0,1.0,0.0);
#418=CARTESIAN_POINT('',(-61.0,-4.0,0.0));
#419=CARTESIAN_POINT('',(-61.0,0.0,0.0));
#420=CARTESIAN_POINT('',(-61.0,-2.0,-7.47034547479885E-015));
#421=VECTOR('',#495,1.0);
#422=CARTESIAN_POINT('',(61.0,-4.0,7.47034547479885E-015));
#423=AXIS2_PLACEMENT_3D('',#496,#497,#498);
#424=CARTESIAN_POINT('',(61.0,0.0,7.47034547479885E-015));
#425=CARTESIAN_POINT('',(61.0,-2.0,7.47034547479885E-015));
#426=VECTOR('',#499,1.0);
#427=AXIS2_PLACEMENT_3D('',#500,#501,#502);
#428=COLOUR_RGB('',1.0,1.0,0.0);
#429=CARTESIAN_POINT('',(4.65978107075567E-015,-9.0,-38.05));
#430=CARTESIAN_POINT('',(5.27210447032935E-015,-4.0,-43.05));
#431=AXIS2_PLACEMENT_3D('',#503,#504,#505);
#432=CARTESIAN_POINT('',(-38.05,-9.0,0.0));
#433=AXIS2_PLACEMENT_3D('',#506,#507,#508);
#434=CARTESIAN_POINT('',(-4.65978107075567E-015,-9.0,38.05));
#435=AXIS2_PLACEMENT_3D('',#509,#510,#511);
#436=CARTESIAN_POINT('',(-5.27210447032935E-015,-4.0,43.05));
#437=AXIS2_PLACEMENT_3D('',#512,#513,#514);
#438=CARTESIAN_POINT('',(-43.05,-4.0,0.0));
#439=AXIS2_PLACEMENT_3D('',#515,#516,#517);
#440=AXIS2_PLACEMENT_3D('',#518,#519,#520);
#441=COLOUR_RGB('',1.0,1.0,0.0);
#442=CARTESIAN_POINT('',(-38.05,-23.0,0.0));
#443=CARTESIAN_POINT('',(-38.05,-16.0,-4.65978107075567E-015));
#444=VECTOR('',#521,1.0);
#445=CARTESIAN_POINT('',(38.05,-23.0,4.65978107075567E-015));
#446=AXIS2_PLACEMENT_3D('',#522,#523,#524);
#447=CARTESIAN_POINT('',(38.05,-9.0,4.65978107075567E-015));
#448=CARTESIAN_POINT('',(38.05,-16.0,4.65978107075567E-015));
#449=VECTOR('',#525,1.0);
#450=AXIS2_PLACEMENT_3D('',#526,#527,#528);
#451=COLOUR_RGB('',1.0,1.0,0.0);
#452=CARTESIAN_POINT('',(-34.85,-23.0,0.0));
#453=CARTESIAN_POINT('',(-34.85,-9.0,0.0));
#454=CARTESIAN_POINT('',(-34.85,-16.0,-4.26789409502853E-015));
#455=VECTOR('',#529,1.0);
#456=CARTESIAN_POINT('',(34.85,-23.0,4.26789409502853E-015));
#457=AXIS2_PLACEMENT_3D('',#530,#531,#532);
#458=CARTESIAN_POINT('',(34.85,-16.0,4.26789409502853E-015));
#459=VECTOR('',#533,1.0);
#460=AXIS2_PLACEMENT_3D('',#534,#535,#536);
#461=COLOUR_RGB('',1.0,1.0,0.0);
#462=AXIS2_PLACEMENT_3D('',#537,#538,#539);
#463=AXIS2_PLACEMENT_3D('',#540,#541,#542);
#464=COLOUR_RGB('',1.0,1.0,0.0);
#465=AXIS2_PLACEMENT_3D('',#543,#544,#545);
#466=COLOUR_RGB('',1.0,1.0,0.0);
#467=AXIS2_PLACEMENT_3D('',#546,#547,#548);
#468=COLOUR_RGB('',1.0,1.0,0.0);
#469=AXIS2_PLACEMENT_3D('',#549,#550,#551);
#470=COLOUR_RGB('',1.0,1.0,0.0);
#471=AXIS2_PLACEMENT_3D('',#552,#553,#554);
#472=COLOUR_RGB('',1.0,1.0,0.0);
#473=AXIS2_PLACEMENT_3D('',#555,#556,#557);
#474=COLOUR_RGB('',1.0,1.0,0.0);
#475=CARTESIAN_POINT('',(-43.85,0.0,0.0));
#476=AXIS2_PLACEMENT_3D('',#558,#559,#560);
#477=AXIS2_PLACEMENT_3D('',#561,#562,#563);
#478=COLOUR_RGB('',1.0,1.0,0.0);
#479=COLOUR_RGB('',1.0,1.0,0.0);
#480=CARTESIAN_POINT('',(-5.37007621426115E-015,-9.0,43.85));
#481=DIRECTION('',(-1.0,0.0,-1.22464679914735E-016));
#482=DIRECTION('',(-1.22464679914735E-016,-0.0,1.0));
#483=CARTESIAN_POINT('',(0.0,0.0,0.0));
#484=DIRECTION('',(0.0,1.0,0.0));
#485=DIRECTION('',(-1.0,0.0,0.0));
#486=CARTESIAN_POINT('',(5.37007621426115E-015,-9.0,-43.85));
#487=DIRECTION('',(-1.0,0.0,-1.22464679914735E-016));
#488=DIRECTION('',(1.22464679914735E-016,0.0,-1.0));
#489=CARTESIAN_POINT('',(0.0,-9.0,0.0));
#490=DIRECTION('',(0.0,1.0,0.0));
#491=DIRECTION('',(-1.0,0.0,0.0));
#492=CARTESIAN_POINT('',(0.0,-9.0,0.0));
#493=DIRECTION('',(0.0,1.0,0.0));
#494=DIRECTION('',(-1.0,0.0,0.0));
#495=DIRECTION('',(0.0,1.0,0.0));
#496=CARTESIAN_POINT('',(0.0,-4.0,0.0));
#497=DIRECTION('',(0.0,1.0,0.0));
#498=DIRECTION('',(-1.0,0.0,0.0));
#499=DIRECTION('',(-0.0,-1.0,-0.0));
#500=CARTESIAN_POINT('',(0.0,0.0,0.0));
#501=DIRECTION('',(0.0,1.0,0.0));
#502=DIRECTION('',(-1.0,0.0,0.0));
#503=CARTESIAN_POINT('',(5.27210447032935E-015,-9.0,-43.05));
#504=DIRECTION('',(-1.0,0.0,-1.22464679914735E-016));
#505=DIRECTION('',(1.22464679914735E-016,-0.0,-1.0));
#506=CARTESIAN_POINT('',(0.0,-9.0,0.0));
#507=DIRECTION('',(0.0,1.0,0.0));
#508=DIRECTION('',(-1.0,0.0,0.0));
#509=CARTESIAN_POINT('',(0.0,-9.0,0.0));
#510=DIRECTION('',(0.0,1.0,0.0));
#511=DIRECTION('',(-1.0,0.0,0.0));
#512=CARTESIAN_POINT('',(-5.27210447032935E-015,-9.0,43.05));
#513=DIRECTION('',(-1.0,0.0,-1.22464679914735E-016));
#514=DIRECTION('',(-1.22464679914735E-016,0.0,1.0));
#515=CARTESIAN_POINT('',(0.0,-4.0,0.0));
#516=DIRECTION('',(0.0,1.0,0.0));
#517=DIRECTION('',(-1.0,0.0,0.0));
#518=CARTESIAN_POINT('',(0.0,-4.0,0.0));
#519=DIRECTION('',(0.0,1.0,0.0));
#520=DIRECTION('',(-1.0,0.0,0.0));
#521=DIRECTION('',(0.0,1.0,0.0));
#522=CARTESIAN_POINT('',(0.0,-23.0,0.0));
#523=DIRECTION('',(0.0,1.0,0.0));
#524=DIRECTION('',(-1.0,0.0,0.0));
#525=DIRECTION('',(-0.0,-1.0,-0.0));
#526=CARTESIAN_POINT('',(0.0,-9.0,0.0));
#527=DIRECTION('',(0.0,1.0,0.0));
#528=DIRECTION('',(-1.0,0.0,0.0));
#529=DIRECTION('',(0.0,1.0,0.0));
#530=CARTESIAN_POINT('',(0.0,-23.0,0.0));
#531=DIRECTION('',(0.0,1.0,0.0));
#532=DIRECTION('',(-1.0,0.0,0.0));
#533=DIRECTION('',(0.0,-1.0,0.0));
#534=CARTESIAN_POINT('',(0.0,-9.0,0.0));
#535=DIRECTION('',(0.0,1.0,0.0));
#536=DIRECTION('',(-1.0,0.0,0.0));
#537=CARTESIAN_POINT('',(0.0,-9.0,0.0));
#538=DIRECTION('',(0.0,1.0,0.0));
#539=DIRECTION('',(-1.0,0.0,0.0));
#540=CARTESIAN_POINT('',(0.0,-23.0,0.0));
#541=DIRECTION('',(0.0,1.0,0.0));
#542=DIRECTION('',(-1.0,0.0,0.0));
#543=CARTESIAN_POINT('',(0.0,-23.0,0.0));
#544=DIRECTION('',(0.0,1.0,0.0));
#545=DIRECTION('',(-1.0,0.0,0.0));
#546=CARTESIAN_POINT('',(0.0,-9.0,0.0));
#547=DIRECTION('',(0.0,1.0,0.0));
#548=DIRECTION('',(-1.0,0.0,0.0));
#549=CARTESIAN_POINT('',(0.0,-4.0,0.0));
#550=DIRECTION('',(0.0,1.0,0.0));
#551=DIRECTION('',(-1.0,0.0,0.0));
#552=CARTESIAN_POINT('',(0.0,-4.0,0.0));
#553=DIRECTION('',(0.0,1.0,0.0));
#554=DIRECTION('',(-1.0,0.0,0.0));
#555=CARTESIAN_POINT('',(0.0,0.0,0.0));
#556=DIRECTION('',(0.0,1.0,0.0));
#557=DIRECTION('',(-1.0,0.0,0.0));
#558=CARTESIAN_POINT('',(0.0,0.0,0.0));
#559=DIRECTION('',(0.0,1.0,0.0));
#560=DIRECTION('',(-1.0,0.0,0.0));
#561=CARTESIAN_POINT('',(0.0,0.0,0.0));
#562=DIRECTION('',(0.0,1.0,0.0));
#563=DIRECTION('',(-1.0,0.0,0.0));
ENDSEC;
END-ISO-10303-21;
