ISO-10303-21;
HEADER;
FILE_DESCRIPTION (( 'STEP AP203' ),
    '1' );
FILE_NAME ('11-0216-08_outokumpu.step',
    '2015-08-11T14:14:09',
    ( '' ),
    ( '' ),
    'SwSTEP 2.0',
    'SolidWorks 2008',
    '' );
FILE_SCHEMA (( 'CONFIG_CONTROL_DESIGN' ));
ENDSEC;

DATA;
#1 = EDGE_LOOP ( 'NONE', ( #2, #19 ) ) ;
#2 = ORIENTED_EDGE ( 'NONE', *, *, #58, .F. ) ;
#3 = ORIENTED_EDGE ( 'NONE', *, *, #4, .T. ) ;
#4 = EDGE_CURVE ( 'NONE', #67, #78, #88, .T. ) ;
#5 = EDGE_CURVE ( 'NONE', #80, #57, #181, .T. ) ;
#6 = ADVANCED_FACE ( 'NONE', ( #196, #192 ), #191, .F. ) ;
#7 = ADVANCED_FACE ( 'NONE', ( #188 ), #194, .F. ) ;
#8 = ORIENTED_EDGE ( 'NONE', *, *, #77, .F. ) ;
#9 = ORIENTED_EDGE ( 'NONE', *, *, #4, .F. ) ;
#10 = ORIENTED_EDGE ( 'NONE', *, *, #53, .F. ) ;
#11 = EDGE_CURVE ( 'NONE', #81, #78, #140, .T. ) ;
#12 = ORIENTED_EDGE ( 'NONE', *, *, #50, .T. ) ;
#13 = ORIENTED_EDGE ( 'NONE', *, *, #14, .T. ) ;
#14 = EDGE_CURVE ( 'NONE', #31, #17, #160, .T. ) ;
#15 = EDGE_LOOP ( 'NONE', ( #9, #12, #13, #21, #18, #8 ) ) ;
#16 = VERTEX_POINT ( 'NONE', #156 ) ;
#17 = VERTEX_POINT ( 'NONE', #155 ) ;
#18 = ORIENTED_EDGE ( 'NONE', *, *, #5, .F. ) ;
#19 = ORIENTED_EDGE ( 'NONE', *, *, #33, .F. ) ;
#20 = EDGE_LOOP ( 'NONE', ( #23, #110 ) ) ;
#21 = ORIENTED_EDGE ( 'NONE', *, *, #26, .T. ) ;
#22 = ORIENTED_EDGE ( 'NONE', *, *, #33, .T. ) ;
#23 = ORIENTED_EDGE ( 'NONE', *, *, #73, .T. ) ;
#24 = ADVANCED_FACE ( 'NONE', ( #154 ), #151, .F. ) ;
#25 = VERTEX_POINT ( 'NONE', #152 ) ;
#26 = EDGE_CURVE ( 'NONE', #17, #57, #147, .T. ) ;
#27 = ORIENTED_EDGE ( 'NONE', *, *, #53, .T. ) ;
#28 = ORIENTED_EDGE ( 'NONE', *, *, #11, .T. ) ;
#29 = ORIENTED_EDGE ( 'NONE', *, *, #44, .F. ) ;
#30 = ORIENTED_EDGE ( 'NONE', *, *, #26, .F. ) ;
#31 = VERTEX_POINT ( 'NONE', #137 ) ;
#32 = EDGE_CURVE ( 'NONE', #17, #16, #135, .T. ) ;
#33 = EDGE_CURVE ( 'NONE', #60, #59, #130, .T. ) ;
#34 = ADVANCED_FACE ( 'NONE', ( #126, #125 ), #124, .F. ) ;
#35 = ORIENTED_EDGE ( 'NONE', *, *, #37, .T. ) ;
#36 = ORIENTED_EDGE ( 'NONE', *, *, #37, .F. ) ;
#37 = EDGE_CURVE ( 'NONE', #59, #66, #214, .T. ) ;
#38 = ADVANCED_FACE ( 'NONE', ( #210 ), #209, .F. ) ;
#39 = EDGE_LOOP ( 'NONE', ( #40, #27, #3, #54, #55, #30 ) ) ;
#40 = ORIENTED_EDGE ( 'NONE', *, *, #32, .T. ) ;
#41 = ORIENTED_EDGE ( 'NONE', *, *, #42, .T. ) ;
#42 = EDGE_CURVE ( 'NONE', #16, #43, #204, .T. ) ;
#43 = VERTEX_POINT ( 'NONE', #200 ) ;
#44 = EDGE_CURVE ( 'NONE', #31, #25, #199, .T. ) ;
#45 = ORIENTED_EDGE ( 'NONE', *, *, #50, .F. ) ;
#46 = EDGE_LOOP ( 'NONE', ( #52, #61, #64, #36 ) ) ;
#47 = ORIENTED_EDGE ( 'NONE', *, *, #48, .T. ) ;
#48 = EDGE_CURVE ( 'NONE', #43, #25, #179, .T. ) ;
#49 = EDGE_LOOP ( 'NONE', ( #10, #41, #47, #29, #45 ) ) ;
#50 = EDGE_CURVE ( 'NONE', #67, #31, #174, .T. ) ;
#51 = ADVANCED_FACE ( 'NONE', ( #169 ), #168, .T. ) ;
#52 = ORIENTED_EDGE ( 'NONE', *, *, #58, .T. ) ;
#53 = EDGE_CURVE ( 'NONE', #16, #67, #277, .T. ) ;
#54 = ORIENTED_EDGE ( 'NONE', *, *, #11, .F. ) ;
#55 = ORIENTED_EDGE ( 'NONE', *, *, #56, .F. ) ;
#56 = EDGE_CURVE ( 'NONE', #57, #81, #283, .T. ) ;
#57 = VERTEX_POINT ( 'NONE', #250 ) ;
#58 = EDGE_CURVE ( 'NONE', #59, #60, #220, .T. ) ;
#59 = VERTEX_POINT ( 'NONE', #279 ) ;
#60 = VERTEX_POINT ( 'NONE', #278 ) ;
#61 = ORIENTED_EDGE ( 'NONE', *, *, #62, .T. ) ;
#62 = EDGE_CURVE ( 'NONE', #60, #63, #276, .T. ) ;
#63 = VERTEX_POINT ( 'NONE', #272 ) ;
#64 = ORIENTED_EDGE ( 'NONE', *, *, #65, .F. ) ;
#65 = EDGE_CURVE ( 'NONE', #66, #63, #271, .T. ) ;
#66 = VERTEX_POINT ( 'NONE', #266 ) ;
#67 = VERTEX_POINT ( 'NONE', #265 ) ;
#68 = EDGE_CURVE ( 'NONE', #80, #72, #264, .T. ) ;
#69 = ORIENTED_EDGE ( 'NONE', *, *, #70, .F. ) ;
#70 = EDGE_CURVE ( 'NONE', #81, #71, #260, .T. ) ;
#71 = VERTEX_POINT ( 'NONE', #256 ) ;
#72 = VERTEX_POINT ( 'NONE', #255 ) ;
#73 = EDGE_CURVE ( 'NONE', #71, #72, #249, .T. ) ;
#74 = ORIENTED_EDGE ( 'NONE', *, *, #73, .F. ) ;
#75 = MANIFOLD_SOLID_BREP ( 'NONE', #94 ) ;
#76 = ADVANCED_FACE ( 'NONE', ( #245 ), #244, .F. ) ;
#77 = EDGE_CURVE ( 'NONE', #78, #80, #243, .T. ) ;
#78 = VERTEX_POINT ( 'NONE', #234 ) ;
#79 = ORIENTED_EDGE ( 'NONE', *, *, #77, .T. ) ;
#80 = VERTEX_POINT ( 'NONE', #233 ) ;
#81 = VERTEX_POINT ( 'NONE', #232 ) ;
#82 = ORIENTED_EDGE ( 'NONE', *, *, #68, .T. ) ;
#83 =( NAMED_UNIT ( * ) PLANE_ANGLE_UNIT ( ) SI_UNIT ( $, .RADIAN. ) );
#84 =( LENGTH_UNIT ( ) NAMED_UNIT ( * ) SI_UNIT ( .MILLI., .METRE. ) );
#85 = EDGE_LOOP ( 'NONE', ( #79, #82, #74, #69, #28 ) ) ;
#86 = VECTOR ( 'NONE', #163, 1000.000000000000000 ) ;
#87 = CARTESIAN_POINT ( 'NONE',  ( 2.926992876588555000E-015, -23.90149999999999900, -18.00000000000009900 ) ) ;
#88 = LINE ( 'NONE', #87, #86 ) ;
#89 = UNCERTAINTY_MEASURE_WITH_UNIT (LENGTH_MEASURE( 1.000000000000000100E-005 ), #84, 'distance_accuracy_value', 'NONE');
#90 =( NAMED_UNIT ( * ) SI_UNIT ( $, .STERADIAN. ) SOLID_ANGLE_UNIT ( ) );
#91 = ORIENTED_EDGE ( 'NONE', *, *, #56, .T. ) ;
#92 = ORIENTED_EDGE ( 'NONE', *, *, #70, .T. ) ;
#93 = ORIENTED_EDGE ( 'NONE', *, *, #95, .F. ) ;
#94 = CLOSED_SHELL ( 'NONE', ( #76, #7, #51, #38, #24, #6, #34, #108, #116, #103 ) ) ;
#95 = EDGE_CURVE ( 'NONE', #72, #71, #231, .T. ) ;
#96 = ORIENTED_EDGE ( 'NONE', *, *, #42, .F. ) ;
#97 = ORIENTED_EDGE ( 'NONE', *, *, #32, .F. ) ;
#98 = ORIENTED_EDGE ( 'NONE', *, *, #14, .F. ) ;
#99 = ORIENTED_EDGE ( 'NONE', *, *, #44, .T. ) ;
#100 = EDGE_CURVE ( 'NONE', #63, #66, #226, .T. ) ;
#101 = EDGE_LOOP ( 'NONE', ( #118, #104 ) ) ;
#102 = ORIENTED_EDGE ( 'NONE', *, *, #106, .T. ) ;
#103 = ADVANCED_FACE ( 'NONE', ( #299 ), #289, .F. ) ;
#104 = ORIENTED_EDGE ( 'NONE', *, *, #48, .F. ) ;
#105 = EDGE_LOOP ( 'NONE', ( #119, #114 ) ) ;
#106 = EDGE_CURVE ( 'NONE', #25, #43, #291, .T. ) ;
#107 = EDGE_LOOP ( 'NONE', ( #109, #22, #35, #115 ) ) ;
#108 = ADVANCED_FACE ( 'NONE', ( #304 ), #285, .T. ) ;
#109 = ORIENTED_EDGE ( 'NONE', *, *, #62, .F. ) ;
#110 = ORIENTED_EDGE ( 'NONE', *, *, #95, .T. ) ;
#111 = EDGE_LOOP ( 'NONE', ( #112, #113, #91, #92, #93 ) ) ;
#112 = ORIENTED_EDGE ( 'NONE', *, *, #68, .F. ) ;
#113 = ORIENTED_EDGE ( 'NONE', *, *, #5, .T. ) ;
#114 = ORIENTED_EDGE ( 'NONE', *, *, #100, .T. ) ;
#115 = ORIENTED_EDGE ( 'NONE', *, *, #100, .F. ) ;
#116 = ADVANCED_FACE ( 'NONE', ( #287 ), #295, .F. ) ;
#117 = EDGE_LOOP ( 'NONE', ( #96, #97, #98, #99, #102 ) ) ;
#118 = ORIENTED_EDGE ( 'NONE', *, *, #106, .F. ) ;
#119 = ORIENTED_EDGE ( 'NONE', *, *, #65, .T. ) ;
#120 = DIRECTION ( 'NONE',  ( -1.000000000000000000, 0.0000000000000000000, -0.0000000000000000000 ) ) ;
#121 = DIRECTION ( 'NONE',  ( 0.0000000000000000000, 0.0000000000000000000, -1.000000000000000000 ) ) ;
#122 = AXIS2_PLACEMENT_3D ( 'NONE', #123, #121, #120 ) ;
#123 = CARTESIAN_POINT ( 'NONE',  ( 0.0000000000000000000, 27.25000000000000000, -2.168404344971008900E-016 ) ) ;
#124 = PLANE ( 'NONE',  #122 ) ;
#125 = FACE_BOUND ( 'NONE', #101, .T. ) ;
#126 = FACE_OUTER_BOUND ( 'NONE', #105, .T. ) ;
#127 = DIRECTION ( 'NONE',  ( 1.000000000000000000, 0.0000000000000000000, 0.0000000000000000000 ) ) ;
#128 = DIRECTION ( 'NONE',  ( -0.0000000000000000000, -0.0000000000000000000, 1.000000000000000000 ) ) ;
#129 = AXIS2_PLACEMENT_3D ( 'NONE', #136, #128, #127 ) ;
#130 = CIRCLE ( 'NONE', #129, 27.25000000000000400 ) ;
#131 = DIRECTION ( 'NONE',  ( 1.000000000000000000, 0.0000000000000000000, 0.0000000000000000000 ) ) ;
#132 = DIRECTION ( 'NONE',  ( -0.0000000000000000000, -0.0000000000000000000, 1.000000000000000000 ) ) ;
#133 = CARTESIAN_POINT ( 'NONE',  ( 0.0000000000000000000, 0.0000000000000000000, -0.8346587720068365800 ) ) ;
#134 = AXIS2_PLACEMENT_3D ( 'NONE', #133, #132, #131 ) ;
#135 = CIRCLE ( 'NONE', #134, 23.90149999999999900 ) ;
#136 = CARTESIAN_POINT ( 'NONE',  ( 0.0000000000000000000, 0.0000000000000000000, -18.00000000000000400 ) ) ;
#137 = CARTESIAN_POINT ( 'NONE',  ( 23.90149999999999900, 0.0000000000000000000, -0.8346587720068365800 ) ) ;
#138 = CARTESIAN_POINT ( 'NONE',  ( 0.0000000000000000000, 0.0000000000000000000, -17.16534122799297200 ) ) ;
#139 = AXIS2_PLACEMENT_3D ( 'NONE', #138, #162, #161 ) ;
#140 = CIRCLE ( 'NONE', #139, 23.90149999999999900 ) ;
#141 = CARTESIAN_POINT ( 'NONE',  ( 0.0000000000000000000, 0.0000000000000000000, -0.8346587720068365800 ) ) ;
#142 = DIRECTION ( 'NONE',  ( 1.000000000000000000, 0.0000000000000000000, 0.0000000000000000000 ) ) ;
#143 = DIRECTION ( 'NONE',  ( -0.0000000000000000000, -0.0000000000000000000, 1.000000000000000000 ) ) ;
#144 = DIRECTION ( 'NONE',  ( -0.0000000000000000000, 2.539793928436788400E-016, -1.000000000000000000 ) ) ;
#145 = VECTOR ( 'NONE', #144, 1000.000000000000000 ) ;
#146 = CARTESIAN_POINT ( 'NONE',  ( 0.0000000000000000000, 23.90149999999999900, -18.00000000000008500 ) ) ;
#147 = LINE ( 'NONE', #146, #145 ) ;
#148 = DIRECTION ( 'NONE',  ( 0.0000000000000000000, 1.000000000000000000, 2.903120684437055700E-016 ) ) ;
#149 = DIRECTION ( 'NONE',  ( -0.0000000000000000000, 2.539793928436788400E-016, -1.000000000000000000 ) ) ;
#150 = AXIS2_PLACEMENT_3D ( 'NONE', #153, #149, #148 ) ;
#151 = CYLINDRICAL_SURFACE ( 'NONE', #150, 23.90149999999999900 ) ;
#152 = CARTESIAN_POINT ( 'NONE',  ( 24.73615877200684600, 0.0000000000000000000, -3.304181524652116200E-019 ) ) ;
#153 = CARTESIAN_POINT ( 'NONE',  ( 0.0000000000000000000, 1.102182119232627800E-015, -18.00000000000009200 ) ) ;
#154 = FACE_OUTER_BOUND ( 'NONE', #15, .T. ) ;
#155 = CARTESIAN_POINT ( 'NONE',  ( 0.0000000000000000000, 23.90149999999999900, -0.8346587720068365800 ) ) ;
#156 = CARTESIAN_POINT ( 'NONE',  ( -23.90149999999999900, 2.978099298362213300E-015, -0.8346587720068365800 ) ) ;
#157 = DIRECTION ( 'NONE',  ( 1.000000000000000000, 0.0000000000000000000, 0.0000000000000000000 ) ) ;
#158 = DIRECTION ( 'NONE',  ( -0.0000000000000000000, -0.0000000000000000000, 1.000000000000000000 ) ) ;
#159 = AXIS2_PLACEMENT_3D ( 'NONE', #141, #158, #157 ) ;
#160 = CIRCLE ( 'NONE', #159, 23.90149999999999900 ) ;
#161 = DIRECTION ( 'NONE',  ( 1.000000000000000000, 0.0000000000000000000, 0.0000000000000000000 ) ) ;
#162 = DIRECTION ( 'NONE',  ( -0.0000000000000000000, -0.0000000000000000000, 1.000000000000000000 ) ) ;
#163 = DIRECTION ( 'NONE',  ( -0.0000000000000000000, 2.539793928436788400E-016, -1.000000000000000000 ) ) ;
#164 = DIRECTION ( 'NONE',  ( 1.000000000000000000, 0.0000000000000000000, 0.0000000000000000000 ) ) ;
#165 = DIRECTION ( 'NONE',  ( -0.0000000000000000000, -0.0000000000000000000, 1.000000000000000000 ) ) ;
#166 = CARTESIAN_POINT ( 'NONE',  ( 0.0000000000000000000, 0.0000000000000000000, -4.336808689942017700E-016 ) ) ;
#167 = AXIS2_PLACEMENT_3D ( 'NONE', #166, #165, #164 ) ;
#168 = CYLINDRICAL_SURFACE ( 'NONE', #167, 27.25000000000000400 ) ;
#169 = FACE_OUTER_BOUND ( 'NONE', #46, .T. ) ;
#170 = DIRECTION ( 'NONE',  ( 1.000000000000000000, 0.0000000000000000000, 0.0000000000000000000 ) ) ;
#171 = DIRECTION ( 'NONE',  ( -0.0000000000000000000, -0.0000000000000000000, 1.000000000000000000 ) ) ;
#172 = CARTESIAN_POINT ( 'NONE',  ( 0.0000000000000000000, 0.0000000000000000000, -0.8346587720068365800 ) ) ;
#173 = AXIS2_PLACEMENT_3D ( 'NONE', #172, #171, #170 ) ;
#174 = CIRCLE ( 'NONE', #173, 23.90149999999999900 ) ;
#175 = DIRECTION ( 'NONE',  ( 1.000000000000000000, 0.0000000000000000000, 0.0000000000000000000 ) ) ;
#176 = DIRECTION ( 'NONE',  ( -0.0000000000000000000, -0.0000000000000000000, 1.000000000000000000 ) ) ;
#177 = CARTESIAN_POINT ( 'NONE',  ( 0.0000000000000000000, 0.0000000000000000000, -3.304181524652116200E-019 ) ) ;
#178 = AXIS2_PLACEMENT_3D ( 'NONE', #177, #176, #175 ) ;
#179 = CIRCLE ( 'NONE', #178, 24.73615877200684600 ) ;
#180 = DIRECTION ( 'NONE',  ( 0.7071067811865514600, 0.0000000000000000000, 0.7071067811865435800 ) ) ;
#181 = CIRCLE ( 'NONE', #195, 23.90149999999999900 ) ;
#182 = CARTESIAN_POINT ( 'NONE',  ( 0.0000000000000000000, 0.0000000000000000000, -0.8346587720068365800 ) ) ;
#183 = AXIS2_PLACEMENT_3D ( 'NONE', #182, #143, #142 ) ;
#184 = DIRECTION ( 'NONE',  ( 1.000000000000000000, 0.0000000000000000000, 0.0000000000000000000 ) ) ;
#185 = DIRECTION ( 'NONE',  ( 0.0000000000000000000, -0.0000000000000000000, 1.000000000000000000 ) ) ;
#186 = CARTESIAN_POINT ( 'NONE',  ( 0.0000000000000000000, 27.25000000000000400, -18.00000000000000400 ) ) ;
#187 = AXIS2_PLACEMENT_3D ( 'NONE', #186, #185, #184 ) ;
#188 = FACE_OUTER_BOUND ( 'NONE', #49, .T. ) ;
#189 = DIRECTION ( 'NONE',  ( -0.0000000000000000000, -0.0000000000000000000, 1.000000000000000000 ) ) ;
#190 = CARTESIAN_POINT ( 'NONE',  ( 0.0000000000000000000, 0.0000000000000000000, -17.16534122799297200 ) ) ;
#191 = PLANE ( 'NONE',  #187 ) ;
#192 = FACE_BOUND ( 'NONE', #20, .T. ) ;
#193 = DIRECTION ( 'NONE',  ( 1.000000000000000000, 0.0000000000000000000, 0.0000000000000000000 ) ) ;
#194 = CONICAL_SURFACE ( 'NONE', #183, 23.90149999999999900, 0.7853981633974538300 ) ;
#195 = AXIS2_PLACEMENT_3D ( 'NONE', #190, #189, #193 ) ;
#196 = FACE_OUTER_BOUND ( 'NONE', #1, .T. ) ;
#197 = VECTOR ( 'NONE', #180, 1000.000000000000000 ) ;
#198 = CARTESIAN_POINT ( 'NONE',  ( 23.90149999999999900, 0.0000000000000000000, -0.8346587720068365800 ) ) ;
#199 = LINE ( 'NONE', #198, #197 ) ;
#200 = CARTESIAN_POINT ( 'NONE',  ( -24.73615877200684600, 3.029205720135871600E-015, -3.304181524652116200E-019 ) ) ;
#201 = DIRECTION ( 'NONE',  ( -0.7071067811865514600, 8.659274570719403500E-017, 0.7071067811865435800 ) ) ;
#202 = VECTOR ( 'NONE', #201, 1000.000000000000000 ) ;
#203 = CARTESIAN_POINT ( 'NONE',  ( -23.90149999999999900, 2.926992876588555000E-015, -0.8346587720068365800 ) ) ;
#204 = LINE ( 'NONE', #203, #202 ) ;
#205 = DIRECTION ( 'NONE',  ( 0.0000000000000000000, 1.000000000000000000, 2.903120684437055700E-016 ) ) ;
#206 = DIRECTION ( 'NONE',  ( -0.0000000000000000000, 2.539793928436788400E-016, -1.000000000000000000 ) ) ;
#207 = CARTESIAN_POINT ( 'NONE',  ( 0.0000000000000000000, 1.102182119232627800E-015, -18.00000000000009200 ) ) ;
#208 = AXIS2_PLACEMENT_3D ( 'NONE', #207, #206, #205 ) ;
#209 = CYLINDRICAL_SURFACE ( 'NONE', #208, 23.90149999999999900 ) ;
#210 = FACE_OUTER_BOUND ( 'NONE', #39, .T. ) ;
#211 = DIRECTION ( 'NONE',  ( -0.0000000000000000000, -0.0000000000000000000, 1.000000000000000000 ) ) ;
#212 = VECTOR ( 'NONE', #211, 1000.000000000000000 ) ;
#213 = CARTESIAN_POINT ( 'NONE',  ( 27.25000000000000400, 0.0000000000000000000, -4.336808689942017700E-016 ) ) ;
#214 = LINE ( 'NONE', #213, #212 ) ;
#215 = DIRECTION ( 'NONE',  ( -0.0000000000000000000, -0.0000000000000000000, 1.000000000000000000 ) ) ;
#216 = AXIS2_PLACEMENT_3D ( 'NONE', #221, #215, #253 ) ;
#217 = DIRECTION ( 'NONE',  ( -0.0000000000000000000, -0.0000000000000000000, 1.000000000000000000 ) ) ;
#218 = CARTESIAN_POINT ( 'NONE',  ( 0.0000000000000000000, 0.0000000000000000000, -18.00000000000000400 ) ) ;
#219 = AXIS2_PLACEMENT_3D ( 'NONE', #218, #217, #280 ) ;
#220 = CIRCLE ( 'NONE', #219, 27.25000000000000400 ) ;
#221 = CARTESIAN_POINT ( 'NONE',  ( 0.0000000000000000000, 0.0000000000000000000, -0.8346587720068365800 ) ) ;
#222 = DIRECTION ( 'NONE',  ( 1.000000000000000000, 0.0000000000000000000, 0.0000000000000000000 ) ) ;
#223 = DIRECTION ( 'NONE',  ( -0.0000000000000000000, -0.0000000000000000000, 1.000000000000000000 ) ) ;
#224 = CARTESIAN_POINT ( 'NONE',  ( 0.0000000000000000000, 0.0000000000000000000, 0.0000000000000000000 ) ) ;
#225 = AXIS2_PLACEMENT_3D ( 'NONE', #224, #223, #222 ) ;
#226 = CIRCLE ( 'NONE', #225, 27.25000000000000000 ) ;
#227 = DIRECTION ( 'NONE',  ( 1.000000000000000000, 0.0000000000000000000, 0.0000000000000000000 ) ) ;
#228 = DIRECTION ( 'NONE',  ( -0.0000000000000000000, -0.0000000000000000000, 1.000000000000000000 ) ) ;
#229 = CARTESIAN_POINT ( 'NONE',  ( 0.0000000000000000000, 0.0000000000000000000, -18.00000000000000400 ) ) ;
#230 = AXIS2_PLACEMENT_3D ( 'NONE', #229, #228, #227 ) ;
#231 = CIRCLE ( 'NONE', #230, 24.73615877200703700 ) ;
#232 = CARTESIAN_POINT ( 'NONE',  ( -23.90149999999999900, 0.0000000000000000000, -17.16534122799297200 ) ) ;
#233 = CARTESIAN_POINT ( 'NONE',  ( 23.90149999999999900, 2.978099298362225100E-015, -17.16534122799297200 ) ) ;
#234 = CARTESIAN_POINT ( 'NONE',  ( 2.926992876588555000E-015, -23.90149999999999900, -17.16534122799297200 ) ) ;
#235 = DIRECTION ( 'NONE',  ( 1.000000000000000000, 0.0000000000000000000, 0.0000000000000000000 ) ) ;
#236 = DIRECTION ( 'NONE',  ( -0.0000000000000000000, -0.0000000000000000000, 1.000000000000000000 ) ) ;
#237 = CARTESIAN_POINT ( 'NONE',  ( 0.0000000000000000000, 0.0000000000000000000, -17.16534122799297200 ) ) ;
#238 = AXIS2_PLACEMENT_3D ( 'NONE', #237, #236, #235 ) ;
#239 = DIRECTION ( 'NONE',  ( -1.000000000000000000, 0.0000000000000000000, 0.0000000000000000000 ) ) ;
#240 = DIRECTION ( 'NONE',  ( 0.0000000000000000000, 0.0000000000000000000, -1.000000000000000000 ) ) ;
#241 = CARTESIAN_POINT ( 'NONE',  ( 0.0000000000000000000, 0.0000000000000000000, -18.00000000000000400 ) ) ;
#242 = AXIS2_PLACEMENT_3D ( 'NONE', #241, #240, #239 ) ;
#243 = CIRCLE ( 'NONE', #238, 23.90149999999999900 ) ;
#244 = CONICAL_SURFACE ( 'NONE', #242, 24.73615877200703700, 0.7853981633974525000 ) ;
#245 = FACE_OUTER_BOUND ( 'NONE', #85, .T. ) ;
#246 = DIRECTION ( 'NONE',  ( 1.000000000000000000, 0.0000000000000000000, 0.0000000000000000000 ) ) ;
#247 = DIRECTION ( 'NONE',  ( -0.0000000000000000000, -0.0000000000000000000, 1.000000000000000000 ) ) ;
#248 = AXIS2_PLACEMENT_3D ( 'NONE', #254, #247, #246 ) ;
#249 = CIRCLE ( 'NONE', #248, 24.73615877200703700 ) ;
#250 = CARTESIAN_POINT ( 'NONE',  ( 0.0000000000000000000, 23.90149999999999900, -17.16534122799297200 ) ) ;
#251 = DIRECTION ( 'NONE',  ( 1.000000000000000000, 0.0000000000000000000, 0.0000000000000000000 ) ) ;
#252 = DIRECTION ( 'NONE',  ( -0.0000000000000000000, -0.0000000000000000000, 1.000000000000000000 ) ) ;
#253 = DIRECTION ( 'NONE',  ( 1.000000000000000000, 0.0000000000000000000, 0.0000000000000000000 ) ) ;
#254 = CARTESIAN_POINT ( 'NONE',  ( 0.0000000000000000000, 0.0000000000000000000, -18.00000000000000400 ) ) ;
#255 = CARTESIAN_POINT ( 'NONE',  ( 24.73615877200703700, 3.029205720135894900E-015, -18.00000000000000400 ) ) ;
#256 = CARTESIAN_POINT ( 'NONE',  ( -24.73615877200703700, 0.0000000000000000000, -18.00000000000000400 ) ) ;
#257 = DIRECTION ( 'NONE',  ( -0.7071067811865504600, 0.0000000000000000000, -0.7071067811865445800 ) ) ;
#258 = VECTOR ( 'NONE', #257, 1000.000000000000000 ) ;
#259 = CARTESIAN_POINT ( 'NONE',  ( -24.73615877200703700, 0.0000000000000000000, -18.00000000000000400 ) ) ;
#260 = LINE ( 'NONE', #259, #258 ) ;
#261 = DIRECTION ( 'NONE',  ( 0.7071067811865504600, 8.659274570719391200E-017, -0.7071067811865445800 ) ) ;
#262 = VECTOR ( 'NONE', #261, 1000.000000000000000 ) ;
#263 = CARTESIAN_POINT ( 'NONE',  ( 24.73615877200703700, 3.029205720135894900E-015, -18.00000000000000400 ) ) ;
#264 = LINE ( 'NONE', #263, #262 ) ;
#265 = CARTESIAN_POINT ( 'NONE',  ( 2.926992876588555000E-015, -23.90149999999999900, -0.8346587720068365800 ) ) ;
#266 = CARTESIAN_POINT ( 'NONE',  ( 27.25000000000000000, 0.0000000000000000000, 0.0000000000000000000 ) ) ;
#267 = DIRECTION ( 'NONE',  ( 1.000000000000000000, 0.0000000000000000000, 0.0000000000000000000 ) ) ;
#268 = DIRECTION ( 'NONE',  ( -0.0000000000000000000, -0.0000000000000000000, 1.000000000000000000 ) ) ;
#269 = CARTESIAN_POINT ( 'NONE',  ( 0.0000000000000000000, 0.0000000000000000000, 0.0000000000000000000 ) ) ;
#270 = AXIS2_PLACEMENT_3D ( 'NONE', #269, #268, #267 ) ;
#271 = CIRCLE ( 'NONE', #270, 27.25000000000000000 ) ;
#272 = CARTESIAN_POINT ( 'NONE',  ( -27.25000000000000000, 3.337052314165978000E-015, 0.0000000000000000000 ) ) ;
#273 = DIRECTION ( 'NONE',  ( -0.0000000000000000000, -0.0000000000000000000, 1.000000000000000000 ) ) ;
#274 = VECTOR ( 'NONE', #273, 1000.000000000000000 ) ;
#275 = CARTESIAN_POINT ( 'NONE',  ( -27.25000000000000400, 3.337052314165978400E-015, -4.336808689942017700E-016 ) ) ;
#276 = LINE ( 'NONE', #275, #274 ) ;
#277 = CIRCLE ( 'NONE', #216, 23.90149999999999900 ) ;
#278 = CARTESIAN_POINT ( 'NONE',  ( -27.25000000000000400, 3.337052314165978400E-015, -18.00000000000000400 ) ) ;
#279 = CARTESIAN_POINT ( 'NONE',  ( 27.25000000000000400, 0.0000000000000000000, -18.00000000000000400 ) ) ;
#280 = DIRECTION ( 'NONE',  ( 1.000000000000000000, 0.0000000000000000000, 0.0000000000000000000 ) ) ;
#281 = CARTESIAN_POINT ( 'NONE',  ( 0.0000000000000000000, 0.0000000000000000000, -17.16534122799297200 ) ) ;
#282 = AXIS2_PLACEMENT_3D ( 'NONE', #281, #252, #251 ) ;
#283 = CIRCLE ( 'NONE', #282, 23.90149999999999900 ) ;
#284 = AXIS2_PLACEMENT_3D ( 'NONE', #300, #298, #297 ) ;
#285 = CYLINDRICAL_SURFACE ( 'NONE', #284, 27.25000000000000400 ) ;
#286 = CARTESIAN_POINT ( 'NONE',  ( 0.0000000000000000000, 0.0000000000000000000, -0.8346587720068365800 ) ) ;
#287 = FACE_OUTER_BOUND ( 'NONE', #117, .T. ) ;
#288 = CARTESIAN_POINT ( 'NONE',  ( 0.0000000000000000000, 0.0000000000000000000, -3.304181524652116200E-019 ) ) ;
#289 = CONICAL_SURFACE ( 'NONE', #306, 24.73615877200703700, 0.7853981633974525000 ) ;
#290 = CARTESIAN_POINT ( 'NONE',  ( 0.0000000000000000000, 0.0000000000000000000, -18.00000000000000400 ) ) ;
#291 = CIRCLE ( 'NONE', #303, 24.73615877200684600 ) ;
#292 = DIRECTION ( 'NONE',  ( 1.000000000000000000, 0.0000000000000000000, 0.0000000000000000000 ) ) ;
#293 = DIRECTION ( 'NONE',  ( -0.0000000000000000000, -0.0000000000000000000, 1.000000000000000000 ) ) ;
#294 = AXIS2_PLACEMENT_3D ( 'NONE', #286, #293, #292 ) ;
#295 = CONICAL_SURFACE ( 'NONE', #294, 23.90149999999999900, 0.7853981633974538300 ) ;
#296 = DIRECTION ( 'NONE',  ( -1.000000000000000000, 0.0000000000000000000, 0.0000000000000000000 ) ) ;
#297 = DIRECTION ( 'NONE',  ( 1.000000000000000000, 0.0000000000000000000, 0.0000000000000000000 ) ) ;
#298 = DIRECTION ( 'NONE',  ( -0.0000000000000000000, -0.0000000000000000000, 1.000000000000000000 ) ) ;
#299 = FACE_OUTER_BOUND ( 'NONE', #111, .T. ) ;
#300 = CARTESIAN_POINT ( 'NONE',  ( 0.0000000000000000000, 0.0000000000000000000, -4.336808689942017700E-016 ) ) ;
#301 = DIRECTION ( 'NONE',  ( 1.000000000000000000, 0.0000000000000000000, 0.0000000000000000000 ) ) ;
#302 = DIRECTION ( 'NONE',  ( -0.0000000000000000000, -0.0000000000000000000, 1.000000000000000000 ) ) ;
#303 = AXIS2_PLACEMENT_3D ( 'NONE', #288, #302, #301 ) ;
#304 = FACE_OUTER_BOUND ( 'NONE', #107, .T. ) ;
#305 = DIRECTION ( 'NONE',  ( 0.0000000000000000000, 0.0000000000000000000, -1.000000000000000000 ) ) ;
#306 = AXIS2_PLACEMENT_3D ( 'NONE', #290, #305, #296 ) ;
#307 = DIRECTION ( 'NONE',  ( 1.000000000000000000, 0.0000000000000000000, 0.0000000000000000000 ) ) ;
#308 = AXIS2_PLACEMENT_3D ( 'NONE', #313, #333, #307 ) ;
#309 = APPLICATION_PROTOCOL_DEFINITION ( 'international standard', 'config_control_design', 1994, #310 ) ;
#310 = APPLICATION_CONTEXT ( 'configuration controlled 3d designs of mechanical parts and assemblies' ) ;
#311 = PRODUCT_DEFINITION_SHAPE ( 'NONE', 'NONE',  #388 ) ;
#312 = PRODUCT_RELATED_PRODUCT_CATEGORY ( 'detail', '', ( #315 ) ) ;
#313 = CARTESIAN_POINT ( 'NONE',  ( 0.0000000000000000000, 0.0000000000000000000, 0.0000000000000000000 ) ) ;
#314 = PERSON ( 'UNSPECIFIED', 'UNSPECIFIED', 'UNSPECIFIED', ('UNSPECIFIED'), ('UNSPECIFIED'), ('UNSPECIFIED') ) ;
#315 = PRODUCT ( '11-0216-08_outokumpu', '11-0216-08_outokumpu', '', ( #316 ) ) ;
#316 = MECHANICAL_CONTEXT ( 'NONE', #310, 'mechanical' ) ;
#317 =( GEOMETRIC_REPRESENTATION_CONTEXT ( 3 ) GLOBAL_UNCERTAINTY_ASSIGNED_CONTEXT ( ( #89 ) ) GLOBAL_UNIT_ASSIGNED_CONTEXT ( ( #84, #83, #90 ) ) REPRESENTATION_CONTEXT ( 'NONE', 'WORKASPACE' ) );
#318 = APPLICATION_PROTOCOL_DEFINITION ( 'international standard', 'config_control_design', 1994, #319 ) ;
#319 = APPLICATION_CONTEXT ( 'configuration controlled 3d designs of mechanical parts and assemblies' ) ;
#320 = CC_DESIGN_PERSON_AND_ORGANIZATION_ASSIGNMENT ( #331, #321, ( #315 ) ) ;
#321 = PERSON_AND_ORGANIZATION_ROLE ( 'design_owner' ) ;
#322 = ORGANIZATION ( 'UNSPECIFIED', 'UNSPECIFIED', '' ) ;
#323 = PERSON_AND_ORGANIZATION ( #314, #322 ) ;
#324 = CC_DESIGN_DATE_AND_TIME_ASSIGNMENT ( #326, #325, ( #388 ) ) ;
#325 = DATE_TIME_ROLE ( 'creation_date' ) ;
#326 = DATE_AND_TIME ( #327, #328 ) ;
#327 = CALENDAR_DATE ( 2015, 11, 8 ) ;
#328 = LOCAL_TIME ( 16, 14, 9.000000000000000000, #329 ) ;
#329 = COORDINATED_UNIVERSAL_TIME_OFFSET ( 1, 0, .AHEAD. ) ;
#330 = CC_DESIGN_PERSON_AND_ORGANIZATION_ASSIGNMENT ( #376, #375, ( #388 ) ) ;
#331 = PERSON_AND_ORGANIZATION ( #314, #322 ) ;
#332 = SHAPE_DEFINITION_REPRESENTATION ( #311, #334 ) ;
#333 = DIRECTION ( 'NONE',  ( 0.0000000000000000000, 0.0000000000000000000, 1.000000000000000000 ) ) ;
#334 = ADVANCED_BREP_SHAPE_REPRESENTATION ( '11-0216-08_outokumpu', ( #75, #308 ), #317 ) ;
#335 = CC_DESIGN_SECURITY_CLASSIFICATION ( #356, ( #374 ) ) ;
#336 = CC_DESIGN_APPROVAL ( #344, ( #356 ) ) ;
#337 = APPROVAL_DATE_TIME ( #338, #344 ) ;
#338 = DATE_AND_TIME ( #339, #340 ) ;
#339 = CALENDAR_DATE ( 2015, 11, 8 ) ;
#340 = LOCAL_TIME ( 16, 14, 9.000000000000000000, #341 ) ;
#341 = COORDINATED_UNIVERSAL_TIME_OFFSET ( 1, 0, .AHEAD. ) ;
#342 = APPROVAL_PERSON_ORGANIZATION ( #346, #344, #343 ) ;
#343 = APPROVAL_ROLE ( '' ) ;
#344 = APPROVAL ( #345, 'UNSPECIFIED' ) ;
#345 = APPROVAL_STATUS ( 'not_yet_approved' ) ;
#346 = PERSON_AND_ORGANIZATION ( #314, #322 ) ;
#347 = CC_DESIGN_DATE_AND_TIME_ASSIGNMENT ( #349, #348, ( #356 ) ) ;
#348 = DATE_TIME_ROLE ( 'classification_date' ) ;
#349 = DATE_AND_TIME ( #350, #351 ) ;
#350 = CALENDAR_DATE ( 2015, 11, 8 ) ;
#351 = LOCAL_TIME ( 16, 14, 9.000000000000000000, #352 ) ;
#352 = COORDINATED_UNIVERSAL_TIME_OFFSET ( 1, 0, .AHEAD. ) ;
#353 = CC_DESIGN_PERSON_AND_ORGANIZATION_ASSIGNMENT ( #355, #354, ( #356 ) ) ;
#354 = PERSON_AND_ORGANIZATION_ROLE ( 'classification_officer' ) ;
#355 = PERSON_AND_ORGANIZATION ( #314, #322 ) ;
#356 = SECURITY_CLASSIFICATION ( '', '', #357 ) ;
#357 = SECURITY_CLASSIFICATION_LEVEL ( 'unclassified' ) ;
#358 = CC_DESIGN_PERSON_AND_ORGANIZATION_ASSIGNMENT ( #360, #359, ( #374 ) ) ;
#359 = PERSON_AND_ORGANIZATION_ROLE ( 'design_supplier' ) ;
#360 = PERSON_AND_ORGANIZATION ( #314, #322 ) ;
#361 = CC_DESIGN_PERSON_AND_ORGANIZATION_ASSIGNMENT ( #363, #362, ( #374 ) ) ;
#362 = PERSON_AND_ORGANIZATION_ROLE ( 'creator' ) ;
#363 = PERSON_AND_ORGANIZATION ( #314, #322 ) ;
#364 = CC_DESIGN_APPROVAL ( #372, ( #374 ) ) ;
#365 = APPROVAL_DATE_TIME ( #366, #372 ) ;
#366 = DATE_AND_TIME ( #367, #368 ) ;
#367 = CALENDAR_DATE ( 2015, 11, 8 ) ;
#368 = LOCAL_TIME ( 16, 14, 9.000000000000000000, #369 ) ;
#369 = COORDINATED_UNIVERSAL_TIME_OFFSET ( 1, 0, .AHEAD. ) ;
#370 = APPROVAL_PERSON_ORGANIZATION ( #323, #372, #371 ) ;
#371 = APPROVAL_ROLE ( '' ) ;
#372 = APPROVAL ( #373, 'UNSPECIFIED' ) ;
#373 = APPROVAL_STATUS ( 'not_yet_approved' ) ;
#374 = PRODUCT_DEFINITION_FORMATION_WITH_SPECIFIED_SOURCE ( 'ANY', '', #315, .NOT_KNOWN. ) ;
#375 = PERSON_AND_ORGANIZATION_ROLE ( 'creator' ) ;
#376 = PERSON_AND_ORGANIZATION ( #314, #322 ) ;
#377 = CC_DESIGN_APPROVAL ( #385, ( #388 ) ) ;
#378 = APPROVAL_DATE_TIME ( #379, #385 ) ;
#379 = DATE_AND_TIME ( #380, #381 ) ;
#380 = CALENDAR_DATE ( 2015, 11, 8 ) ;
#381 = LOCAL_TIME ( 16, 14, 9.000000000000000000, #382 ) ;
#382 = COORDINATED_UNIVERSAL_TIME_OFFSET ( 1, 0, .AHEAD. ) ;
#383 = APPROVAL_PERSON_ORGANIZATION ( #387, #385, #384 ) ;
#384 = APPROVAL_ROLE ( '' ) ;
#385 = APPROVAL ( #386, 'UNSPECIFIED' ) ;
#386 = APPROVAL_STATUS ( 'not_yet_approved' ) ;
#387 = PERSON_AND_ORGANIZATION ( #314, #322 ) ;
#388 = PRODUCT_DEFINITION ( 'UNKNOWN', '', #374, #389 ) ;
#389 = DESIGN_CONTEXT ( 'detailed design', #319, 'design' ) ;
ENDSEC;
END-ISO-10303-21;
