ISO-10303-21;
HEADER;
/* Generated by software containing ST-Developer
 * from STEP Tools, Inc. (www.steptools.com) 
 */

FILE_DESCRIPTION(
/* description */ ('ADATTORE "VICTAULIC" 60-54 STEEL'),
/* implementation_level */ '2;1');

FILE_NAME(
/* name */ 
'R:\\Disegni3D_Area_Manager\\Steelpres.step\\322_STEELPRES\\322060054_
Steelpres.stp',
/* time_stamp */ '2022-10-24T08:33:05+02:00',
/* author */ ('Vault'),
/* organization */ ('Raccorderie metalliche s.p.a. '),
/* preprocessor_version */ 'ST-DEVELOPER v18.1',
/* originating_system */ 'Autodesk Inventor 2020',
/* authorisation */ 'Raccorderie metalliche s.p.a. ');

FILE_SCHEMA (('AUTOMOTIVE_DESIGN { 1 0 10303 214 3 1 1 }'));
ENDSEC;

DATA;
#10=MECHANICAL_DESIGN_GEOMETRIC_PRESENTATION_REPRESENTATION('',(#13),#521);
#11=SHAPE_REPRESENTATION_RELATIONSHIP('SRR','None',#528,#12);
#12=ADVANCED_BREP_SHAPE_REPRESENTATION('',(#14),#520);
#13=STYLED_ITEM('',(#537),#14);
#14=MANIFOLD_SOLID_BREP('Solido1',#277);
#15=CYLINDRICAL_SURFACE('',#304,30.15);
#16=CYLINDRICAL_SURFACE('',#311,30.15);
#17=CYLINDRICAL_SURFACE('',#324,25.5);
#18=CYLINDRICAL_SURFACE('',#333,27.);
#19=CYLINDRICAL_SURFACE('',#337,28.55);
#20=FACE_BOUND('',#46,.T.);
#21=FACE_BOUND('',#51,.T.);
#22=FACE_BOUND('',#54,.T.);
#23=FACE_BOUND('',#59,.T.);
#24=PLANE('',#301);
#25=PLANE('',#314);
#26=PLANE('',#319);
#27=PLANE('',#331);
#28=FACE_OUTER_BOUND('',#44,.T.);
#29=FACE_OUTER_BOUND('',#45,.T.);
#30=FACE_OUTER_BOUND('',#47,.T.);
#31=FACE_OUTER_BOUND('',#48,.T.);
#32=FACE_OUTER_BOUND('',#49,.T.);
#33=FACE_OUTER_BOUND('',#50,.T.);
#34=FACE_OUTER_BOUND('',#52,.T.);
#35=FACE_OUTER_BOUND('',#53,.T.);
#36=FACE_OUTER_BOUND('',#55,.T.);
#37=FACE_OUTER_BOUND('',#56,.T.);
#38=FACE_OUTER_BOUND('',#57,.T.);
#39=FACE_OUTER_BOUND('',#58,.T.);
#40=FACE_OUTER_BOUND('',#60,.T.);
#41=FACE_OUTER_BOUND('',#61,.T.);
#42=FACE_OUTER_BOUND('',#62,.T.);
#43=FACE_OUTER_BOUND('',#63,.T.);
#44=EDGE_LOOP('',(#178,#179,#180,#181,#182));
#45=EDGE_LOOP('',(#183));
#46=EDGE_LOOP('',(#184,#185));
#47=EDGE_LOOP('',(#186,#187,#188,#189,#190,#191));
#48=EDGE_LOOP('',(#192,#193,#194,#195,#196));
#49=EDGE_LOOP('',(#197,#198,#199,#200,#201,#202));
#50=EDGE_LOOP('',(#203));
#51=EDGE_LOOP('',(#204,#205));
#52=EDGE_LOOP('',(#206,#207,#208,#209,#210));
#53=EDGE_LOOP('',(#211));
#54=EDGE_LOOP('',(#212));
#55=EDGE_LOOP('',(#213,#214,#215,#216,#217));
#56=EDGE_LOOP('',(#218,#219,#220,#221,#222,#223));
#57=EDGE_LOOP('',(#224,#225,#226,#227,#228));
#58=EDGE_LOOP('',(#229));
#59=EDGE_LOOP('',(#230));
#60=EDGE_LOOP('',(#231,#232,#233,#234,#235,#236));
#61=EDGE_LOOP('',(#237,#238,#239,#240,#241));
#62=EDGE_LOOP('',(#242,#243,#244,#245,#246,#247));
#63=EDGE_LOOP('',(#248,#249,#250,#251,#252,#253));
#64=LINE('',#444,#76);
#65=LINE('',#456,#77);
#66=LINE('',#461,#78);
#67=LINE('',#467,#79);
#68=LINE('',#478,#80);
#69=LINE('',#485,#81);
#70=LINE('',#494,#82);
#71=LINE('',#499,#83);
#72=LINE('',#508,#84);
#73=LINE('',#513,#85);
#74=LINE('',#515,#86);
#75=LINE('',#517,#87);
#76=VECTOR('',#347,29.9);
#77=VECTOR('',#362,30.15);
#78=VECTOR('',#367,29.9);
#79=VECTOR('',#374,30.15);
#80=VECTOR('',#387,29.9);
#81=VECTOR('',#396,25.75);
#82=VECTOR('',#407,25.5);
#83=VECTOR('',#412,26.75);
#84=VECTOR('',#423,27.);
#85=VECTOR('',#430,25.75);
#86=VECTOR('',#433,28.55);
#87=VECTOR('',#436,28.575);
#88=CIRCLE('',#298,30.15);
#89=CIRCLE('',#299,30.15);
#90=CIRCLE('',#300,29.65);
#91=CIRCLE('',#302,28.55);
#92=CIRCLE('',#303,28.55);
#93=CIRCLE('',#305,30.15);
#94=CIRCLE('',#306,30.15);
#95=CIRCLE('',#308,29.65);
#96=CIRCLE('',#309,30.15);
#97=CIRCLE('',#310,30.15);
#98=CIRCLE('',#312,30.15);
#99=CIRCLE('',#313,30.15);
#100=CIRCLE('',#315,28.55);
#101=CIRCLE('',#316,28.55);
#102=CIRCLE('',#318,29.65);
#103=CIRCLE('',#320,26.);
#104=CIRCLE('',#322,25.5);
#105=CIRCLE('',#323,25.5);
#106=CIRCLE('',#325,25.5);
#107=CIRCLE('',#326,25.5);
#108=CIRCLE('',#328,26.5);
#109=CIRCLE('',#329,27.);
#110=CIRCLE('',#330,27.);
#111=CIRCLE('',#332,26.);
#112=CIRCLE('',#334,27.);
#113=CIRCLE('',#335,27.);
#114=VERTEX_POINT('',#439);
#115=VERTEX_POINT('',#440);
#116=VERTEX_POINT('',#443);
#117=VERTEX_POINT('',#447);
#118=VERTEX_POINT('',#448);
#119=VERTEX_POINT('',#452);
#120=VERTEX_POINT('',#453);
#121=VERTEX_POINT('',#458);
#122=VERTEX_POINT('',#460);
#123=VERTEX_POINT('',#462);
#124=VERTEX_POINT('',#466);
#125=VERTEX_POINT('',#468);
#126=VERTEX_POINT('',#472);
#127=VERTEX_POINT('',#473);
#128=VERTEX_POINT('',#477);
#129=VERTEX_POINT('',#481);
#130=VERTEX_POINT('',#484);
#131=VERTEX_POINT('',#486);
#132=VERTEX_POINT('',#490);
#133=VERTEX_POINT('',#491);
#134=VERTEX_POINT('',#496);
#135=VERTEX_POINT('',#498);
#136=VERTEX_POINT('',#500);
#137=VERTEX_POINT('',#504);
#138=VERTEX_POINT('',#507);
#139=VERTEX_POINT('',#509);
#140=EDGE_CURVE('',#114,#115,#88,.T.);
#141=EDGE_CURVE('',#115,#114,#89,.T.);
#142=EDGE_CURVE('',#114,#116,#64,.T.);
#143=EDGE_CURVE('',#116,#116,#90,.T.);
#144=EDGE_CURVE('',#117,#118,#91,.T.);
#145=EDGE_CURVE('',#118,#117,#92,.T.);
#146=EDGE_CURVE('',#119,#120,#93,.T.);
#147=EDGE_CURVE('',#120,#119,#94,.T.);
#148=EDGE_CURVE('',#120,#115,#65,.T.);
#149=EDGE_CURVE('',#121,#121,#95,.T.);
#150=EDGE_CURVE('',#121,#122,#66,.T.);
#151=EDGE_CURVE('',#122,#123,#96,.T.);
#152=EDGE_CURVE('',#123,#122,#97,.T.);
#153=EDGE_CURVE('',#123,#124,#67,.T.);
#154=EDGE_CURVE('',#125,#124,#98,.T.);
#155=EDGE_CURVE('',#124,#125,#99,.T.);
#156=EDGE_CURVE('',#126,#127,#100,.T.);
#157=EDGE_CURVE('',#127,#126,#101,.T.);
#158=EDGE_CURVE('',#125,#128,#68,.T.);
#159=EDGE_CURVE('',#128,#128,#102,.T.);
#160=EDGE_CURVE('',#129,#129,#103,.T.);
#161=EDGE_CURVE('',#129,#130,#69,.T.);
#162=EDGE_CURVE('',#130,#131,#104,.T.);
#163=EDGE_CURVE('',#131,#130,#105,.T.);
#164=EDGE_CURVE('',#132,#133,#106,.T.);
#165=EDGE_CURVE('',#133,#132,#107,.T.);
#166=EDGE_CURVE('',#133,#131,#70,.T.);
#167=EDGE_CURVE('',#134,#134,#108,.T.);
#168=EDGE_CURVE('',#134,#135,#71,.T.);
#169=EDGE_CURVE('',#135,#136,#109,.T.);
#170=EDGE_CURVE('',#136,#135,#110,.T.);
#171=EDGE_CURVE('',#137,#137,#111,.T.);
#172=EDGE_CURVE('',#136,#138,#72,.T.);
#173=EDGE_CURVE('',#138,#139,#112,.T.);
#174=EDGE_CURVE('',#139,#138,#113,.T.);
#175=EDGE_CURVE('',#132,#137,#73,.T.);
#176=EDGE_CURVE('',#118,#127,#74,.T.);
#177=EDGE_CURVE('',#138,#120,#75,.T.);
#178=ORIENTED_EDGE('',*,*,#140,.T.);
#179=ORIENTED_EDGE('',*,*,#141,.T.);
#180=ORIENTED_EDGE('',*,*,#142,.T.);
#181=ORIENTED_EDGE('',*,*,#143,.T.);
#182=ORIENTED_EDGE('',*,*,#142,.F.);
#183=ORIENTED_EDGE('',*,*,#143,.F.);
#184=ORIENTED_EDGE('',*,*,#144,.T.);
#185=ORIENTED_EDGE('',*,*,#145,.T.);
#186=ORIENTED_EDGE('',*,*,#146,.F.);
#187=ORIENTED_EDGE('',*,*,#147,.F.);
#188=ORIENTED_EDGE('',*,*,#148,.T.);
#189=ORIENTED_EDGE('',*,*,#140,.F.);
#190=ORIENTED_EDGE('',*,*,#141,.F.);
#191=ORIENTED_EDGE('',*,*,#148,.F.);
#192=ORIENTED_EDGE('',*,*,#149,.T.);
#193=ORIENTED_EDGE('',*,*,#150,.T.);
#194=ORIENTED_EDGE('',*,*,#151,.T.);
#195=ORIENTED_EDGE('',*,*,#152,.T.);
#196=ORIENTED_EDGE('',*,*,#150,.F.);
#197=ORIENTED_EDGE('',*,*,#151,.F.);
#198=ORIENTED_EDGE('',*,*,#152,.F.);
#199=ORIENTED_EDGE('',*,*,#153,.T.);
#200=ORIENTED_EDGE('',*,*,#154,.F.);
#201=ORIENTED_EDGE('',*,*,#155,.F.);
#202=ORIENTED_EDGE('',*,*,#153,.F.);
#203=ORIENTED_EDGE('',*,*,#149,.F.);
#204=ORIENTED_EDGE('',*,*,#156,.F.);
#205=ORIENTED_EDGE('',*,*,#157,.F.);
#206=ORIENTED_EDGE('',*,*,#154,.T.);
#207=ORIENTED_EDGE('',*,*,#155,.T.);
#208=ORIENTED_EDGE('',*,*,#158,.T.);
#209=ORIENTED_EDGE('',*,*,#159,.T.);
#210=ORIENTED_EDGE('',*,*,#158,.F.);
#211=ORIENTED_EDGE('',*,*,#159,.F.);
#212=ORIENTED_EDGE('',*,*,#160,.F.);
#213=ORIENTED_EDGE('',*,*,#160,.T.);
#214=ORIENTED_EDGE('',*,*,#161,.T.);
#215=ORIENTED_EDGE('',*,*,#162,.T.);
#216=ORIENTED_EDGE('',*,*,#163,.T.);
#217=ORIENTED_EDGE('',*,*,#161,.F.);
#218=ORIENTED_EDGE('',*,*,#164,.F.);
#219=ORIENTED_EDGE('',*,*,#165,.F.);
#220=ORIENTED_EDGE('',*,*,#166,.T.);
#221=ORIENTED_EDGE('',*,*,#162,.F.);
#222=ORIENTED_EDGE('',*,*,#163,.F.);
#223=ORIENTED_EDGE('',*,*,#166,.F.);
#224=ORIENTED_EDGE('',*,*,#167,.T.);
#225=ORIENTED_EDGE('',*,*,#168,.T.);
#226=ORIENTED_EDGE('',*,*,#169,.T.);
#227=ORIENTED_EDGE('',*,*,#170,.T.);
#228=ORIENTED_EDGE('',*,*,#168,.F.);
#229=ORIENTED_EDGE('',*,*,#167,.F.);
#230=ORIENTED_EDGE('',*,*,#171,.F.);
#231=ORIENTED_EDGE('',*,*,#169,.F.);
#232=ORIENTED_EDGE('',*,*,#170,.F.);
#233=ORIENTED_EDGE('',*,*,#172,.T.);
#234=ORIENTED_EDGE('',*,*,#173,.T.);
#235=ORIENTED_EDGE('',*,*,#174,.T.);
#236=ORIENTED_EDGE('',*,*,#172,.F.);
#237=ORIENTED_EDGE('',*,*,#164,.T.);
#238=ORIENTED_EDGE('',*,*,#165,.T.);
#239=ORIENTED_EDGE('',*,*,#175,.T.);
#240=ORIENTED_EDGE('',*,*,#171,.T.);
#241=ORIENTED_EDGE('',*,*,#175,.F.);
#242=ORIENTED_EDGE('',*,*,#144,.F.);
#243=ORIENTED_EDGE('',*,*,#145,.F.);
#244=ORIENTED_EDGE('',*,*,#176,.T.);
#245=ORIENTED_EDGE('',*,*,#157,.T.);
#246=ORIENTED_EDGE('',*,*,#156,.T.);
#247=ORIENTED_EDGE('',*,*,#176,.F.);
#248=ORIENTED_EDGE('',*,*,#174,.F.);
#249=ORIENTED_EDGE('',*,*,#173,.F.);
#250=ORIENTED_EDGE('',*,*,#177,.T.);
#251=ORIENTED_EDGE('',*,*,#147,.T.);
#252=ORIENTED_EDGE('',*,*,#146,.T.);
#253=ORIENTED_EDGE('',*,*,#177,.F.);
#254=CONICAL_SURFACE('',#297,29.9,0.785398163397448);
#255=CONICAL_SURFACE('',#307,29.9,0.785398163397446);
#256=CONICAL_SURFACE('',#317,29.9,0.785398163397446);
#257=CONICAL_SURFACE('',#321,25.75,0.785398163397446);
#258=CONICAL_SURFACE('',#327,26.75,0.785398163397439);
#259=CONICAL_SURFACE('',#336,25.75,0.785398163397448);
#260=CONICAL_SURFACE('',#338,28.575,0.523598775598298);
#261=ADVANCED_FACE('',(#28),#254,.T.);
#262=ADVANCED_FACE('',(#29,#20),#24,.T.);
#263=ADVANCED_FACE('',(#30),#15,.T.);
#264=ADVANCED_FACE('',(#31),#255,.T.);
#265=ADVANCED_FACE('',(#32),#16,.T.);
#266=ADVANCED_FACE('',(#33,#21),#25,.T.);
#267=ADVANCED_FACE('',(#34),#256,.T.);
#268=ADVANCED_FACE('',(#35,#22),#26,.T.);
#269=ADVANCED_FACE('',(#36),#257,.F.);
#270=ADVANCED_FACE('',(#37),#17,.F.);
#271=ADVANCED_FACE('',(#38),#258,.T.);
#272=ADVANCED_FACE('',(#39,#23),#27,.T.);
#273=ADVANCED_FACE('',(#40),#18,.T.);
#274=ADVANCED_FACE('',(#41),#259,.F.);
#275=ADVANCED_FACE('',(#42),#19,.T.);
#276=ADVANCED_FACE('',(#43),#260,.T.);
#277=CLOSED_SHELL('',(#261,#262,#263,#264,#265,#266,#267,#268,#269,#270,
#271,#272,#273,#274,#275,#276));
#278=DERIVED_UNIT_ELEMENT(#280,1.);
#279=DERIVED_UNIT_ELEMENT(#523,3.);
#280=(
MASS_UNIT()
NAMED_UNIT(*)
SI_UNIT($,.GRAM.)
);
#281=DERIVED_UNIT((#278,#279));
#282=MEASURE_REPRESENTATION_ITEM('density measure',
POSITIVE_RATIO_MEASURE(1.),#281);
#283=PROPERTY_DEFINITION_REPRESENTATION(#288,#285);
#284=PROPERTY_DEFINITION_REPRESENTATION(#289,#286);
#285=REPRESENTATION('material name',(#287),#520);
#286=REPRESENTATION('density',(#282),#520);
#287=DESCRIPTIVE_REPRESENTATION_ITEM('Generico','Generico');
#288=PROPERTY_DEFINITION('material property','material name',#530);
#289=PROPERTY_DEFINITION('material property','density of part',#530);
#290=DATE_TIME_ROLE('creation_date');
#291=APPLIED_DATE_AND_TIME_ASSIGNMENT(#292,#290,(#530));
#292=DATE_AND_TIME(#293,#294);
#293=CALENDAR_DATE(2015,23,12);
#294=LOCAL_TIME(10,24,4.,#295);
#295=COORDINATED_UNIVERSAL_TIME_OFFSET(0,0,.BEHIND.);
#296=AXIS2_PLACEMENT_3D('placement',#437,#339,#340);
#297=AXIS2_PLACEMENT_3D('',#438,#341,#342);
#298=AXIS2_PLACEMENT_3D('',#441,#343,#344);
#299=AXIS2_PLACEMENT_3D('',#442,#345,#346);
#300=AXIS2_PLACEMENT_3D('',#445,#348,#349);
#301=AXIS2_PLACEMENT_3D('',#446,#350,#351);
#302=AXIS2_PLACEMENT_3D('',#449,#352,#353);
#303=AXIS2_PLACEMENT_3D('',#450,#354,#355);
#304=AXIS2_PLACEMENT_3D('',#451,#356,#357);
#305=AXIS2_PLACEMENT_3D('',#454,#358,#359);
#306=AXIS2_PLACEMENT_3D('',#455,#360,#361);
#307=AXIS2_PLACEMENT_3D('',#457,#363,#364);
#308=AXIS2_PLACEMENT_3D('',#459,#365,#366);
#309=AXIS2_PLACEMENT_3D('',#463,#368,#369);
#310=AXIS2_PLACEMENT_3D('',#464,#370,#371);
#311=AXIS2_PLACEMENT_3D('',#465,#372,#373);
#312=AXIS2_PLACEMENT_3D('',#469,#375,#376);
#313=AXIS2_PLACEMENT_3D('',#470,#377,#378);
#314=AXIS2_PLACEMENT_3D('',#471,#379,#380);
#315=AXIS2_PLACEMENT_3D('',#474,#381,#382);
#316=AXIS2_PLACEMENT_3D('',#475,#383,#384);
#317=AXIS2_PLACEMENT_3D('',#476,#385,#386);
#318=AXIS2_PLACEMENT_3D('',#479,#388,#389);
#319=AXIS2_PLACEMENT_3D('',#480,#390,#391);
#320=AXIS2_PLACEMENT_3D('',#482,#392,#393);
#321=AXIS2_PLACEMENT_3D('',#483,#394,#395);
#322=AXIS2_PLACEMENT_3D('',#487,#397,#398);
#323=AXIS2_PLACEMENT_3D('',#488,#399,#400);
#324=AXIS2_PLACEMENT_3D('',#489,#401,#402);
#325=AXIS2_PLACEMENT_3D('',#492,#403,#404);
#326=AXIS2_PLACEMENT_3D('',#493,#405,#406);
#327=AXIS2_PLACEMENT_3D('',#495,#408,#409);
#328=AXIS2_PLACEMENT_3D('',#497,#410,#411);
#329=AXIS2_PLACEMENT_3D('',#501,#413,#414);
#330=AXIS2_PLACEMENT_3D('',#502,#415,#416);
#331=AXIS2_PLACEMENT_3D('',#503,#417,#418);
#332=AXIS2_PLACEMENT_3D('',#505,#419,#420);
#333=AXIS2_PLACEMENT_3D('',#506,#421,#422);
#334=AXIS2_PLACEMENT_3D('',#510,#424,#425);
#335=AXIS2_PLACEMENT_3D('',#511,#426,#427);
#336=AXIS2_PLACEMENT_3D('',#512,#428,#429);
#337=AXIS2_PLACEMENT_3D('',#514,#431,#432);
#338=AXIS2_PLACEMENT_3D('',#516,#434,#435);
#339=DIRECTION('axis',(0.,0.,1.));
#340=DIRECTION('refdir',(1.,0.,0.));
#341=DIRECTION('center_axis',(1.,0.,0.));
#342=DIRECTION('ref_axis',(0.,-1.,0.));
#343=DIRECTION('center_axis',(-1.,0.,0.));
#344=DIRECTION('ref_axis',(0.,-1.,0.));
#345=DIRECTION('center_axis',(-1.,0.,0.));
#346=DIRECTION('ref_axis',(0.,-1.,0.));
#347=DIRECTION('',(-0.707106781186548,-0.707106781186548,-8.65956056235493E-17));
#348=DIRECTION('center_axis',(1.,0.,0.));
#349=DIRECTION('ref_axis',(0.,-1.,0.));
#350=DIRECTION('center_axis',(-1.,0.,0.));
#351=DIRECTION('ref_axis',(0.,0.,1.));
#352=DIRECTION('center_axis',(1.,0.,0.));
#353=DIRECTION('ref_axis',(0.,1.,0.));
#354=DIRECTION('center_axis',(1.,0.,0.));
#355=DIRECTION('ref_axis',(0.,1.,0.));
#356=DIRECTION('center_axis',(1.,0.,0.));
#357=DIRECTION('ref_axis',(0.,1.,0.));
#358=DIRECTION('center_axis',(1.,0.,0.));
#359=DIRECTION('ref_axis',(0.,1.,0.));
#360=DIRECTION('center_axis',(1.,0.,0.));
#361=DIRECTION('ref_axis',(0.,1.,0.));
#362=DIRECTION('',(-1.,0.,0.));
#363=DIRECTION('center_axis',(-1.,0.,0.));
#364=DIRECTION('ref_axis',(0.,-1.,0.));
#365=DIRECTION('center_axis',(-1.,0.,0.));
#366=DIRECTION('ref_axis',(0.,-1.,0.));
#367=DIRECTION('',(-0.707106781186549,0.707106781186546,8.65956056235491E-17));
#368=DIRECTION('center_axis',(1.,0.,0.));
#369=DIRECTION('ref_axis',(0.,-1.,0.));
#370=DIRECTION('center_axis',(1.,0.,0.));
#371=DIRECTION('ref_axis',(0.,-1.,0.));
#372=DIRECTION('center_axis',(1.,0.,0.));
#373=DIRECTION('ref_axis',(0.,1.,0.));
#374=DIRECTION('',(-1.,0.,0.));
#375=DIRECTION('center_axis',(-1.,0.,0.));
#376=DIRECTION('ref_axis',(0.,-1.,0.));
#377=DIRECTION('center_axis',(-1.,0.,0.));
#378=DIRECTION('ref_axis',(0.,-1.,0.));
#379=DIRECTION('center_axis',(1.,0.,0.));
#380=DIRECTION('ref_axis',(0.,0.,-1.));
#381=DIRECTION('center_axis',(1.,0.,0.));
#382=DIRECTION('ref_axis',(0.,1.,0.));
#383=DIRECTION('center_axis',(1.,0.,0.));
#384=DIRECTION('ref_axis',(0.,1.,0.));
#385=DIRECTION('center_axis',(1.,0.,0.));
#386=DIRECTION('ref_axis',(0.,-1.,0.));
#387=DIRECTION('',(-0.707106781186549,-0.707106781186546,-8.65956056235491E-17));
#388=DIRECTION('center_axis',(1.,0.,0.));
#389=DIRECTION('ref_axis',(0.,-1.,0.));
#390=DIRECTION('center_axis',(-1.,0.,0.));
#391=DIRECTION('ref_axis',(0.,0.,1.));
#392=DIRECTION('center_axis',(-1.,0.,0.));
#393=DIRECTION('ref_axis',(0.,-1.,0.));
#394=DIRECTION('center_axis',(-1.,0.,0.));
#395=DIRECTION('ref_axis',(0.,-1.,0.));
#396=DIRECTION('',(0.707106781186549,-0.707106781186546,8.65956056235491E-17));
#397=DIRECTION('center_axis',(1.,0.,0.));
#398=DIRECTION('ref_axis',(0.,-1.,0.));
#399=DIRECTION('center_axis',(1.,0.,0.));
#400=DIRECTION('ref_axis',(0.,-1.,0.));
#401=DIRECTION('center_axis',(1.,0.,0.));
#402=DIRECTION('ref_axis',(0.,1.,0.));
#403=DIRECTION('center_axis',(-1.,0.,0.));
#404=DIRECTION('ref_axis',(0.,-1.,0.));
#405=DIRECTION('center_axis',(-1.,0.,0.));
#406=DIRECTION('ref_axis',(0.,-1.,0.));
#407=DIRECTION('',(-1.,0.,0.));
#408=DIRECTION('center_axis',(-1.,0.,0.));
#409=DIRECTION('ref_axis',(0.,-1.,0.));
#410=DIRECTION('center_axis',(-1.,0.,0.));
#411=DIRECTION('ref_axis',(0.,-1.,0.));
#412=DIRECTION('',(-0.707106781186554,0.707106781186541,8.65956056235486E-17));
#413=DIRECTION('center_axis',(1.,0.,0.));
#414=DIRECTION('ref_axis',(0.,-1.,0.));
#415=DIRECTION('center_axis',(1.,0.,0.));
#416=DIRECTION('ref_axis',(0.,-1.,0.));
#417=DIRECTION('center_axis',(1.,0.,0.));
#418=DIRECTION('ref_axis',(0.,0.,-1.));
#419=DIRECTION('center_axis',(1.,0.,0.));
#420=DIRECTION('ref_axis',(0.,-1.,0.));
#421=DIRECTION('center_axis',(1.,0.,0.));
#422=DIRECTION('ref_axis',(0.,1.,0.));
#423=DIRECTION('',(-1.,0.,0.));
#424=DIRECTION('center_axis',(1.,0.,0.));
#425=DIRECTION('ref_axis',(0.,1.,0.));
#426=DIRECTION('center_axis',(1.,0.,0.));
#427=DIRECTION('ref_axis',(0.,1.,0.));
#428=DIRECTION('center_axis',(1.,0.,0.));
#429=DIRECTION('ref_axis',(0.,-1.,0.));
#430=DIRECTION('',(0.707106781186547,0.707106781186547,-8.65956056235493E-17));
#431=DIRECTION('center_axis',(1.,0.,0.));
#432=DIRECTION('ref_axis',(0.,1.,0.));
#433=DIRECTION('',(-1.,0.,0.));
#434=DIRECTION('center_axis',(-1.,0.,0.));
#435=DIRECTION('ref_axis',(0.,1.,0.));
#436=DIRECTION('',(-0.866025403784439,-0.5,-6.12323399573676E-17));
#437=CARTESIAN_POINT('',(0.,0.,0.));
#438=CARTESIAN_POINT('Origin',(24.05,0.,0.));
#439=CARTESIAN_POINT('',(24.3,30.15,-3.69218815677447E-15));
#440=CARTESIAN_POINT('',(24.3,-30.15,-3.69231009942927E-15));
#441=CARTESIAN_POINT('Origin',(24.3,0.,0.));
#442=CARTESIAN_POINT('Origin',(24.3,0.,0.));
#443=CARTESIAN_POINT('',(23.8,29.65,3.63095783908335E-15));
#444=CARTESIAN_POINT('',(24.05,29.9,3.66169392945059E-15));
#445=CARTESIAN_POINT('Origin',(23.8,0.,0.));
#446=CARTESIAN_POINT('Origin',(23.8,29.35,0.));
#447=CARTESIAN_POINT('',(23.8,28.55,0.));
#448=CARTESIAN_POINT('',(23.8,-28.55,-3.49636661156569E-15));
#449=CARTESIAN_POINT('Origin',(23.8,0.,0.));
#450=CARTESIAN_POINT('Origin',(23.8,0.,0.));
#451=CARTESIAN_POINT('Origin',(29.4,0.,0.));
#452=CARTESIAN_POINT('',(35.,30.15,0.));
#453=CARTESIAN_POINT('',(35.,-30.15,-3.69231009942927E-15));
#454=CARTESIAN_POINT('Origin',(35.,0.,0.));
#455=CARTESIAN_POINT('Origin',(35.,0.,0.));
#456=CARTESIAN_POINT('',(29.4,-30.15,-3.69231009942927E-15));
#457=CARTESIAN_POINT('Origin',(15.65,0.,0.));
#458=CARTESIAN_POINT('',(15.9,29.65,-3.63095783908335E-15));
#459=CARTESIAN_POINT('Origin',(15.9,0.,0.));
#460=CARTESIAN_POINT('',(15.4,30.15,3.69218815677447E-15));
#461=CARTESIAN_POINT('',(15.65,29.9,3.66169392945059E-15));
#462=CARTESIAN_POINT('',(15.4,-30.15,-3.69231009942927E-15));
#463=CARTESIAN_POINT('Origin',(15.4,0.,0.));
#464=CARTESIAN_POINT('Origin',(15.4,0.,0.));
#465=CARTESIAN_POINT('Origin',(7.95,0.,0.));
#466=CARTESIAN_POINT('',(0.5,-30.15,-3.69231009942927E-15));
#467=CARTESIAN_POINT('',(7.95,-30.15,-3.69231009942927E-15));
#468=CARTESIAN_POINT('',(0.5,30.15,-3.69218815677447E-15));
#469=CARTESIAN_POINT('Origin',(0.5,0.,0.));
#470=CARTESIAN_POINT('Origin',(0.5,0.,0.));
#471=CARTESIAN_POINT('Origin',(15.9,29.35,0.));
#472=CARTESIAN_POINT('',(15.9,28.55,0.));
#473=CARTESIAN_POINT('',(15.9,-28.55,-3.49636661156569E-15));
#474=CARTESIAN_POINT('Origin',(15.9,0.,0.));
#475=CARTESIAN_POINT('Origin',(15.9,0.,0.));
#476=CARTESIAN_POINT('Origin',(0.25,0.,0.));
#477=CARTESIAN_POINT('',(0.,29.65,3.63095783908335E-15));
#478=CARTESIAN_POINT('',(0.25,29.9,3.66169392945059E-15));
#479=CARTESIAN_POINT('Origin',(0.,0.,0.));
#480=CARTESIAN_POINT('Origin',(0.,27.825,0.));
#481=CARTESIAN_POINT('',(0.,26.,-3.18397651993818E-15));
#482=CARTESIAN_POINT('Origin',(0.,0.,0.));
#483=CARTESIAN_POINT('Origin',(0.25,0.,0.));
#484=CARTESIAN_POINT('',(0.5,25.5,3.12274620224706E-15));
#485=CARTESIAN_POINT('',(0.25,25.75,-3.15346550780443E-15));
#486=CARTESIAN_POINT('',(0.5,-25.5,-3.12284933782575E-15));
#487=CARTESIAN_POINT('Origin',(0.5,0.,0.));
#488=CARTESIAN_POINT('Origin',(0.5,0.,0.));
#489=CARTESIAN_POINT('Origin',(17.5,0.,0.));
#490=CARTESIAN_POINT('',(119.5,25.5,-3.12274620224706E-15));
#491=CARTESIAN_POINT('',(119.5,-25.5,-3.12284933782575E-15));
#492=CARTESIAN_POINT('Origin',(119.5,0.,0.));
#493=CARTESIAN_POINT('Origin',(119.5,0.,0.));
#494=CARTESIAN_POINT('',(17.5,-25.5,-3.12284933782575E-15));
#495=CARTESIAN_POINT('Origin',(119.75,0.,0.));
#496=CARTESIAN_POINT('',(120.,26.5,-3.2452068376293E-15));
#497=CARTESIAN_POINT('Origin',(120.,0.,0.));
#498=CARTESIAN_POINT('',(119.5,27.,3.30643715532042E-15));
#499=CARTESIAN_POINT('',(119.75,26.75,3.27593018771917E-15));
#500=CARTESIAN_POINT('',(119.5,-27.,-3.30654635769785E-15));
#501=CARTESIAN_POINT('Origin',(119.5,0.,0.));
#502=CARTESIAN_POINT('Origin',(119.5,0.,0.));
#503=CARTESIAN_POINT('Origin',(120.,26.25,0.));
#504=CARTESIAN_POINT('',(120.,26.,3.18397651993818E-15));
#505=CARTESIAN_POINT('Origin',(120.,0.,0.));
#506=CARTESIAN_POINT('Origin',(80.227980021921,0.,0.));
#507=CARTESIAN_POINT('',(40.455960043842,-27.,-3.30654635769785E-15));
#508=CARTESIAN_POINT('',(80.227980021921,-27.,-3.30654635769785E-15));
#509=CARTESIAN_POINT('',(40.455960043842,27.,0.));
#510=CARTESIAN_POINT('Origin',(40.455960043842,0.,0.));
#511=CARTESIAN_POINT('Origin',(40.455960043842,0.,0.));
#512=CARTESIAN_POINT('Origin',(119.75,0.,0.));
#513=CARTESIAN_POINT('',(119.75,25.75,-3.15346550780444E-15));
#514=CARTESIAN_POINT('Origin',(19.85,0.,0.));
#515=CARTESIAN_POINT('',(19.85,-28.55,-3.49636661156569E-15));
#516=CARTESIAN_POINT('Origin',(37.727980021921,0.,0.));
#517=CARTESIAN_POINT('',(37.727980021921,-28.575,-3.49942822856356E-15));
#518=UNCERTAINTY_MEASURE_WITH_UNIT(LENGTH_MEASURE(0.01),#522,
'DISTANCE_ACCURACY_VALUE',
'Maximum model space distance between geometric entities at asserted c
onnectivities');
#519=UNCERTAINTY_MEASURE_WITH_UNIT(LENGTH_MEASURE(0.01),#522,
'DISTANCE_ACCURACY_VALUE',
'Maximum model space distance between geometric entities at asserted c
onnectivities');
#520=(
GEOMETRIC_REPRESENTATION_CONTEXT(3)
GLOBAL_UNCERTAINTY_ASSIGNED_CONTEXT((#518))
GLOBAL_UNIT_ASSIGNED_CONTEXT((#522,#524,#525))
REPRESENTATION_CONTEXT('','3D')
);
#521=(
GEOMETRIC_REPRESENTATION_CONTEXT(3)
GLOBAL_UNCERTAINTY_ASSIGNED_CONTEXT((#519))
GLOBAL_UNIT_ASSIGNED_CONTEXT((#522,#524,#525))
REPRESENTATION_CONTEXT('','3D')
);
#522=(
LENGTH_UNIT()
NAMED_UNIT(*)
SI_UNIT(.MILLI.,.METRE.)
);
#523=(
LENGTH_UNIT()
NAMED_UNIT(*)
SI_UNIT(.CENTI.,.METRE.)
);
#524=(
NAMED_UNIT(*)
PLANE_ANGLE_UNIT()
SI_UNIT($,.RADIAN.)
);
#525=(
NAMED_UNIT(*)
SI_UNIT($,.STERADIAN.)
SOLID_ANGLE_UNIT()
);
#526=SHAPE_DEFINITION_REPRESENTATION(#527,#528);
#527=PRODUCT_DEFINITION_SHAPE('',$,#530);
#528=SHAPE_REPRESENTATION('',(#296),#520);
#529=PRODUCT_DEFINITION_CONTEXT('part definition',#534,'design');
#530=PRODUCT_DEFINITION('322060054_Steelpres','322060054_Steelpres',#531,
#529);
#531=PRODUCT_DEFINITION_FORMATION('0',$,#536);
#532=PRODUCT_RELATED_PRODUCT_CATEGORY('322060054_Steelpres',
'322060054_Steelpres',(#536));
#533=APPLICATION_PROTOCOL_DEFINITION('international standard',
'automotive_design',2009,#534);
#534=APPLICATION_CONTEXT(
'Core Data for Automotive Mechanical Design Process');
#535=PRODUCT_CONTEXT('part definition',#534,'mechanical');
#536=PRODUCT('322060054_Steelpres','322060054_Steelpres',
'ADATTORE "VICTAULIC" 60-54 STEEL',(#535));
#537=PRESENTATION_STYLE_ASSIGNMENT((#538));
#538=SURFACE_STYLE_USAGE(.BOTH.,#541);
#539=SURFACE_STYLE_RENDERING_WITH_PROPERTIES($,#545,(#540));
#540=SURFACE_STYLE_TRANSPARENT(0.);
#541=SURFACE_SIDE_STYLE('',(#542,#539));
#542=SURFACE_STYLE_FILL_AREA(#543);
#543=FILL_AREA_STYLE('',(#544));
#544=FILL_AREA_STYLE_COLOUR('',#545);
#545=COLOUR_RGB('',0.886274509803922,0.917647058823529,0.894117647058824);
ENDSEC;
END-ISO-10303-21;
