ISO-10303-21;
HEADER;
FILE_DESCRIPTION (( 'STEP AP203' ),
    '1' );
FILE_NAME ('3D-M2102P_26.9x1.6_174114020.STEP',
    '2024-09-05T09:17:10',
    ( '' ),
    ( '' ),
    'SwSTEP 2.0',
    'SolidWorks 2024',
    '' );
FILE_SCHEMA (( 'CONFIG_CONTROL_DESIGN' ));
ENDSEC;

DATA;
#1 = VERTEX_POINT ( 'NONE', #373 ) ;
#2 = AXIS2_PLACEMENT_3D ( 'NONE', #91, #323, #295 ) ;
#3 = ADVANCED_FACE ( 'NONE', ( #10 ), #42, .F. ) ;
#4 = ORIENTED_EDGE ( 'NONE', *, *, #197, .F. ) ;
#5 = ORIENTED_EDGE ( 'NONE', *, *, #59, .F. ) ;
#6 = ORIENTED_EDGE ( 'NONE', *, *, #392, .F. ) ;
#7 = CIRCLE ( 'NONE', #124, 11.84999999999999964 ) ;
#8 = CARTESIAN_POINT ( 'NONE',  ( -16.64708581120227038, 0.000000000000000000, 0.000000000000000000 ) ) ;
#9 = CARTESIAN_POINT ( 'NONE',  ( 0.000000000000000000, 0.000000000000000000, 0.000000000000000000 ) ) ;
#10 = FACE_OUTER_BOUND ( 'NONE', #80, .T. ) ;
#11 = APPLICATION_PROTOCOL_DEFINITION ( 'international standard', 'config_control_design', 1994, #110 ) ;
#12 = MANIFOLD_SOLID_BREP ( 'Rotation1', #292 ) ;
#13 =( NAMED_UNIT ( * ) SI_UNIT ( $, .STERADIAN. ) SOLID_ANGLE_UNIT ( ) );
#14 = ADVANCED_FACE ( 'NONE', ( #148 ), #262, .T. ) ;
#15 = DIRECTION ( 'NONE',  ( -1.000000000000000000, -0.000000000000000000, -0.000000000000000000 ) ) ;
#16 = LINE ( 'NONE', #187, #258 ) ;
#17 = CALENDAR_DATE ( 2024, 5, 9 ) ;
#18 = DIRECTION ( 'NONE',  ( 0.000000000000000000, 0.000000000000000000, 1.000000000000000000 ) ) ;
#19 = CARTESIAN_POINT ( 'NONE',  ( 16.99999999999999289, 0.000000000000000000, 0.000000000000000000 ) ) ;
#20 = VECTOR ( 'NONE', #51, 1000.000000000000114 ) ;
#21 = CC_DESIGN_APPROVAL ( #248, ( #225 ) ) ;
#22 = CARTESIAN_POINT ( 'NONE',  ( 16.99999999999999289, 0.000000000000000000, 0.000000000000000000 ) ) ;
#23 = PERSON_AND_ORGANIZATION ( #117, #193 ) ;
#24 = CARTESIAN_POINT ( 'NONE',  ( 6.999999999999999112, 0.000000000000000000, -18.50000000000000000 ) ) ;
#25 = APPROVAL_DATE_TIME ( #298, #28 ) ;
#26 = DIRECTION ( 'NONE',  ( -1.000000000000000000, -0.000000000000000000, -0.000000000000000000 ) ) ;
#27 = VECTOR ( 'NONE', #135, 1000.000000000000000 ) ;
#28 = APPROVAL ( #287, 'UNSPECIFIED' ) ;
#29 = DIRECTION ( 'NONE',  ( 0.9933817168145822052, 0.000000000000000000, -0.1148597610066860591 ) ) ;
#30 = EDGE_LOOP ( 'NONE', ( #371, #269, #213, #138 ) ) ;
#31 = APPROVAL_DATE_TIME ( #365, #248 ) ;
#32 = ORIENTED_EDGE ( 'NONE', *, *, #413, .F. ) ;
#33 = PLANE ( 'NONE',  #97 ) ;
#34 = VERTEX_POINT ( 'NONE', #260 ) ;
#35 = VECTOR ( 'NONE', #116, 1000.000000000000000 ) ;
#36 = EDGE_CURVE ( 'NONE', #337, #179, #77, .T. ) ;
#37 = ORIENTED_EDGE ( 'NONE', *, *, #279, .F. ) ;
#38 = VERTEX_POINT ( 'NONE', #227 ) ;
#39 = UNCERTAINTY_MEASURE_WITH_UNIT (LENGTH_MEASURE( 1.000000000000000082E-05 ), #380, 'distance_accuracy_value', 'NONE');
#40 = PERSON_AND_ORGANIZATION ( #117, #193 ) ;
#41 = AXIS2_PLACEMENT_3D ( 'NONE', #188, #277, #319 ) ;
#42 = CYLINDRICAL_SURFACE ( 'NONE', #102, 11.84999999999999964 ) ;
#43 = FACE_OUTER_BOUND ( 'NONE', #136, .T. ) ;
#44 = DIRECTION ( 'NONE',  ( 0.000000000000000000, 0.000000000000000000, 1.000000000000000000 ) ) ;
#45 = ORIENTED_EDGE ( 'NONE', *, *, #159, .T. ) ;
#46 = ADVANCED_FACE ( 'NONE', ( #126 ), #191, .F. ) ;
#47 = CARTESIAN_POINT ( 'NONE',  ( 0.000000000000000000, 0.000000000000000000, 0.000000000000000000 ) ) ;
#48 = DIRECTION ( 'NONE',  ( 0.000000000000000000, 0.000000000000000000, -1.000000000000000000 ) ) ;
#49 = VECTOR ( 'NONE', #29, 1000.000000000000114 ) ;
#50 = EDGE_CURVE ( 'NONE', #1, #38, #324, .T. ) ;
#51 = DIRECTION ( 'NONE',  ( 0.9659258262890679791, 3.169619151431774802E-17, 0.2588190451025215166 ) ) ;
#52 = DIRECTION ( 'NONE',  ( 1.000000000000000000, 0.000000000000000000, 0.000000000000000000 ) ) ;
#53 = CARTESIAN_POINT ( 'NONE',  ( 17.99999999999999645, 0.000000000000000000, 13.44999999999999929 ) ) ;
#54 = DIRECTION ( 'NONE',  ( 0.000000000000000000, 0.000000000000000000, 1.000000000000000000 ) ) ;
#55 = AXIS2_PLACEMENT_3D ( 'NONE', #9, #414, #211 ) ;
#56 = DIRECTION ( 'NONE',  ( -1.000000000000000000, -0.000000000000000000, -0.000000000000000000 ) ) ;
#57 = SECURITY_CLASSIFICATION_LEVEL ( 'unclassified' ) ;
#58 = DIRECTION ( 'NONE',  ( 0.000000000000000000, 0.000000000000000000, -1.000000000000000000 ) ) ;
#59 = EDGE_CURVE ( 'NONE', #361, #244, #374, .T. ) ;
#60 = APPROVAL ( #410, 'UNSPECIFIED' ) ;
#61 = CARTESIAN_POINT ( 'NONE',  ( 0.000000000000000000, 0.000000000000000000, 0.000000000000000000 ) ) ;
#62 = VECTOR ( 'NONE', #130, 1000.000000000000000 ) ;
#63 = PRODUCT_DEFINITION_FORMATION_WITH_SPECIFIED_SOURCE ( 'ANY', '', #315, .NOT_KNOWN. ) ;
#64 = EDGE_LOOP ( 'NONE', ( #98, #182 ) ) ;
#65 = PERSON_AND_ORGANIZATION_ROLE ( 'creator' ) ;
#66 = ORIENTED_EDGE ( 'NONE', *, *, #256, .F. ) ;
#67 = FACE_BOUND ( 'NONE', #367, .T. ) ;
#68 = COORDINATED_UNIVERSAL_TIME_OFFSET ( 1, 0, .AHEAD. ) ;
#69 = ORIENTED_EDGE ( 'NONE', *, *, #246, .T. ) ;
#70 = DIRECTION ( 'NONE',  ( -1.000000000000000000, -0.000000000000000000, -0.000000000000000000 ) ) ;
#71 = CIRCLE ( 'NONE', #104, 11.84999999999999964 ) ;
#72 = ORIENTED_EDGE ( 'NONE', *, *, #246, .F. ) ;
#73 = VECTOR ( 'NONE', #281, 1000.000000000000000 ) ;
#74 = ORIENTED_EDGE ( 'NONE', *, *, #422, .F. ) ;
#75 = DIRECTION ( 'NONE',  ( 0.000000000000000000, 0.000000000000000000, 1.000000000000000000 ) ) ;
#76 = DESIGN_CONTEXT ( 'detailed design', #110, 'design' ) ;
#77 = CIRCLE ( 'NONE', #384, 10.00000000000000000 ) ;
#78 = LINE ( 'NONE', #180, #131 ) ;
#79 = AXIS2_PLACEMENT_3D ( 'NONE', #385, #87, #274 ) ;
#80 = EDGE_LOOP ( 'NONE', ( #101, #301, #210, #266 ) ) ;
#81 = CARTESIAN_POINT ( 'NONE',  ( 6.999999999999999112, 2.265596578422603396E-15, 18.50000000000000000 ) ) ;
#82 = APPLICATION_CONTEXT ( 'configuration controlled 3d designs of mechanical parts and assemblies' ) ;
#83 = APPROVAL_ROLE ( '' ) ;
#84 = EDGE_CURVE ( 'NONE', #332, #409, #170, .T. ) ;
#85 = CIRCLE ( 'NONE', #55, 16.62435565298213547 ) ;
#86 = FACE_OUTER_BOUND ( 'NONE', #64, .T. ) ;
#87 = DIRECTION ( 'NONE',  ( 1.000000000000000000, 0.000000000000000000, 0.000000000000000000 ) ) ;
#88 = CYLINDRICAL_SURFACE ( 'NONE', #403, 10.00000000000000000 ) ;
#89 = FACE_BOUND ( 'NONE', #231, .T. ) ;
#90 = FACE_OUTER_BOUND ( 'NONE', #310, .T. ) ;
#91 = CARTESIAN_POINT ( 'NONE',  ( 6.999999999999999112, 0.000000000000000000, 0.000000000000000000 ) ) ;
#92 = CIRCLE ( 'NONE', #347, 11.84999999999999964 ) ;
#93 = APPROVAL_PERSON_ORGANIZATION ( #326, #248, #235 ) ;
#94 = EDGE_CURVE ( 'NONE', #261, #199, #278, .T. ) ;
#95 = DIRECTION ( 'NONE',  ( -1.000000000000000000, -0.000000000000000000, -0.000000000000000000 ) ) ;
#96 = CARTESIAN_POINT ( 'NONE',  ( 17.99999999999999645, 0.000000000000000000, 0.000000000000000000 ) ) ;
#97 = AXIS2_PLACEMENT_3D ( 'NONE', #169, #123, #121 ) ;
#98 = ORIENTED_EDGE ( 'NONE', *, *, #422, .T. ) ;
#99 = CALENDAR_DATE ( 2024, 5, 9 ) ;
#100 = ORIENTED_EDGE ( 'NONE', *, *, #84, .F. ) ;
#101 = ORIENTED_EDGE ( 'NONE', *, *, #120, .F. ) ;
#102 = AXIS2_PLACEMENT_3D ( 'NONE', #8, #146, #75 ) ;
#103 = ORIENTED_EDGE ( 'NONE', *, *, #183, .T. ) ;
#104 = AXIS2_PLACEMENT_3D ( 'NONE', #22, #165, #293 ) ;
#105 = CC_DESIGN_PERSON_AND_ORGANIZATION_ASSIGNMENT ( #228, #128, ( #225 ) ) ;
#106 = ORIENTED_EDGE ( 'NONE', *, *, #203, .T. ) ;
#107 = DIRECTION ( 'NONE',  ( -1.000000000000000000, -0.000000000000000000, -0.000000000000000000 ) ) ;
#108 = VERTEX_POINT ( 'NONE', #387 ) ;
#109 = CARTESIAN_POINT ( 'NONE',  ( -16.64708581120227038, 0.000000000000000000, 10.00000000000000000 ) ) ;
#110 = APPLICATION_CONTEXT ( 'configuration controlled 3d designs of mechanical parts and assemblies' ) ;
#111 = LINE ( 'NONE', #342, #35 ) ;
#112 = DIRECTION ( 'NONE',  ( 1.000000000000000000, 0.000000000000000000, 0.000000000000000000 ) ) ;
#113 = AXIS2_PLACEMENT_3D ( 'NONE', #330, #320, #58 ) ;
#114 = PERSON_AND_ORGANIZATION_ROLE ( 'creator' ) ;
#115 = LOCAL_TIME ( 11, 17, 10.00000000000000000, #350 ) ;
#116 = DIRECTION ( 'NONE',  ( -1.000000000000000000, -0.000000000000000000, -0.000000000000000000 ) ) ;
#117 = PERSON ( 'UNSPECIFIED', 'UNSPECIFIED', 'UNSPECIFIED', ('UNSPECIFIED'), ('UNSPECIFIED'), ('UNSPECIFIED') ) ;
#118 = COORDINATED_UNIVERSAL_TIME_OFFSET ( 1, 0, .AHEAD. ) ;
#119 = CARTESIAN_POINT ( 'NONE',  ( -16.64708581120227038, 0.000000000000000000, 0.000000000000000000 ) ) ;
#120 = EDGE_CURVE ( 'NONE', #1, #168, #92, .T. ) ;
#121 = DIRECTION ( 'NONE',  ( -0.000000000000000000, 0.000000000000000000, 1.000000000000000000 ) ) ;
#122 = PRODUCT_DEFINITION_SHAPE ( 'NONE', 'NONE',  #370 ) ;
#123 = DIRECTION ( 'NONE',  ( -1.000000000000000000, 0.000000000000000000, -0.000000000000000000 ) ) ;
#124 = AXIS2_PLACEMENT_3D ( 'NONE', #19, #282, #317 ) ;
#125 = DIRECTION ( 'NONE',  ( -1.000000000000000000, -0.000000000000000000, -0.000000000000000000 ) ) ;
#126 = FACE_OUTER_BOUND ( 'NONE', #305, .T. ) ;
#127 = DIRECTION ( 'NONE',  ( -1.000000000000000000, -0.000000000000000000, -0.000000000000000000 ) ) ;
#128 = PERSON_AND_ORGANIZATION_ROLE ( 'classification_officer' ) ;
#129 = EDGE_CURVE ( 'NONE', #168, #1, #334, .T. ) ;
#130 = DIRECTION ( 'NONE',  ( -1.000000000000000000, -0.000000000000000000, -0.000000000000000000 ) ) ;
#131 = VECTOR ( 'NONE', #214, 1000.000000000000114 ) ;
#132 = DIRECTION ( 'NONE',  ( -1.000000000000000000, -0.000000000000000000, -0.000000000000000000 ) ) ;
#133 = DIRECTION ( 'NONE',  ( 0.000000000000000000, 0.000000000000000000, -1.000000000000000000 ) ) ;
#134 = ORIENTED_EDGE ( 'NONE', *, *, #290, .T. ) ;
#135 = DIRECTION ( 'NONE',  ( -1.000000000000000000, -0.000000000000000000, -0.000000000000000000 ) ) ;
#136 = EDGE_LOOP ( 'NONE', ( #6, #237, #45, #172 ) ) ;
#137 = FACE_OUTER_BOUND ( 'NONE', #240, .T. ) ;
#138 = ORIENTED_EDGE ( 'NONE', *, *, #357, .F. ) ;
#139 = CARTESIAN_POINT ( 'NONE',  ( 0.000000000000000000, 1.224646799147353256E-15, -10.00000000000000000 ) ) ;
#140 = ORIENTED_EDGE ( 'NONE', *, *, #392, .T. ) ;
#141 = ADVANCED_FACE ( 'NONE', ( #90 ), #88, .F. ) ;
#142 = CC_DESIGN_DATE_AND_TIME_ASSIGNMENT ( #419, #178, ( #370 ) ) ;
#143 = CARTESIAN_POINT ( 'NONE',  ( 1.000000000000000888, 0.000000000000000000, 0.000000000000000000 ) ) ;
#144 = CONICAL_SURFACE ( 'NONE', #79, 10.00000000000000000, 0.1151138251965794224 ) ;
#145 = ORIENTED_EDGE ( 'NONE', *, *, #84, .T. ) ;
#146 = DIRECTION ( 'NONE',  ( -1.000000000000000000, -0.000000000000000000, -0.000000000000000000 ) ) ;
#147 = PERSON_AND_ORGANIZATION ( #117, #193 ) ;
#148 = FACE_OUTER_BOUND ( 'NONE', #205, .T. ) ;
#149 = CARTESIAN_POINT ( 'NONE',  ( 1.843221619614541121E-16, 16.62435565298213547, 0.000000000000000000 ) ) ;
#150 = AXIS2_PLACEMENT_3D ( 'NONE', #359, #254, #18 ) ;
#151 = APPROVAL_DATE_TIME ( #220, #60 ) ;
#152 = EDGE_CURVE ( 'NONE', #38, #398, #71, .T. ) ;
#153 = CARTESIAN_POINT ( 'NONE',  ( 6.999999999999999112, 2.265596578422603396E-15, 18.50000000000000000 ) ) ;
#154 = CARTESIAN_POINT ( 'NONE',  ( 16.99999999999999289, 0.000000000000000000, 11.84999999999999964 ) ) ;
#155 = CARTESIAN_POINT ( 'NONE',  ( 17.99999999999999645, 1.647149944853189991E-15, -13.44999999999999929 ) ) ;
#156 = CIRCLE ( 'NONE', #396, 18.50000000000000000 ) ;
#157 = CARTESIAN_POINT ( 'NONE',  ( 0.000000000000000000, 0.000000000000000000, 0.000000000000000000 ) ) ;
#158 = DIRECTION ( 'NONE',  ( -1.000000000000000000, -0.000000000000000000, -0.000000000000000000 ) ) ;
#159 = EDGE_CURVE ( 'NONE', #337, #38, #194, .T. ) ;
#160 = CARTESIAN_POINT ( 'NONE',  ( 17.99999999999999645, 0.000000000000000000, 0.000000000000000000 ) ) ;
#161 = CALENDAR_DATE ( 2024, 5, 9 ) ;
#162 = CARTESIAN_POINT ( 'NONE',  ( -16.64708581120227038, 0.000000000000000000, 0.000000000000000000 ) ) ;
#163 = AXIS2_PLACEMENT_3D ( 'NONE', #321, #375, #411 ) ;
#164 = PERSON_AND_ORGANIZATION_ROLE ( 'design_supplier' ) ;
#165 = DIRECTION ( 'NONE',  ( -1.000000000000000000, -0.000000000000000000, -0.000000000000000000 ) ) ;
#166 = ORIENTED_EDGE ( 'NONE', *, *, #50, .F. ) ;
#167 = SHAPE_DEFINITION_REPRESENTATION ( #122, #288 ) ;
#168 = VERTEX_POINT ( 'NONE', #192 ) ;
#169 = CARTESIAN_POINT ( 'NONE',  ( 7.000000000000000000, 13.44999999999999929, 0.000000000000000000 ) ) ;
#170 = CIRCLE ( 'NONE', #223, 10.00000000000000000 ) ;
#171 = APPROVAL_PERSON_ORGANIZATION ( #147, #28, #394 ) ;
#172 = ORIENTED_EDGE ( 'NONE', *, *, #236, .F. ) ;
#173 = EDGE_CURVE ( 'NONE', #108, #395, #204, .T. ) ;
#174 = ORIENTED_EDGE ( 'NONE', *, *, #268, .T. ) ;
#175 = ORIENTED_EDGE ( 'NONE', *, *, #400, .T. ) ;
#176 = AXIS2_PLACEMENT_3D ( 'NONE', #119, #215, #381 ) ;
#177 = ORIENTED_EDGE ( 'NONE', *, *, #120, .T. ) ;
#178 = DATE_TIME_ROLE ( 'creation_date' ) ;
#179 = VERTEX_POINT ( 'NONE', #257 ) ;
#180 = CARTESIAN_POINT ( 'NONE',  ( 1.000000000000000888, 1.224646799147353256E-15, 10.00000000000000000 ) ) ;
#181 = FACE_OUTER_BOUND ( 'NONE', #399, .T. ) ;
#182 = ORIENTED_EDGE ( 'NONE', *, *, #256, .T. ) ;
#183 = EDGE_CURVE ( 'NONE', #34, #361, #224, .T. ) ;
#184 = CARTESIAN_POINT ( 'NONE',  ( 6.999999999999999112, 0.000000000000000000, 0.000000000000000000 ) ) ;
#185 = DIRECTION ( 'NONE',  ( 1.000000000000000000, 0.000000000000000000, 0.000000000000000000 ) ) ;
#186 = AXIS2_PLACEMENT_3D ( 'NONE', #415, #216, #44 ) ;
#187 = CARTESIAN_POINT ( 'NONE',  ( -16.64708581120227038, 1.224646799147353256E-15, -10.00000000000000000 ) ) ;
#188 = CARTESIAN_POINT ( 'NONE',  ( -16.64708581120227038, 0.000000000000000000, 0.000000000000000000 ) ) ;
#189 = CARTESIAN_POINT ( 'NONE',  ( -16.64708581120227038, 0.000000000000000000, 0.000000000000000000 ) ) ;
#190 = PLANE ( 'NONE',  #163 ) ;
#191 = CONICAL_SURFACE ( 'NONE', #113, 10.00000000000000000, 0.1151138251965794224 ) ;
#192 = CARTESIAN_POINT ( 'NONE',  ( 17.99999999999999645, 0.000000000000000000, 11.84999999999999964 ) ) ;
#193 = ORGANIZATION ( 'UNSPECIFIED', 'UNSPECIFIED', '' ) ;
#194 = LINE ( 'NONE', #255, #49 ) ;
#195 = COORDINATED_UNIVERSAL_TIME_OFFSET ( 1, 0, .AHEAD. ) ;
#196 = CARTESIAN_POINT ( 'NONE',  ( 17.99999999999999645, 0.000000000000000000, 0.000000000000000000 ) ) ;
#197 = EDGE_CURVE ( 'NONE', #199, #261, #263, .T. ) ;
#198 = APPROVAL_PERSON_ORGANIZATION ( #250, #60, #83 ) ;
#199 = VERTEX_POINT ( 'NONE', #155 ) ;
#200 = COORDINATED_UNIVERSAL_TIME_OFFSET ( 1, 0, .AHEAD. ) ;
#201 = ORIENTED_EDGE ( 'NONE', *, *, #388, .F. ) ;
#202 = ORIENTED_EDGE ( 'NONE', *, *, #94, .F. ) ;
#203 = EDGE_CURVE ( 'NONE', #395, #108, #232, .T. ) ;
#204 = CIRCLE ( 'NONE', #2, 13.44999999999999929 ) ;
#205 = EDGE_LOOP ( 'NONE', ( #66, #366, #174, #377 ) ) ;
#206 = ADVANCED_FACE ( 'NONE', ( #352 ), #423, .T. ) ;
#207 = VERTEX_POINT ( 'NONE', #249 ) ;
#208 = EDGE_LOOP ( 'NONE', ( #201, #273, #272, #303 ) ) ;
#209 = AXIS2_PLACEMENT_3D ( 'NONE', #289, #229, #360 ) ;
#210 = ORIENTED_EDGE ( 'NONE', *, *, #152, .T. ) ;
#211 = DIRECTION ( 'NONE',  ( 0.000000000000000000, 0.000000000000000000, 1.000000000000000000 ) ) ;
#212 = DIRECTION ( 'NONE',  ( 1.000000000000000000, 0.000000000000000000, 0.000000000000000000 ) ) ;
#213 = ORIENTED_EDGE ( 'NONE', *, *, #203, .F. ) ;
#214 = DIRECTION ( 'NONE',  ( 0.9933817168145822052, 1.406626386676680678E-17, 0.1148597610066860591 ) ) ;
#215 = DIRECTION ( 'NONE',  ( -1.000000000000000000, -0.000000000000000000, -0.000000000000000000 ) ) ;
#216 = DIRECTION ( 'NONE',  ( -1.000000000000000000, -0.000000000000000000, -0.000000000000000000 ) ) ;
#217 = ADVANCED_FACE ( 'NONE', ( #314, #86 ), #418, .F. ) ;
#218 = AXIS2_PLACEMENT_3D ( 'NONE', #275, #112, #133 ) ;
#219 = AXIS2_PLACEMENT_3D ( 'NONE', #143, #107, #368 ) ;
#220 = DATE_AND_TIME ( #313, #300 ) ;
#221 = DIRECTION ( 'NONE',  ( 0.000000000000000000, 0.000000000000000000, 1.000000000000000000 ) ) ;
#222 = DIRECTION ( 'NONE',  ( -1.000000000000000000, -0.000000000000000000, -0.000000000000000000 ) ) ;
#223 = AXIS2_PLACEMENT_3D ( 'NONE', #61, #328, #358 ) ;
#224 = LINE ( 'NONE', #24, #339 ) ;
#225 = SECURITY_CLASSIFICATION ( '', '', #57 ) ;
#226 = ADVANCED_FACE ( 'NONE', ( #353 ), #379, .F. ) ;
#227 = CARTESIAN_POINT ( 'NONE',  ( 16.99999999999999289, 1.451206456989613517E-15, -11.84999999999999964 ) ) ;
#228 = PERSON_AND_ORGANIZATION ( #117, #193 ) ;
#229 = DIRECTION ( 'NONE',  ( -1.000000000000000000, -0.000000000000000000, -0.000000000000000000 ) ) ;
#230 = DATE_TIME_ROLE ( 'classification_date' ) ;
#231 = EDGE_LOOP ( 'NONE', ( #336, #177 ) ) ;
#232 = CIRCLE ( 'NONE', #209, 13.44999999999999929 ) ;
#233 = APPROVAL_STATUS ( 'not_yet_approved' ) ;
#234 = ORIENTED_EDGE ( 'NONE', *, *, #268, .F. ) ;
#235 = APPROVAL_ROLE ( '' ) ;
#236 = EDGE_CURVE ( 'NONE', #398, #38, #7, .T. ) ;
#237 = ORIENTED_EDGE ( 'NONE', *, *, #345, .T. ) ;
#238 = CIRCLE ( 'NONE', #219, 10.00000000000000000 ) ;
#239 = ORIENTED_EDGE ( 'NONE', *, *, #129, .F. ) ;
#240 = EDGE_LOOP ( 'NONE', ( #166, #239, #134, #331 ) ) ;
#241 = ORIENTED_EDGE ( 'NONE', *, *, #152, .F. ) ;
#242 = MECHANICAL_CONTEXT ( 'NONE', #82, 'mechanical' ) ;
#243 = FACE_OUTER_BOUND ( 'NONE', #208, .T. ) ;
#244 = VERTEX_POINT ( 'NONE', #153 ) ;
#245 = FACE_OUTER_BOUND ( 'NONE', #406, .T. ) ;
#246 = EDGE_CURVE ( 'NONE', #409, #332, #356, .T. ) ;
#247 =( NAMED_UNIT ( * ) PLANE_ANGLE_UNIT ( ) SI_UNIT ( $, .RADIAN. ) );
#248 = APPROVAL ( #233, 'UNSPECIFIED' ) ;
#249 = CARTESIAN_POINT ( 'NONE',  ( 0.000000000000000000, 2.150746486126890499E-15, 16.62435565298213547 ) ) ;
#250 = PERSON_AND_ORGANIZATION ( #117, #193 ) ;
#251 = CC_DESIGN_APPROVAL ( #60, ( #370 ) ) ;
#252 = LINE ( 'NONE', #109, #73 ) ;
#253 = DIRECTION ( 'NONE',  ( 0.000000000000000000, 0.000000000000000000, 1.000000000000000000 ) ) ;
#254 = DIRECTION ( 'NONE',  ( -1.000000000000000000, -0.000000000000000000, -0.000000000000000000 ) ) ;
#255 = CARTESIAN_POINT ( 'NONE',  ( 1.000000000000000888, 0.000000000000000000, -10.00000000000000000 ) ) ;
#256 = EDGE_CURVE ( 'NONE', #207, #34, #425, .T. ) ;
#257 = CARTESIAN_POINT ( 'NONE',  ( 1.000000000000000888, 1.337926628068483387E-15, 10.00000000000000000 ) ) ;
#258 = VECTOR ( 'NONE', #408, 1000.000000000000000 ) ;
#259 = DIRECTION ( 'NONE',  ( 0.000000000000000000, 0.000000000000000000, 1.000000000000000000 ) ) ;
#260 = CARTESIAN_POINT ( 'NONE',  ( 0.000000000000000000, 0.000000000000000000, -16.62435565298213547 ) ) ;
#261 = VERTEX_POINT ( 'NONE', #53 ) ;
#262 = CONICAL_SURFACE ( 'NONE', #218, 18.50000000000000000, 0.2617993877991502960 ) ;
#263 = CIRCLE ( 'NONE', #294, 13.44999999999999929 ) ;
#264 = EDGE_LOOP ( 'NONE', ( #5, #234 ) ) ;
#265 = CYLINDRICAL_SURFACE ( 'NONE', #404, 11.84999999999999964 ) ;
#266 = ORIENTED_EDGE ( 'NONE', *, *, #290, .F. ) ;
#267 = DIRECTION ( 'NONE',  ( 0.000000000000000000, 0.000000000000000000, 1.000000000000000000 ) ) ;
#268 = EDGE_CURVE ( 'NONE', #244, #361, #156, .T. ) ;
#269 = ORIENTED_EDGE ( 'NONE', *, *, #388, .T. ) ;
#270 = VECTOR ( 'NONE', #15, 1000.000000000000000 ) ;
#271 = CC_DESIGN_SECURITY_CLASSIFICATION ( #225, ( #63 ) ) ;
#272 = ORIENTED_EDGE ( 'NONE', *, *, #357, .T. ) ;
#273 = ORIENTED_EDGE ( 'NONE', *, *, #197, .T. ) ;
#274 = DIRECTION ( 'NONE',  ( 0.000000000000000000, 0.000000000000000000, -1.000000000000000000 ) ) ;
#275 = CARTESIAN_POINT ( 'NONE',  ( 6.999999999999999112, 0.000000000000000000, 0.000000000000000000 ) ) ;
#276 = LINE ( 'NONE', #344, #270 ) ;
#277 = DIRECTION ( 'NONE',  ( -1.000000000000000000, -0.000000000000000000, -0.000000000000000000 ) ) ;
#278 = CIRCLE ( 'NONE', #348, 13.44999999999999929 ) ;
#279 = EDGE_CURVE ( 'NONE', #337, #332, #16, .T. ) ;
#280 = LOCAL_TIME ( 11, 17, 10.00000000000000000, #68 ) ;
#281 = DIRECTION ( 'NONE',  ( -1.000000000000000000, -0.000000000000000000, -0.000000000000000000 ) ) ;
#282 = DIRECTION ( 'NONE',  ( -1.000000000000000000, -0.000000000000000000, -0.000000000000000000 ) ) ;
#283 = DIRECTION ( 'NONE',  ( 0.000000000000000000, 0.000000000000000000, -1.000000000000000000 ) ) ;
#284 = AXIS2_PLACEMENT_3D ( 'NONE', #184, #52, #48 ) ;
#285 = DIRECTION ( 'NONE',  ( -1.000000000000000000, -0.000000000000000000, -0.000000000000000000 ) ) ;
#286 = DIRECTION ( 'NONE',  ( 0.000000000000000000, 0.000000000000000000, 1.000000000000000000 ) ) ;
#287 = APPROVAL_STATUS ( 'not_yet_approved' ) ;
#288 = ADVANCED_BREP_SHAPE_REPRESENTATION ( '3D-M2102P_26.9x1.6_174114020', ( #12, #376 ), #322 ) ;
#289 = CARTESIAN_POINT ( 'NONE',  ( 6.999999999999999112, 0.000000000000000000, 0.000000000000000000 ) ) ;
#290 = EDGE_CURVE ( 'NONE', #168, #398, #111, .T. ) ;
#291 = CC_DESIGN_PERSON_AND_ORGANIZATION_ASSIGNMENT ( #23, #65, ( #63 ) ) ;
#292 = CLOSED_SHELL ( 'NONE', ( #206, #14, #141, #46, #3, #333, #424, #226, #217, #312, #369, #318, #325 ) ) ;
#293 = DIRECTION ( 'NONE',  ( 0.000000000000000000, 0.000000000000000000, 1.000000000000000000 ) ) ;
#294 = AXIS2_PLACEMENT_3D ( 'NONE', #160, #158, #286 ) ;
#295 = DIRECTION ( 'NONE',  ( 0.000000000000000000, 0.000000000000000000, 1.000000000000000000 ) ) ;
#296 = ORIENTED_EDGE ( 'NONE', *, *, #159, .F. ) ;
#297 = LINE ( 'NONE', #428, #27 ) ;
#298 = DATE_AND_TIME ( #362, #307 ) ;
#299 = EDGE_LOOP ( 'NONE', ( #72, #100 ) ) ;
#300 = LOCAL_TIME ( 11, 17, 10.00000000000000000, #118 ) ;
#301 = ORIENTED_EDGE ( 'NONE', *, *, #50, .T. ) ;
#302 = CC_DESIGN_PERSON_AND_ORGANIZATION_ASSIGNMENT ( #382, #341, ( #315 ) ) ;
#303 = ORIENTED_EDGE ( 'NONE', *, *, #173, .F. ) ;
#304 = CARTESIAN_POINT ( 'NONE',  ( -16.64708581120227038, 0.000000000000000000, 0.000000000000000000 ) ) ;
#305 = EDGE_LOOP ( 'NONE', ( #340, #140, #241, #296 ) ) ;
#306 = CARTESIAN_POINT ( 'NONE',  ( 1.000000000000000888, 0.000000000000000000, -10.00000000000000000 ) ) ;
#307 = LOCAL_TIME ( 11, 17, 10.00000000000000000, #195 ) ;
#308 = ORIENTED_EDGE ( 'NONE', *, *, #279, .T. ) ;
#309 = DIRECTION ( 'NONE',  ( 0.000000000000000000, 0.000000000000000000, 1.000000000000000000 ) ) ;
#310 = EDGE_LOOP ( 'NONE', ( #363, #308, #145, #402 ) ) ;
#311 = CARTESIAN_POINT ( 'NONE',  ( 6.999999999999999112, 0.000000000000000000, 13.44999999999999929 ) ) ;
#312 = ADVANCED_FACE ( 'NONE', ( #245 ), #329, .T. ) ;
#313 = CALENDAR_DATE ( 2024, 5, 9 ) ;
#314 = FACE_BOUND ( 'NONE', #299, .T. ) ;
#315 = PRODUCT ( '3D-M2102P_26.9x1.6_174114020', '3D-M2102P_26.9x1.6_174114020', '', ( #242 ) ) ;
#316 = AXIS2_PLACEMENT_3D ( 'NONE', #157, #222, #253 ) ;
#317 = DIRECTION ( 'NONE',  ( 0.000000000000000000, 0.000000000000000000, 1.000000000000000000 ) ) ;
#318 = ADVANCED_FACE ( 'NONE', ( #243 ), #386, .T. ) ;
#319 = DIRECTION ( 'NONE',  ( 0.000000000000000000, 0.000000000000000000, 1.000000000000000000 ) ) ;
#320 = DIRECTION ( 'NONE',  ( 1.000000000000000000, 0.000000000000000000, 0.000000000000000000 ) ) ;
#321 = CARTESIAN_POINT ( 'NONE',  ( 18.00000000000000000, 13.44999999999999929, 0.000000000000000000 ) ) ;
#322 =( GEOMETRIC_REPRESENTATION_CONTEXT ( 3 ) GLOBAL_UNCERTAINTY_ASSIGNED_CONTEXT ( ( #39 ) ) GLOBAL_UNIT_ASSIGNED_CONTEXT ( ( #380, #247, #13 ) ) REPRESENTATION_CONTEXT ( 'NONE', 'WORKASPACE' ) );
#323 = DIRECTION ( 'NONE',  ( -1.000000000000000000, -0.000000000000000000, -0.000000000000000000 ) ) ;
#324 = LINE ( 'NONE', #393, #62 ) ;
#325 = ADVANCED_FACE ( 'NONE', ( #181, #89 ), #190, .F. ) ;
#326 = PERSON_AND_ORGANIZATION ( #117, #193 ) ;
#327 = CC_DESIGN_DATE_AND_TIME_ASSIGNMENT ( #429, #230, ( #225 ) ) ;
#328 = DIRECTION ( 'NONE',  ( -1.000000000000000000, -0.000000000000000000, -0.000000000000000000 ) ) ;
#329 = CONICAL_SURFACE ( 'NONE', #284, 18.50000000000000000, 0.2617993877991502960 ) ;
#330 = CARTESIAN_POINT ( 'NONE',  ( 1.000000000000000888, 0.000000000000000000, 0.000000000000000000 ) ) ;
#331 = ORIENTED_EDGE ( 'NONE', *, *, #236, .T. ) ;
#332 = VERTEX_POINT ( 'NONE', #139 ) ;
#333 = ADVANCED_FACE ( 'NONE', ( #137 ), #265, .F. ) ;
#334 = CIRCLE ( 'NONE', #150, 11.84999999999999964 ) ;
#335 = LOCAL_TIME ( 11, 17, 10.00000000000000000, #200 ) ;
#336 = ORIENTED_EDGE ( 'NONE', *, *, #129, .T. ) ;
#337 = VERTEX_POINT ( 'NONE', #306 ) ;
#338 = ORIENTED_EDGE ( 'NONE', *, *, #173, .T. ) ;
#339 = VECTOR ( 'NONE', #427, 1000.000000000000114 ) ;
#340 = ORIENTED_EDGE ( 'NONE', *, *, #36, .T. ) ;
#341 = PERSON_AND_ORGANIZATION_ROLE ( 'design_owner' ) ;
#342 = CARTESIAN_POINT ( 'NONE',  ( -16.64708581120227038, 0.000000000000000000, 11.84999999999999964 ) ) ;
#343 = EDGE_LOOP ( 'NONE', ( #37, #372, #175, #69 ) ) ;
#344 = CARTESIAN_POINT ( 'NONE',  ( -16.64708581120227038, 1.647149944853189991E-15, -13.44999999999999929 ) ) ;
#345 = EDGE_CURVE ( 'NONE', #179, #337, #238, .T. ) ;
#346 = DIRECTION ( 'NONE',  ( 0.000000000000000000, 0.000000000000000000, 1.000000000000000000 ) ) ;
#347 = AXIS2_PLACEMENT_3D ( 'NONE', #196, #26, #426 ) ;
#348 = AXIS2_PLACEMENT_3D ( 'NONE', #96, #132, #259 ) ;
#349 = AXIS2_PLACEMENT_3D ( 'NONE', #189, #285, #221 ) ;
#350 = COORDINATED_UNIVERSAL_TIME_OFFSET ( 1, 0, .AHEAD. ) ;
#351 = CARTESIAN_POINT ( 'NONE',  ( 6.999999999999999112, 0.000000000000000000, 0.000000000000000000 ) ) ;
#352 = FACE_OUTER_BOUND ( 'NONE', #30, .T. ) ;
#353 = FACE_OUTER_BOUND ( 'NONE', #343, .T. ) ;
#354 = CARTESIAN_POINT ( 'NONE',  ( 6.999999999999999112, 0.000000000000000000, 0.000000000000000000 ) ) ;
#355 = AXIS2_PLACEMENT_3D ( 'NONE', #354, #95, #389 ) ;
#356 = CIRCLE ( 'NONE', #186, 10.00000000000000000 ) ;
#357 = EDGE_CURVE ( 'NONE', #261, #395, #297, .T. ) ;
#358 = DIRECTION ( 'NONE',  ( 0.000000000000000000, 0.000000000000000000, 1.000000000000000000 ) ) ;
#359 = CARTESIAN_POINT ( 'NONE',  ( 17.99999999999999645, 0.000000000000000000, 0.000000000000000000 ) ) ;
#360 = DIRECTION ( 'NONE',  ( 0.000000000000000000, 0.000000000000000000, 1.000000000000000000 ) ) ;
#361 = VERTEX_POINT ( 'NONE', #397 ) ;
#362 = CALENDAR_DATE ( 2024, 5, 9 ) ;
#363 = ORIENTED_EDGE ( 'NONE', *, *, #36, .F. ) ;
#364 = FACE_OUTER_BOUND ( 'NONE', #264, .T. ) ;
#365 = DATE_AND_TIME ( #161, #335 ) ;
#366 = ORIENTED_EDGE ( 'NONE', *, *, #413, .T. ) ;
#367 = EDGE_LOOP ( 'NONE', ( #106, #338 ) ) ;
#368 = DIRECTION ( 'NONE',  ( 0.000000000000000000, 0.000000000000000000, 1.000000000000000000 ) ) ;
#369 = ADVANCED_FACE ( 'NONE', ( #364, #67 ), #33, .F. ) ;
#370 = PRODUCT_DEFINITION ( 'UNKNOWN', '', #63, #76 ) ;
#371 = ORIENTED_EDGE ( 'NONE', *, *, #94, .T. ) ;
#372 = ORIENTED_EDGE ( 'NONE', *, *, #345, .F. ) ;
#373 = CARTESIAN_POINT ( 'NONE',  ( 17.99999999999999645, 1.451206456989613517E-15, -11.84999999999999964 ) ) ;
#374 = CIRCLE ( 'NONE', #355, 18.50000000000000000 ) ;
#375 = DIRECTION ( 'NONE',  ( -1.000000000000000000, 0.000000000000000000, -0.000000000000000000 ) ) ;
#376 = AXIS2_PLACEMENT_3D ( 'NONE', #47, #309, #185 ) ;
#377 = ORIENTED_EDGE ( 'NONE', *, *, #183, .F. ) ;
#378 = LINE ( 'NONE', #81, #20 ) ;
#379 = CYLINDRICAL_SURFACE ( 'NONE', #176, 10.00000000000000000 ) ;
#380 =( LENGTH_UNIT ( ) NAMED_UNIT ( * ) SI_UNIT ( .MILLI., .METRE. ) );
#381 = DIRECTION ( 'NONE',  ( 0.000000000000000000, 0.000000000000000000, 1.000000000000000000 ) ) ;
#382 = PERSON_AND_ORGANIZATION ( #117, #193 ) ;
#383 = CC_DESIGN_PERSON_AND_ORGANIZATION_ASSIGNMENT ( #40, #114, ( #370 ) ) ;
#384 = AXIS2_PLACEMENT_3D ( 'NONE', #390, #127, #421 ) ;
#385 = CARTESIAN_POINT ( 'NONE',  ( 1.000000000000000888, 0.000000000000000000, 0.000000000000000000 ) ) ;
#386 = CYLINDRICAL_SURFACE ( 'NONE', #41, 13.44999999999999929 ) ;
#387 = CARTESIAN_POINT ( 'NONE',  ( 6.999999999999999112, 1.647149944853189991E-15, -13.44999999999999929 ) ) ;
#388 = EDGE_CURVE ( 'NONE', #199, #108, #276, .T. ) ;
#389 = DIRECTION ( 'NONE',  ( 0.000000000000000000, 0.000000000000000000, 1.000000000000000000 ) ) ;
#390 = CARTESIAN_POINT ( 'NONE',  ( 1.000000000000000888, 0.000000000000000000, 0.000000000000000000 ) ) ;
#391 = PERSON_AND_ORGANIZATION ( #117, #193 ) ;
#392 = EDGE_CURVE ( 'NONE', #179, #398, #78, .T. ) ;
#393 = CARTESIAN_POINT ( 'NONE',  ( -16.64708581120227038, 1.451206456989613517E-15, -11.84999999999999964 ) ) ;
#394 = APPROVAL_ROLE ( '' ) ;
#395 = VERTEX_POINT ( 'NONE', #311 ) ;
#396 = AXIS2_PLACEMENT_3D ( 'NONE', #351, #125, #346 ) ;
#397 = CARTESIAN_POINT ( 'NONE',  ( 6.999999999999999112, 0.000000000000000000, -18.50000000000000000 ) ) ;
#398 = VERTEX_POINT ( 'NONE', #154 ) ;
#399 = EDGE_LOOP ( 'NONE', ( #202, #4 ) ) ;
#400 = EDGE_CURVE ( 'NONE', #179, #409, #252, .T. ) ;
#401 = PRODUCT_RELATED_PRODUCT_CATEGORY ( 'detail', '', ( #315 ) ) ;
#402 = ORIENTED_EDGE ( 'NONE', *, *, #400, .F. ) ;
#403 = AXIS2_PLACEMENT_3D ( 'NONE', #162, #56, #54 ) ;
#404 = AXIS2_PLACEMENT_3D ( 'NONE', #304, #70, #267 ) ;
#405 = ORIENTED_EDGE ( 'NONE', *, *, #59, .T. ) ;
#406 = EDGE_LOOP ( 'NONE', ( #32, #74, #103, #405 ) ) ;
#407 = CARTESIAN_POINT ( 'NONE',  ( 0.000000000000000000, 0.000000000000000000, 10.00000000000000000 ) ) ;
#408 = DIRECTION ( 'NONE',  ( -1.000000000000000000, -0.000000000000000000, -0.000000000000000000 ) ) ;
#409 = VERTEX_POINT ( 'NONE', #407 ) ;
#410 = APPROVAL_STATUS ( 'not_yet_approved' ) ;
#411 = DIRECTION ( 'NONE',  ( -0.000000000000000000, 0.000000000000000000, 1.000000000000000000 ) ) ;
#412 = CC_DESIGN_APPROVAL ( #28, ( #63 ) ) ;
#413 = EDGE_CURVE ( 'NONE', #207, #244, #378, .T. ) ;
#414 = DIRECTION ( 'NONE',  ( -1.000000000000000000, -0.000000000000000000, -0.000000000000000000 ) ) ;
#415 = CARTESIAN_POINT ( 'NONE',  ( 0.000000000000000000, 0.000000000000000000, 0.000000000000000000 ) ) ;
#416 = APPLICATION_PROTOCOL_DEFINITION ( 'international standard', 'config_control_design', 1994, #82 ) ;
#417 = CC_DESIGN_PERSON_AND_ORGANIZATION_ASSIGNMENT ( #391, #164, ( #63 ) ) ;
#418 = PLANE ( 'NONE',  #420 ) ;
#419 = DATE_AND_TIME ( #17, #115 ) ;
#420 = AXIS2_PLACEMENT_3D ( 'NONE', #149, #212, #283 ) ;
#421 = DIRECTION ( 'NONE',  ( 0.000000000000000000, 0.000000000000000000, 1.000000000000000000 ) ) ;
#422 = EDGE_CURVE ( 'NONE', #34, #207, #85, .T. ) ;
#423 = CYLINDRICAL_SURFACE ( 'NONE', #349, 13.44999999999999929 ) ;
#424 = ADVANCED_FACE ( 'NONE', ( #43 ), #144, .F. ) ;
#425 = CIRCLE ( 'NONE', #316, 16.62435565298213547 ) ;
#426 = DIRECTION ( 'NONE',  ( 0.000000000000000000, 0.000000000000000000, 1.000000000000000000 ) ) ;
#427 = DIRECTION ( 'NONE',  ( 0.9659258262890679791, 0.000000000000000000, -0.2588190451025215166 ) ) ;
#428 = CARTESIAN_POINT ( 'NONE',  ( -16.64708581120227038, 0.000000000000000000, 13.44999999999999929 ) ) ;
#429 = DATE_AND_TIME ( #99, #280 ) ;
ENDSEC;
END-ISO-10303-21;
