ISO-10303-21;
HEADER;
/* Generated by software containing ST-Developer
 * from STEP Tools, Inc. (www.steptools.com) 
 */

FILE_DESCRIPTION(
/* description */ (''),
/* implementation_level */ '2;1');

FILE_NAME(
/* name */ 
'C:\\Users\\cad\\Desktop\\Zeichnungen neu von Ralph\\3D_Kupplung_R666-
SE\\3D_R666-SE-17.2-DN20_17113321.stp',
/* time_stamp */ '2021-06-17T16:22:32+02:00',
/* author */ ('cad'),
/* organization */ (''),
/* preprocessor_version */ 'ST-DEVELOPER v18.1',
/* originating_system */ 'Autodesk Inventor 2022',
/* authorisation */ '');

FILE_SCHEMA (('AUTOMOTIVE_DESIGN { 1 0 10303 214 3 1 1 }'));
ENDSEC;

DATA;
#10=MECHANICAL_DESIGN_GEOMETRIC_PRESENTATION_REPRESENTATION('',(#13),#432);
#11=SHAPE_REPRESENTATION_RELATIONSHIP('SRR','None',#439,#12);
#12=ADVANCED_BREP_SHAPE_REPRESENTATION('',(#14),#431);
#13=STYLED_ITEM('',(#448),#14);
#14=MANIFOLD_SOLID_BREP('Volumenk\X\F6rper1',#228);
#15=TOROIDAL_SURFACE('',#276,9.55,0.8);
#16=CYLINDRICAL_SURFACE('',#254,7.);
#17=CYLINDRICAL_SURFACE('',#260,11.75);
#18=CYLINDRICAL_SURFACE('',#274,8.6);
#19=CYLINDRICAL_SURFACE('',#280,8.75);
#20=FACE_BOUND('',#44,.T.);
#21=FACE_BOUND('',#50,.T.);
#22=FACE_BOUND('',#53,.T.);
#23=FACE_BOUND('',#59,.T.);
#24=PLANE('',#252);
#25=PLANE('',#265);
#26=PLANE('',#269);
#27=PLANE('',#282);
#28=FACE_OUTER_BOUND('',#42,.T.);
#29=FACE_OUTER_BOUND('',#43,.T.);
#30=FACE_OUTER_BOUND('',#45,.T.);
#31=FACE_OUTER_BOUND('',#46,.T.);
#32=FACE_OUTER_BOUND('',#47,.T.);
#33=FACE_OUTER_BOUND('',#48,.T.);
#34=FACE_OUTER_BOUND('',#49,.T.);
#35=FACE_OUTER_BOUND('',#51,.T.);
#36=FACE_OUTER_BOUND('',#52,.T.);
#37=FACE_OUTER_BOUND('',#54,.T.);
#38=FACE_OUTER_BOUND('',#55,.T.);
#39=FACE_OUTER_BOUND('',#56,.T.);
#40=FACE_OUTER_BOUND('',#57,.T.);
#41=FACE_OUTER_BOUND('',#58,.T.);
#42=EDGE_LOOP('',(#149,#150,#151,#152,#153));
#43=EDGE_LOOP('',(#154));
#44=EDGE_LOOP('',(#155));
#45=EDGE_LOOP('',(#156,#157,#158,#159,#160,#161));
#46=EDGE_LOOP('',(#162,#163,#164,#165,#166));
#47=EDGE_LOOP('',(#167,#168,#169,#170,#171,#172));
#48=EDGE_LOOP('',(#173,#174,#175,#176,#177));
#49=EDGE_LOOP('',(#178));
#50=EDGE_LOOP('',(#179));
#51=EDGE_LOOP('',(#180,#181,#182,#183,#184));
#52=EDGE_LOOP('',(#185));
#53=EDGE_LOOP('',(#186));
#54=EDGE_LOOP('',(#187,#188,#189,#190,#191));
#55=EDGE_LOOP('',(#192,#193,#194,#195,#196));
#56=EDGE_LOOP('',(#197,#198,#199,#200,#201));
#57=EDGE_LOOP('',(#202,#203,#204,#205,#206));
#58=EDGE_LOOP('',(#207));
#59=EDGE_LOOP('',(#208));
#60=LINE('',#371,#69);
#61=LINE('',#378,#70);
#62=LINE('',#384,#71);
#63=LINE('',#390,#72);
#64=LINE('',#396,#73);
#65=LINE('',#404,#74);
#66=LINE('',#413,#75);
#67=LINE('',#417,#76);
#68=LINE('',#426,#77);
#69=VECTOR('',#291,7.1);
#70=VECTOR('',#300,7.);
#71=VECTOR('',#307,11.65);
#72=VECTOR('',#314,11.75);
#73=VECTOR('',#321,11.65);
#74=VECTOR('',#332,7.1);
#75=VECTOR('',#343,8.5);
#76=VECTOR('',#348,8.6);
#77=VECTOR('',#359,8.75);
#78=CIRCLE('',#249,7.);
#79=CIRCLE('',#250,7.);
#80=CIRCLE('',#251,7.2);
#81=CIRCLE('',#253,11.55);
#82=CIRCLE('',#255,7.);
#83=CIRCLE('',#256,7.);
#84=CIRCLE('',#258,11.75);
#85=CIRCLE('',#259,11.75);
#86=CIRCLE('',#261,11.75);
#87=CIRCLE('',#262,11.75);
#88=CIRCLE('',#264,11.55);
#89=CIRCLE('',#266,9.55);
#90=CIRCLE('',#268,7.2);
#91=CIRCLE('',#270,8.4);
#92=CIRCLE('',#272,8.6);
#93=CIRCLE('',#273,8.6);
#94=CIRCLE('',#275,8.6);
#95=CIRCLE('',#277,8.75);
#96=CIRCLE('',#278,0.8);
#97=CIRCLE('',#279,8.75);
#98=CIRCLE('',#281,8.75);
#99=VERTEX_POINT('',#366);
#100=VERTEX_POINT('',#367);
#101=VERTEX_POINT('',#370);
#102=VERTEX_POINT('',#374);
#103=VERTEX_POINT('',#377);
#104=VERTEX_POINT('',#379);
#105=VERTEX_POINT('',#383);
#106=VERTEX_POINT('',#385);
#107=VERTEX_POINT('',#389);
#108=VERTEX_POINT('',#391);
#109=VERTEX_POINT('',#395);
#110=VERTEX_POINT('',#399);
#111=VERTEX_POINT('',#402);
#112=VERTEX_POINT('',#406);
#113=VERTEX_POINT('',#409);
#114=VERTEX_POINT('',#410);
#115=VERTEX_POINT('',#415);
#116=VERTEX_POINT('',#419);
#117=VERTEX_POINT('',#420);
#118=VERTEX_POINT('',#425);
#119=EDGE_CURVE('',#99,#100,#78,.T.);
#120=EDGE_CURVE('',#100,#99,#79,.T.);
#121=EDGE_CURVE('',#99,#101,#60,.T.);
#122=EDGE_CURVE('',#101,#101,#80,.T.);
#123=EDGE_CURVE('',#102,#102,#81,.T.);
#124=EDGE_CURVE('',#100,#103,#61,.T.);
#125=EDGE_CURVE('',#104,#103,#82,.T.);
#126=EDGE_CURVE('',#103,#104,#83,.T.);
#127=EDGE_CURVE('',#102,#105,#62,.T.);
#128=EDGE_CURVE('',#105,#106,#84,.T.);
#129=EDGE_CURVE('',#106,#105,#85,.T.);
#130=EDGE_CURVE('',#106,#107,#63,.T.);
#131=EDGE_CURVE('',#108,#107,#86,.T.);
#132=EDGE_CURVE('',#107,#108,#87,.T.);
#133=EDGE_CURVE('',#108,#109,#64,.T.);
#134=EDGE_CURVE('',#109,#109,#88,.T.);
#135=EDGE_CURVE('',#110,#110,#89,.T.);
#136=EDGE_CURVE('',#111,#111,#90,.T.);
#137=EDGE_CURVE('',#111,#104,#65,.T.);
#138=EDGE_CURVE('',#112,#112,#91,.T.);
#139=EDGE_CURVE('',#113,#114,#92,.T.);
#140=EDGE_CURVE('',#114,#113,#93,.T.);
#141=EDGE_CURVE('',#113,#112,#66,.T.);
#142=EDGE_CURVE('',#115,#115,#94,.T.);
#143=EDGE_CURVE('',#115,#114,#67,.T.);
#144=EDGE_CURVE('',#116,#117,#95,.T.);
#145=EDGE_CURVE('',#117,#110,#96,.T.);
#146=EDGE_CURVE('',#117,#116,#97,.T.);
#147=EDGE_CURVE('',#116,#118,#68,.T.);
#148=EDGE_CURVE('',#118,#118,#98,.T.);
#149=ORIENTED_EDGE('',*,*,#119,.T.);
#150=ORIENTED_EDGE('',*,*,#120,.T.);
#151=ORIENTED_EDGE('',*,*,#121,.T.);
#152=ORIENTED_EDGE('',*,*,#122,.T.);
#153=ORIENTED_EDGE('',*,*,#121,.F.);
#154=ORIENTED_EDGE('',*,*,#123,.F.);
#155=ORIENTED_EDGE('',*,*,#122,.F.);
#156=ORIENTED_EDGE('',*,*,#119,.F.);
#157=ORIENTED_EDGE('',*,*,#120,.F.);
#158=ORIENTED_EDGE('',*,*,#124,.T.);
#159=ORIENTED_EDGE('',*,*,#125,.F.);
#160=ORIENTED_EDGE('',*,*,#126,.F.);
#161=ORIENTED_EDGE('',*,*,#124,.F.);
#162=ORIENTED_EDGE('',*,*,#123,.T.);
#163=ORIENTED_EDGE('',*,*,#127,.T.);
#164=ORIENTED_EDGE('',*,*,#128,.T.);
#165=ORIENTED_EDGE('',*,*,#129,.T.);
#166=ORIENTED_EDGE('',*,*,#127,.F.);
#167=ORIENTED_EDGE('',*,*,#128,.F.);
#168=ORIENTED_EDGE('',*,*,#129,.F.);
#169=ORIENTED_EDGE('',*,*,#130,.T.);
#170=ORIENTED_EDGE('',*,*,#131,.F.);
#171=ORIENTED_EDGE('',*,*,#132,.F.);
#172=ORIENTED_EDGE('',*,*,#130,.F.);
#173=ORIENTED_EDGE('',*,*,#131,.T.);
#174=ORIENTED_EDGE('',*,*,#132,.T.);
#175=ORIENTED_EDGE('',*,*,#133,.T.);
#176=ORIENTED_EDGE('',*,*,#134,.T.);
#177=ORIENTED_EDGE('',*,*,#133,.F.);
#178=ORIENTED_EDGE('',*,*,#134,.F.);
#179=ORIENTED_EDGE('',*,*,#135,.F.);
#180=ORIENTED_EDGE('',*,*,#136,.T.);
#181=ORIENTED_EDGE('',*,*,#137,.T.);
#182=ORIENTED_EDGE('',*,*,#125,.T.);
#183=ORIENTED_EDGE('',*,*,#126,.T.);
#184=ORIENTED_EDGE('',*,*,#137,.F.);
#185=ORIENTED_EDGE('',*,*,#138,.F.);
#186=ORIENTED_EDGE('',*,*,#136,.F.);
#187=ORIENTED_EDGE('',*,*,#139,.T.);
#188=ORIENTED_EDGE('',*,*,#140,.T.);
#189=ORIENTED_EDGE('',*,*,#141,.T.);
#190=ORIENTED_EDGE('',*,*,#138,.T.);
#191=ORIENTED_EDGE('',*,*,#141,.F.);
#192=ORIENTED_EDGE('',*,*,#142,.F.);
#193=ORIENTED_EDGE('',*,*,#143,.T.);
#194=ORIENTED_EDGE('',*,*,#139,.F.);
#195=ORIENTED_EDGE('',*,*,#140,.F.);
#196=ORIENTED_EDGE('',*,*,#143,.F.);
#197=ORIENTED_EDGE('',*,*,#144,.T.);
#198=ORIENTED_EDGE('',*,*,#145,.T.);
#199=ORIENTED_EDGE('',*,*,#135,.T.);
#200=ORIENTED_EDGE('',*,*,#145,.F.);
#201=ORIENTED_EDGE('',*,*,#146,.T.);
#202=ORIENTED_EDGE('',*,*,#144,.F.);
#203=ORIENTED_EDGE('',*,*,#147,.T.);
#204=ORIENTED_EDGE('',*,*,#148,.T.);
#205=ORIENTED_EDGE('',*,*,#147,.F.);
#206=ORIENTED_EDGE('',*,*,#146,.F.);
#207=ORIENTED_EDGE('',*,*,#148,.F.);
#208=ORIENTED_EDGE('',*,*,#142,.T.);
#209=CONICAL_SURFACE('',#248,7.1,0.785398163397451);
#210=CONICAL_SURFACE('',#257,11.65,0.785398163397439);
#211=CONICAL_SURFACE('',#263,11.65,0.785398163397448);
#212=CONICAL_SURFACE('',#267,7.1,0.785398163397445);
#213=CONICAL_SURFACE('',#271,8.5,0.785398163397448);
#214=ADVANCED_FACE('',(#28),#209,.F.);
#215=ADVANCED_FACE('',(#29,#20),#24,.T.);
#216=ADVANCED_FACE('',(#30),#16,.F.);
#217=ADVANCED_FACE('',(#31),#210,.T.);
#218=ADVANCED_FACE('',(#32),#17,.T.);
#219=ADVANCED_FACE('',(#33),#211,.T.);
#220=ADVANCED_FACE('',(#34,#21),#25,.T.);
#221=ADVANCED_FACE('',(#35),#212,.F.);
#222=ADVANCED_FACE('',(#36,#22),#26,.T.);
#223=ADVANCED_FACE('',(#37),#213,.T.);
#224=ADVANCED_FACE('',(#38),#18,.T.);
#225=ADVANCED_FACE('',(#39),#15,.F.);
#226=ADVANCED_FACE('',(#40),#19,.T.);
#227=ADVANCED_FACE('',(#41,#23),#27,.T.);
#228=CLOSED_SHELL('',(#214,#215,#216,#217,#218,#219,#220,#221,#222,#223,
#224,#225,#226,#227));
#229=DERIVED_UNIT_ELEMENT(#231,1.);
#230=DERIVED_UNIT_ELEMENT(#434,-3.);
#231=(
MASS_UNIT()
NAMED_UNIT(*)
SI_UNIT($,.GRAM.)
);
#232=DERIVED_UNIT((#229,#230));
#233=MEASURE_REPRESENTATION_ITEM('density measure',
POSITIVE_RATIO_MEASURE(1.),#232);
#234=PROPERTY_DEFINITION_REPRESENTATION(#239,#236);
#235=PROPERTY_DEFINITION_REPRESENTATION(#240,#237);
#236=REPRESENTATION('material name',(#238),#431);
#237=REPRESENTATION('density',(#233),#431);
#238=DESCRIPTIVE_REPRESENTATION_ITEM('Generisch','Generisch');
#239=PROPERTY_DEFINITION('material property','material name',#441);
#240=PROPERTY_DEFINITION('material property','density of part',#441);
#241=DATE_TIME_ROLE('creation_date');
#242=APPLIED_DATE_AND_TIME_ASSIGNMENT(#243,#241,(#441));
#243=DATE_AND_TIME(#244,#245);
#244=CALENDAR_DATE(2021,17,6);
#245=LOCAL_TIME(0,0,0.,#246);
#246=COORDINATED_UNIVERSAL_TIME_OFFSET(0,0,.BEHIND.);
#247=AXIS2_PLACEMENT_3D('placement',#364,#283,#284);
#248=AXIS2_PLACEMENT_3D('',#365,#285,#286);
#249=AXIS2_PLACEMENT_3D('',#368,#287,#288);
#250=AXIS2_PLACEMENT_3D('',#369,#289,#290);
#251=AXIS2_PLACEMENT_3D('',#372,#292,#293);
#252=AXIS2_PLACEMENT_3D('',#373,#294,#295);
#253=AXIS2_PLACEMENT_3D('',#375,#296,#297);
#254=AXIS2_PLACEMENT_3D('',#376,#298,#299);
#255=AXIS2_PLACEMENT_3D('',#380,#301,#302);
#256=AXIS2_PLACEMENT_3D('',#381,#303,#304);
#257=AXIS2_PLACEMENT_3D('',#382,#305,#306);
#258=AXIS2_PLACEMENT_3D('',#386,#308,#309);
#259=AXIS2_PLACEMENT_3D('',#387,#310,#311);
#260=AXIS2_PLACEMENT_3D('',#388,#312,#313);
#261=AXIS2_PLACEMENT_3D('',#392,#315,#316);
#262=AXIS2_PLACEMENT_3D('',#393,#317,#318);
#263=AXIS2_PLACEMENT_3D('',#394,#319,#320);
#264=AXIS2_PLACEMENT_3D('',#397,#322,#323);
#265=AXIS2_PLACEMENT_3D('',#398,#324,#325);
#266=AXIS2_PLACEMENT_3D('',#400,#326,#327);
#267=AXIS2_PLACEMENT_3D('',#401,#328,#329);
#268=AXIS2_PLACEMENT_3D('',#403,#330,#331);
#269=AXIS2_PLACEMENT_3D('',#405,#333,#334);
#270=AXIS2_PLACEMENT_3D('',#407,#335,#336);
#271=AXIS2_PLACEMENT_3D('',#408,#337,#338);
#272=AXIS2_PLACEMENT_3D('',#411,#339,#340);
#273=AXIS2_PLACEMENT_3D('',#412,#341,#342);
#274=AXIS2_PLACEMENT_3D('',#414,#344,#345);
#275=AXIS2_PLACEMENT_3D('',#416,#346,#347);
#276=AXIS2_PLACEMENT_3D('',#418,#349,#350);
#277=AXIS2_PLACEMENT_3D('',#421,#351,#352);
#278=AXIS2_PLACEMENT_3D('',#422,#353,#354);
#279=AXIS2_PLACEMENT_3D('',#423,#355,#356);
#280=AXIS2_PLACEMENT_3D('',#424,#357,#358);
#281=AXIS2_PLACEMENT_3D('',#427,#360,#361);
#282=AXIS2_PLACEMENT_3D('',#428,#362,#363);
#283=DIRECTION('axis',(0.,0.,1.));
#284=DIRECTION('refdir',(1.,0.,0.));
#285=DIRECTION('center_axis',(1.,0.,0.));
#286=DIRECTION('ref_axis',(0.,-1.,0.));
#287=DIRECTION('center_axis',(-1.,0.,0.));
#288=DIRECTION('ref_axis',(0.,-1.,0.));
#289=DIRECTION('center_axis',(-1.,0.,0.));
#290=DIRECTION('ref_axis',(0.,-1.,0.));
#291=DIRECTION('',(0.707106781186546,0.707106781186549,-8.65956056235496E-17));
#292=DIRECTION('center_axis',(1.,0.,0.));
#293=DIRECTION('ref_axis',(0.,-1.,0.));
#294=DIRECTION('center_axis',(1.,0.,0.));
#295=DIRECTION('ref_axis',(0.,0.,-1.));
#296=DIRECTION('center_axis',(-1.,0.,0.));
#297=DIRECTION('ref_axis',(0.,-1.,0.));
#298=DIRECTION('center_axis',(1.,0.,0.));
#299=DIRECTION('ref_axis',(0.,1.,0.));
#300=DIRECTION('',(-1.,0.,0.));
#301=DIRECTION('center_axis',(1.,0.,0.));
#302=DIRECTION('ref_axis',(0.,-1.,0.));
#303=DIRECTION('center_axis',(1.,0.,0.));
#304=DIRECTION('ref_axis',(0.,-1.,0.));
#305=DIRECTION('center_axis',(-1.,0.,0.));
#306=DIRECTION('ref_axis',(0.,-1.,0.));
#307=DIRECTION('',(-0.707106781186554,0.707106781186541,8.65956056235486E-17));
#308=DIRECTION('center_axis',(1.,0.,0.));
#309=DIRECTION('ref_axis',(0.,-1.,0.));
#310=DIRECTION('center_axis',(1.,0.,0.));
#311=DIRECTION('ref_axis',(0.,-1.,0.));
#312=DIRECTION('center_axis',(1.,0.,0.));
#313=DIRECTION('ref_axis',(0.,1.,0.));
#314=DIRECTION('',(-1.,0.,0.));
#315=DIRECTION('center_axis',(-1.,0.,0.));
#316=DIRECTION('ref_axis',(0.,-1.,0.));
#317=DIRECTION('center_axis',(-1.,0.,0.));
#318=DIRECTION('ref_axis',(0.,-1.,0.));
#319=DIRECTION('center_axis',(1.,0.,0.));
#320=DIRECTION('ref_axis',(0.,-1.,0.));
#321=DIRECTION('',(-0.707106781186548,-0.707106781186548,-8.65956056235493E-17));
#322=DIRECTION('center_axis',(1.,0.,0.));
#323=DIRECTION('ref_axis',(0.,-1.,0.));
#324=DIRECTION('center_axis',(-1.,0.,0.));
#325=DIRECTION('ref_axis',(0.,0.,1.));
#326=DIRECTION('center_axis',(-1.,0.,0.));
#327=DIRECTION('ref_axis',(0.,-1.,1.83697019872103E-16));
#328=DIRECTION('center_axis',(-1.,0.,0.));
#329=DIRECTION('ref_axis',(0.,-1.,0.));
#330=DIRECTION('center_axis',(-1.,0.,0.));
#331=DIRECTION('ref_axis',(0.,-1.,0.));
#332=DIRECTION('',(0.70710678118655,-0.707106781186545,8.65956056235491E-17));
#333=DIRECTION('center_axis',(-1.,0.,0.));
#334=DIRECTION('ref_axis',(0.,0.,1.));
#335=DIRECTION('center_axis',(1.,0.,0.));
#336=DIRECTION('ref_axis',(0.,-1.,0.));
#337=DIRECTION('center_axis',(1.,0.,0.));
#338=DIRECTION('ref_axis',(0.,-1.,0.));
#339=DIRECTION('center_axis',(-1.,0.,0.));
#340=DIRECTION('ref_axis',(0.,-1.,0.));
#341=DIRECTION('center_axis',(-1.,0.,0.));
#342=DIRECTION('ref_axis',(0.,-1.,0.));
#343=DIRECTION('',(-0.707106781186548,-0.707106781186548,-8.65956056235493E-17));
#344=DIRECTION('center_axis',(1.,0.,0.));
#345=DIRECTION('ref_axis',(0.,1.,0.));
#346=DIRECTION('center_axis',(1.,0.,0.));
#347=DIRECTION('ref_axis',(0.,0.,-1.));
#348=DIRECTION('',(-1.,0.,0.));
#349=DIRECTION('center_axis',(1.,0.,0.));
#350=DIRECTION('ref_axis',(0.,0.,-1.));
#351=DIRECTION('center_axis',(1.,0.,0.));
#352=DIRECTION('ref_axis',(0.,-1.,1.83697019872103E-16));
#353=DIRECTION('center_axis',(0.,-1.,-1.22464679914735E-16));
#354=DIRECTION('ref_axis',(0.,-1.22464679914735E-16,1.));
#355=DIRECTION('center_axis',(1.,0.,0.));
#356=DIRECTION('ref_axis',(0.,-1.,1.83697019872103E-16));
#357=DIRECTION('center_axis',(1.,0.,0.));
#358=DIRECTION('ref_axis',(0.,1.,0.));
#359=DIRECTION('',(-1.,0.,0.));
#360=DIRECTION('center_axis',(1.,0.,0.));
#361=DIRECTION('ref_axis',(0.,0.,-1.));
#362=DIRECTION('center_axis',(-1.,0.,0.));
#363=DIRECTION('ref_axis',(0.,0.,1.));
#364=CARTESIAN_POINT('',(0.,0.,0.));
#365=CARTESIAN_POINT('Origin',(-0.100000000000006,0.,0.));
#366=CARTESIAN_POINT('',(-0.200000000000006,7.,-8.57252759403147E-16));
#367=CARTESIAN_POINT('',(-0.200000000000006,-7.,-8.57252759403147E-16));
#368=CARTESIAN_POINT('Origin',(-0.200000000000006,0.,0.));
#369=CARTESIAN_POINT('Origin',(-0.200000000000006,0.,0.));
#370=CARTESIAN_POINT('',(-5.55111512312578E-15,7.2,8.81745695386094E-16));
#371=CARTESIAN_POINT('',(-0.100000000000006,7.1,-8.69499227394621E-16));
#372=CARTESIAN_POINT('Origin',(-5.55111512312578E-15,0.,0.));
#373=CARTESIAN_POINT('Origin',(-5.55111512312578E-15,7.,0.));
#374=CARTESIAN_POINT('',(-5.55111512312578E-15,11.55,-1.41446705301519E-15));
#375=CARTESIAN_POINT('Origin',(-5.55111512312578E-15,0.,0.));
#376=CARTESIAN_POINT('Origin',(-8.00000000000001,0.,0.));
#377=CARTESIAN_POINT('',(-15.8,-7.,-8.57252759403147E-16));
#378=CARTESIAN_POINT('',(-8.00000000000001,-7.,-8.57252759403147E-16));
#379=CARTESIAN_POINT('',(-15.8,7.,8.57252759403147E-16));
#380=CARTESIAN_POINT('Origin',(-15.8,0.,0.));
#381=CARTESIAN_POINT('Origin',(-15.8,0.,0.));
#382=CARTESIAN_POINT('Origin',(-0.100000000000007,0.,0.));
#383=CARTESIAN_POINT('',(-0.200000000000009,11.75,1.43895998899814E-15));
#384=CARTESIAN_POINT('',(-0.100000000000007,11.65,1.42671352100667E-15));
#385=CARTESIAN_POINT('',(-0.200000000000009,-11.75,-1.43895998899814E-15));
#386=CARTESIAN_POINT('Origin',(-0.200000000000009,0.,0.));
#387=CARTESIAN_POINT('Origin',(-0.200000000000009,0.,0.));
#388=CARTESIAN_POINT('Origin',(-1.50000000000001,0.,0.));
#389=CARTESIAN_POINT('',(-2.8,-11.75,-1.43895998899814E-15));
#390=CARTESIAN_POINT('',(-1.50000000000001,-11.75,-1.43895998899814E-15));
#391=CARTESIAN_POINT('',(-2.8,11.75,-1.43895998899814E-15));
#392=CARTESIAN_POINT('Origin',(-2.8,0.,0.));
#393=CARTESIAN_POINT('Origin',(-2.8,0.,0.));
#394=CARTESIAN_POINT('Origin',(-2.9,0.,0.));
#395=CARTESIAN_POINT('',(-3.,11.55,1.41446705301519E-15));
#396=CARTESIAN_POINT('',(-2.9,11.65,1.42671352100667E-15));
#397=CARTESIAN_POINT('Origin',(-3.,0.,0.));
#398=CARTESIAN_POINT('Origin',(-3.,11.75,0.));
#399=CARTESIAN_POINT('',(-3.,-1.16953769318572E-15,9.55));
#400=CARTESIAN_POINT('Origin',(-3.,0.,0.));
#401=CARTESIAN_POINT('Origin',(-15.9,0.,0.));
#402=CARTESIAN_POINT('',(-16.,7.2,-8.81745695386094E-16));
#403=CARTESIAN_POINT('Origin',(-16.,0.,0.));
#404=CARTESIAN_POINT('',(-15.9,7.1,-8.69499227394621E-16));
#405=CARTESIAN_POINT('Origin',(-16.,8.6,0.));
#406=CARTESIAN_POINT('',(-16.,8.4,1.02870331128378E-15));
#407=CARTESIAN_POINT('Origin',(-16.,0.,0.));
#408=CARTESIAN_POINT('Origin',(-15.9,0.,0.));
#409=CARTESIAN_POINT('',(-15.8,8.6,-1.05319624726672E-15));
#410=CARTESIAN_POINT('',(-15.8,-8.6,-1.05319624726672E-15));
#411=CARTESIAN_POINT('Origin',(-15.8,0.,0.));
#412=CARTESIAN_POINT('Origin',(-15.8,0.,0.));
#413=CARTESIAN_POINT('',(-15.9,8.5,1.04094977927525E-15));
#414=CARTESIAN_POINT('Origin',(-12.5,0.,0.));
#415=CARTESIAN_POINT('',(-9.00000000000001,-8.6,-1.05319624726672E-15));
#416=CARTESIAN_POINT('Origin',(-9.00000000000001,0.,0.));
#417=CARTESIAN_POINT('',(-12.5,-8.6,-1.05319624726672E-15));
#418=CARTESIAN_POINT('Origin',(-3.80000000000001,0.,0.));
#419=CARTESIAN_POINT('',(-3.8,-8.75,-1.07156594925393E-15));
#420=CARTESIAN_POINT('',(-3.80000000000001,-1.07156594925393E-15,8.75));
#421=CARTESIAN_POINT('Origin',(-3.80000000000001,0.,0.));
#422=CARTESIAN_POINT('Origin',(-3.80000000000001,-1.16953769318572E-15,
9.55));
#423=CARTESIAN_POINT('Origin',(-3.80000000000001,0.,0.));
#424=CARTESIAN_POINT('Origin',(-6.,0.,0.));
#425=CARTESIAN_POINT('',(-9.00000000000001,-8.75,-1.07156594925393E-15));
#426=CARTESIAN_POINT('',(-6.,-8.75,-1.07156594925393E-15));
#427=CARTESIAN_POINT('Origin',(-9.00000000000001,0.,0.));
#428=CARTESIAN_POINT('Origin',(-9.00000000000001,8.75,0.));
#429=UNCERTAINTY_MEASURE_WITH_UNIT(LENGTH_MEASURE(0.01),#433,
'DISTANCE_ACCURACY_VALUE',
'Maximum model space distance between geometric entities at asserted c
onnectivities');
#430=UNCERTAINTY_MEASURE_WITH_UNIT(LENGTH_MEASURE(0.01),#433,
'DISTANCE_ACCURACY_VALUE',
'Maximum model space distance between geometric entities at asserted c
onnectivities');
#431=(
GEOMETRIC_REPRESENTATION_CONTEXT(3)
GLOBAL_UNCERTAINTY_ASSIGNED_CONTEXT((#429))
GLOBAL_UNIT_ASSIGNED_CONTEXT((#433,#435,#436))
REPRESENTATION_CONTEXT('','3D')
);
#432=(
GEOMETRIC_REPRESENTATION_CONTEXT(3)
GLOBAL_UNCERTAINTY_ASSIGNED_CONTEXT((#430))
GLOBAL_UNIT_ASSIGNED_CONTEXT((#433,#435,#436))
REPRESENTATION_CONTEXT('','3D')
);
#433=(
LENGTH_UNIT()
NAMED_UNIT(*)
SI_UNIT(.MILLI.,.METRE.)
);
#434=(
LENGTH_UNIT()
NAMED_UNIT(*)
SI_UNIT(.CENTI.,.METRE.)
);
#435=(
NAMED_UNIT(*)
PLANE_ANGLE_UNIT()
SI_UNIT($,.RADIAN.)
);
#436=(
NAMED_UNIT(*)
SI_UNIT($,.STERADIAN.)
SOLID_ANGLE_UNIT()
);
#437=SHAPE_DEFINITION_REPRESENTATION(#438,#439);
#438=PRODUCT_DEFINITION_SHAPE('',$,#441);
#439=SHAPE_REPRESENTATION('',(#247),#431);
#440=PRODUCT_DEFINITION_CONTEXT('part definition',#445,'design');
#441=PRODUCT_DEFINITION('3D_R666-SE-17.2-DN20_17113321',
'3D_R666-SE-17.2-DN20_17113321',#442,#440);
#442=PRODUCT_DEFINITION_FORMATION('',$,#447);
#443=PRODUCT_RELATED_PRODUCT_CATEGORY('3D_R666-SE-17.2-DN20_17113321',
'3D_R666-SE-17.2-DN20_17113321',(#447));
#444=APPLICATION_PROTOCOL_DEFINITION('international standard',
'automotive_design',2009,#445);
#445=APPLICATION_CONTEXT(
'Core Data for Automotive Mechanical Design Process');
#446=PRODUCT_CONTEXT('part definition',#445,'mechanical');
#447=PRODUCT('3D_R666-SE-17.2-DN20_17113321',
'3D_R666-SE-17.2-DN20_17113321',$,(#446));
#448=PRESENTATION_STYLE_ASSIGNMENT((#449));
#449=SURFACE_STYLE_USAGE(.BOTH.,#452);
#450=SURFACE_STYLE_RENDERING_WITH_PROPERTIES($,#456,(#451));
#451=SURFACE_STYLE_TRANSPARENT(0.);
#452=SURFACE_SIDE_STYLE('',(#453,#450));
#453=SURFACE_STYLE_FILL_AREA(#454);
#454=FILL_AREA_STYLE('',(#455));
#455=FILL_AREA_STYLE_COLOUR('',#456);
#456=COLOUR_RGB('',0.749019607843137,0.749019607843137,0.749019607843137);
ENDSEC;
END-ISO-10303-21;
