ISO-10303-21;
HEADER;
FILE_DESCRIPTION (( 'STEP AP203' ),
    '1' );
FILE_NAME ('3D_M-2030P_20_174774020.STEP',
    '2024-09-10T06:56:47',
    ( '' ),
    ( '' ),
    'SwSTEP 2.0',
    'SolidWorks 2024',
    '' );
FILE_SCHEMA (( 'CONFIG_CONTROL_DESIGN' ));
ENDSEC;

DATA;
#1 = APPROVAL_DATE_TIME ( #102, #14 ) ;
#2 = DIRECTION ( 'NONE',  ( -1.000000000000000000, -0.000000000000000000, -0.000000000000000000 ) ) ;
#3 = DIRECTION ( 'NONE',  ( -1.000000000000000000, -0.000000000000000000, -0.000000000000000000 ) ) ;
#4 = DIRECTION ( 'NONE',  ( -1.000000000000000000, -0.000000000000000000, -0.000000000000000000 ) ) ;
#5 = CIRCLE ( 'NONE', #64, 14.99999999999996625 ) ;
#6 = CARTESIAN_POINT ( 'NONE',  ( -2.999999999999988898, 0.000000000000000000, 0.000000000000000000 ) ) ;
#7 = MANIFOLD_SOLID_BREP ( 'Rotation1', #183 ) ;
#8 = CIRCLE ( 'NONE', #191, 14.99999999999996625 ) ;
#9 = CARTESIAN_POINT ( 'NONE',  ( -10.99999999999999645, 0.000000000000000000, 0.000000000000000000 ) ) ;
#10 = ORIENTED_EDGE ( 'NONE', *, *, #200, .T. ) ;
#11 = DIRECTION ( 'NONE',  ( 1.000000000000000000, 0.000000000000000000, 0.000000000000000000 ) ) ;
#12 = LOCAL_TIME ( 8, 56, 47.00000000000000000, #142 ) ;
#13 = ORIENTED_EDGE ( 'NONE', *, *, #85, .F. ) ;
#14 = APPROVAL ( #195, 'UNSPECIFIED' ) ;
#15 = CARTESIAN_POINT ( 'NONE',  ( -108.2865231617622612, 1.836970198721025645E-15, -14.99999999999996625 ) ) ;
#16 = CARTESIAN_POINT ( 'NONE',  ( -10.99999999999999289, -3.315318599521195210E-14, 0.000000000000000000 ) ) ;
#17 = CIRCLE ( 'NONE', #70, 14.99999999999996625 ) ;
#18 = APPROVAL_STATUS ( 'not_yet_approved' ) ;
#19 = APPROVAL_ROLE ( '' ) ;
#20 = PERSON ( 'UNSPECIFIED', 'UNSPECIFIED', 'UNSPECIFIED', ('UNSPECIFIED'), ('UNSPECIFIED'), ('UNSPECIFIED') ) ;
#21 = PERSON_AND_ORGANIZATION ( #20, #62 ) ;
#22 = PRODUCT ( '3D_M-2030P_20_174774020', '3D_M-2030P_20_174774020', '', ( #78 ) ) ;
#23 = DIRECTION ( 'NONE',  ( 1.000000000000000000, 0.000000000000000000, 0.000000000000000000 ) ) ;
#24 = AXIS2_PLACEMENT_3D ( 'NONE', #185, #97, #152 ) ;
#25 = DIRECTION ( 'NONE',  ( 0.000000000000000000, 0.000000000000000000, 1.000000000000000000 ) ) ;
#26 = LOCAL_TIME ( 8, 56, 47.00000000000000000, #42 ) ;
#27 = CARTESIAN_POINT ( 'NONE',  ( -2.999999999999990674, 18.49999999999996447, 0.000000000000000000 ) ) ;
#28 = FACE_BOUND ( 'NONE', #51, .T. ) ;
#29 = DIRECTION ( 'NONE',  ( 0.000000000000000000, 0.000000000000000000, 1.000000000000000000 ) ) ;
#30 = EDGE_LOOP ( 'NONE', ( #168, #95 ) ) ;
#31 = CARTESIAN_POINT ( 'NONE',  ( -10.99999999999999645, 2.087302585470993490E-15, 15.58823812587037061 ) ) ;
#32 = EDGE_LOOP ( 'NONE', ( #49, #248, #172, #192 ) ) ;
#33 = ORIENTED_EDGE ( 'NONE', *, *, #154, .T. ) ;
#34 = DIRECTION ( 'NONE',  ( 0.000000000000000000, 0.000000000000000000, 1.000000000000000000 ) ) ;
#35 = ORIENTED_EDGE ( 'NONE', *, *, #125, .F. ) ;
#36 = CARTESIAN_POINT ( 'NONE',  ( -10.99999999999999645, 0.000000000000000000, 0.000000000000000000 ) ) ;
#37 = VECTOR ( 'NONE', #151, 1000.000000000000000 ) ;
#38 = ADVANCED_FACE ( 'NONE', ( #188, #28 ), #108, .F. ) ;
#39 = PERSON_AND_ORGANIZATION ( #20, #62 ) ;
#40 = COORDINATED_UNIVERSAL_TIME_OFFSET ( 1, 0, .AHEAD. ) ;
#41 = PRODUCT_DEFINITION_FORMATION_WITH_SPECIFIED_SOURCE ( 'ANY', '', #22, .NOT_KNOWN. ) ;
#42 = COORDINATED_UNIVERSAL_TIME_OFFSET ( 1, 0, .AHEAD. ) ;
#43 = APPROVAL ( #232, 'UNSPECIFIED' ) ;
#44 = CALENDAR_DATE ( 2024, 10, 9 ) ;
#45 = CC_DESIGN_DATE_AND_TIME_ASSIGNMENT ( #178, #121, ( #140 ) ) ;
#46 = CC_DESIGN_SECURITY_CLASSIFICATION ( #140, ( #41 ) ) ;
#47 = FACE_OUTER_BOUND ( 'NONE', #228, .T. ) ;
#48 = CIRCLE ( 'NONE', #218, 18.49999999999996447 ) ;
#49 = ORIENTED_EDGE ( 'NONE', *, *, #227, .F. ) ;
#50 = ORIENTED_EDGE ( 'NONE', *, *, #79, .F. ) ;
#51 = EDGE_LOOP ( 'NONE', ( #113, #137 ) ) ;
#52 = AXIS2_PLACEMENT_3D ( 'NONE', #27, #147, #65 ) ;
#53 = DIRECTION ( 'NONE',  ( 0.9396926207859095381, 4.188538737676957252E-17, 0.3420201433256658818 ) ) ;
#54 = PERSON_AND_ORGANIZATION ( #20, #62 ) ;
#55 = ORIENTED_EDGE ( 'NONE', *, *, #110, .F. ) ;
#56 = AXIS2_PLACEMENT_3D ( 'NONE', #36, #249, #246 ) ;
#57 = PERSON_AND_ORGANIZATION ( #20, #62 ) ;
#58 = DATE_TIME_ROLE ( 'creation_date' ) ;
#59 = LOCAL_TIME ( 8, 56, 47.00000000000000000, #216 ) ;
#60 = CC_DESIGN_PERSON_AND_ORGANIZATION_ASSIGNMENT ( #39, #120, ( #115 ) ) ;
#61 = CC_DESIGN_APPROVAL ( #14, ( #140 ) ) ;
#62 = ORGANIZATION ( 'UNSPECIFIED', 'UNSPECIFIED', '' ) ;
#63 = EDGE_LOOP ( 'NONE', ( #166, #50 ) ) ;
#64 = AXIS2_PLACEMENT_3D ( 'NONE', #181, #2, #87 ) ;
#65 = DIRECTION ( 'NONE',  ( -0.000000000000000000, 0.000000000000000000, 1.000000000000000000 ) ) ;
#66 = CC_DESIGN_DATE_AND_TIME_ASSIGNMENT ( #82, #58, ( #115 ) ) ;
#67 = DIRECTION ( 'NONE',  ( 0.000000000000000000, 0.000000000000000000, 1.000000000000000000 ) ) ;
#68 = LINE ( 'NONE', #201, #174 ) ;
#69 = LINE ( 'NONE', #167, #106 ) ;
#70 = AXIS2_PLACEMENT_3D ( 'NONE', #206, #94, #170 ) ;
#71 = DIRECTION ( 'NONE',  ( 0.000000000000000000, 0.000000000000000000, 1.000000000000000000 ) ) ;
#72 = ORIENTED_EDGE ( 'NONE', *, *, #103, .T. ) ;
#73 = CC_DESIGN_PERSON_AND_ORGANIZATION_ASSIGNMENT ( #141, #101, ( #140 ) ) ;
#74 = APPROVAL_PERSON_ORGANIZATION ( #21, #158, #139 ) ;
#75 = CARTESIAN_POINT ( 'NONE',  ( -2.999999999999988898, 0.000000000000000000, 0.000000000000000000 ) ) ;
#76 = ORIENTED_EDGE ( 'NONE', *, *, #125, .T. ) ;
#77 = CARTESIAN_POINT ( 'NONE',  ( -10.99999999999999645, 0.000000000000000000, -15.58823812587037061 ) ) ;
#78 = MECHANICAL_CONTEXT ( 'NONE', #164, 'mechanical' ) ;
#79 = EDGE_CURVE ( 'NONE', #225, #98, #5, .T. ) ;
#80 = ORIENTED_EDGE ( 'NONE', *, *, #162, .F. ) ;
#81 = AXIS2_PLACEMENT_3D ( 'NONE', #107, #4, #67 ) ;
#82 = DATE_AND_TIME ( #233, #12 ) ;
#83 = PERSON_AND_ORGANIZATION_ROLE ( 'design_supplier' ) ;
#84 = CIRCLE ( 'NONE', #212, 15.58823812587037061 ) ;
#85 = EDGE_CURVE ( 'NONE', #135, #175, #100, .T. ) ;
#86 = FACE_OUTER_BOUND ( 'NONE', #63, .T. ) ;
#87 = DIRECTION ( 'NONE',  ( 0.000000000000000000, 0.000000000000000000, 1.000000000000000000 ) ) ;
#88 = ADVANCED_FACE ( 'NONE', ( #86 ), #184, .F. ) ;
#89 = DIRECTION ( 'NONE',  ( 0.000000000000000000, 0.000000000000000000, 1.000000000000000000 ) ) ;
#90 = DIRECTION ( 'NONE',  ( -1.000000000000000000, -0.000000000000000000, -0.000000000000000000 ) ) ;
#91 = CIRCLE ( 'NONE', #244, 18.49999999999996447 ) ;
#92 = DIRECTION ( 'NONE',  ( 0.000000000000000000, 0.000000000000000000, -1.000000000000000000 ) ) ;
#93 = EDGE_LOOP ( 'NONE', ( #33, #10, #226, #35 ) ) ;
#94 = DIRECTION ( 'NONE',  ( -1.000000000000000000, -0.000000000000000000, -0.000000000000000000 ) ) ;
#95 = ORIENTED_EDGE ( 'NONE', *, *, #162, .T. ) ;
#96 = ADVANCED_FACE ( 'NONE', ( #160 ), #240, .T. ) ;
#97 = DIRECTION ( 'NONE',  ( -1.000000000000000000, -0.000000000000000000, -0.000000000000000000 ) ) ;
#98 = VERTEX_POINT ( 'NONE', #127 ) ;
#99 = DIRECTION ( 'NONE',  ( 0.000000000000000000, 0.000000000000000000, -1.000000000000000000 ) ) ;
#100 = CIRCLE ( 'NONE', #254, 14.99999999999996625 ) ;
#101 = PERSON_AND_ORGANIZATION_ROLE ( 'classification_officer' ) ;
#102 = DATE_AND_TIME ( #126, #26 ) ;
#103 = EDGE_CURVE ( 'NONE', #250, #252, #48, .T. ) ;
#104 = SHAPE_DEFINITION_REPRESENTATION ( #199, #237 ) ;
#105 = CC_DESIGN_PERSON_AND_ORGANIZATION_ASSIGNMENT ( #57, #214, ( #41 ) ) ;
#106 = VECTOR ( 'NONE', #53, 999.9999999999998863 ) ;
#107 = CARTESIAN_POINT ( 'NONE',  ( -108.2865231617622612, 0.000000000000000000, 0.000000000000000000 ) ) ;
#108 = PLANE ( 'NONE',  #52 ) ;
#109 = LOCAL_TIME ( 8, 56, 47.00000000000000000, #40 ) ;
#110 = EDGE_CURVE ( 'NONE', #210, #252, #148, .T. ) ;
#111 = FACE_OUTER_BOUND ( 'NONE', #30, .T. ) ;
#112 =( NAMED_UNIT ( * ) SI_UNIT ( $, .STERADIAN. ) SOLID_ANGLE_UNIT ( ) );
#113 = ORIENTED_EDGE ( 'NONE', *, *, #136, .T. ) ;
#114 = ORIENTED_EDGE ( 'NONE', *, *, #103, .F. ) ;
#115 = PRODUCT_DEFINITION ( 'UNKNOWN', '', #41, #161 ) ;
#116 = DIRECTION ( 'NONE',  ( 1.000000000000000000, 0.000000000000000000, 0.000000000000000000 ) ) ;
#117 = ORIENTED_EDGE ( 'NONE', *, *, #200, .F. ) ;
#118 = CARTESIAN_POINT ( 'NONE',  ( -2.999999999999988898, 2.265596578422599058E-15, 18.49999999999996447 ) ) ;
#119 = CIRCLE ( 'NONE', #56, 15.58823812587037061 ) ;
#120 = PERSON_AND_ORGANIZATION_ROLE ( 'creator' ) ;
#121 = DATE_TIME_ROLE ( 'classification_date' ) ;
#122 = CC_DESIGN_PERSON_AND_ORGANIZATION_ASSIGNMENT ( #217, #83, ( #41 ) ) ;
#123 = APPROVAL_PERSON_ORGANIZATION ( #234, #14, #19 ) ;
#124 = DATE_AND_TIME ( #44, #236 ) ;
#125 = EDGE_CURVE ( 'NONE', #98, #175, #68, .T. ) ;
#126 = CALENDAR_DATE ( 2024, 10, 9 ) ;
#127 = CARTESIAN_POINT ( 'NONE',  ( 1.387778780781445676E-14, 0.000000000000000000, 14.99999999999996625 ) ) ;
#128 = DIRECTION ( 'NONE',  ( -0.000000000000000000, 0.000000000000000000, 1.000000000000000000 ) ) ;
#129 = FACE_OUTER_BOUND ( 'NONE', #32, .T. ) ;
#130 = ADVANCED_FACE ( 'NONE', ( #129 ), #194, .T. ) ;
#131 = CYLINDRICAL_SURFACE ( 'NONE', #24, 14.99999999999996625 ) ;
#132 = DIRECTION ( 'NONE',  ( -1.000000000000000000, -0.000000000000000000, -0.000000000000000000 ) ) ;
#133 = ORIENTED_EDGE ( 'NONE', *, *, #79, .T. ) ;
#134 = CARTESIAN_POINT ( 'NONE',  ( 0.000000000000000000, 0.000000000000000000, 0.000000000000000000 ) ) ;
#135 = VERTEX_POINT ( 'NONE', #180 ) ;
#136 = EDGE_CURVE ( 'NONE', #175, #135, #17, .T. ) ;
#137 = ORIENTED_EDGE ( 'NONE', *, *, #85, .T. ) ;
#138 = APPLICATION_PROTOCOL_DEFINITION ( 'international standard', 'config_control_design', 1994, #245 ) ;
#139 = APPROVAL_ROLE ( '' ) ;
#140 = SECURITY_CLASSIFICATION ( '', '', #143 ) ;
#141 = PERSON_AND_ORGANIZATION ( #20, #62 ) ;
#142 = COORDINATED_UNIVERSAL_TIME_OFFSET ( 1, 0, .AHEAD. ) ;
#143 = SECURITY_CLASSIFICATION_LEVEL ( 'unclassified' ) ;
#144 = AXIS2_PLACEMENT_3D ( 'NONE', #203, #23, #241 ) ;
#145 = DIRECTION ( 'NONE',  ( 0.9396926207859095381, 0.000000000000000000, -0.3420201433256658818 ) ) ;
#146 = PRODUCT_RELATED_PRODUCT_CATEGORY ( 'detail', '', ( #22 ) ) ;
#147 = DIRECTION ( 'NONE',  ( -1.000000000000000000, 0.000000000000000000, -0.000000000000000000 ) ) ;
#148 = LINE ( 'NONE', #220, #198 ) ;
#149 = AXIS2_PLACEMENT_3D ( 'NONE', #75, #171, #99 ) ;
#150 = CARTESIAN_POINT ( 'NONE',  ( -2.999999999999988898, 0.000000000000000000, -18.49999999999996447 ) ) ;
#151 = DIRECTION ( 'NONE',  ( -1.000000000000000000, -0.000000000000000000, -0.000000000000000000 ) ) ;
#152 = DIRECTION ( 'NONE',  ( 0.000000000000000000, 0.000000000000000000, 1.000000000000000000 ) ) ;
#153 = EDGE_LOOP ( 'NONE', ( #117, #133, #76, #13 ) ) ;
#154 = EDGE_CURVE ( 'NONE', #98, #225, #8, .T. ) ;
#155 = DATE_AND_TIME ( #177, #59 ) ;
#156 = AXIS2_PLACEMENT_3D ( 'NONE', #222, #238, #128 ) ;
#157 = CARTESIAN_POINT ( 'NONE',  ( -2.999999999999988898, 0.000000000000000000, 0.000000000000000000 ) ) ;
#158 = APPROVAL ( #18, 'UNSPECIFIED' ) ;
#159 = DIRECTION ( 'NONE',  ( -1.000000000000000000, -0.000000000000000000, -0.000000000000000000 ) ) ;
#160 = FACE_OUTER_BOUND ( 'NONE', #93, .T. ) ;
#161 = DESIGN_CONTEXT ( 'detailed design', #245, 'design' ) ;
#162 = EDGE_CURVE ( 'NONE', #229, #210, #84, .T. ) ;
#163 = DIRECTION ( 'NONE',  ( -1.000000000000000000, -0.000000000000000000, -0.000000000000000000 ) ) ;
#164 = APPLICATION_CONTEXT ( 'configuration controlled 3d designs of mechanical parts and assemblies' ) ;
#165 = DIRECTION ( 'NONE',  ( 0.000000000000000000, 0.000000000000000000, 1.000000000000000000 ) ) ;
#166 = ORIENTED_EDGE ( 'NONE', *, *, #154, .F. ) ;
#167 = CARTESIAN_POINT ( 'NONE',  ( -2.999999999999988898, 2.265596578422599058E-15, 18.49999999999996447 ) ) ;
#168 = ORIENTED_EDGE ( 'NONE', *, *, #182, .T. ) ;
#169 = CC_DESIGN_APPROVAL ( #43, ( #115 ) ) ;
#170 = DIRECTION ( 'NONE',  ( 0.000000000000000000, 0.000000000000000000, 1.000000000000000000 ) ) ;
#171 = DIRECTION ( 'NONE',  ( 1.000000000000000000, 0.000000000000000000, 0.000000000000000000 ) ) ;
#172 = ORIENTED_EDGE ( 'NONE', *, *, #110, .T. ) ;
#173 = APPROVAL_DATE_TIME ( #155, #158 ) ;
#174 = VECTOR ( 'NONE', #3, 1000.000000000000000 ) ;
#175 = VERTEX_POINT ( 'NONE', #207 ) ;
#176 = APPROVAL_DATE_TIME ( #124, #43 ) ;
#177 = CALENDAR_DATE ( 2024, 10, 9 ) ;
#178 = DATE_AND_TIME ( #230, #109 ) ;
#179 = AXIS2_PLACEMENT_3D ( 'NONE', #16, #11, #92 ) ;
#180 = CARTESIAN_POINT ( 'NONE',  ( -2.999999999999988898, 1.836970198721025645E-15, -14.99999999999996625 ) ) ;
#181 = CARTESIAN_POINT ( 'NONE',  ( 1.387778780781445676E-14, 0.000000000000000000, 0.000000000000000000 ) ) ;
#182 = EDGE_CURVE ( 'NONE', #210, #229, #119, .T. ) ;
#183 = CLOSED_SHELL ( 'NONE', ( #96, #197, #219, #130, #38, #235, #88 ) ) ;
#184 = PLANE ( 'NONE',  #156 ) ;
#185 = CARTESIAN_POINT ( 'NONE',  ( -108.2865231617622612, 0.000000000000000000, 0.000000000000000000 ) ) ;
#186 = LINE ( 'NONE', #15, #37 ) ;
#187 = DIRECTION ( 'NONE',  ( -1.000000000000000000, -0.000000000000000000, -0.000000000000000000 ) ) ;
#188 = FACE_OUTER_BOUND ( 'NONE', #231, .T. ) ;
#189 = APPLICATION_PROTOCOL_DEFINITION ( 'international standard', 'config_control_design', 1994, #164 ) ;
#190 = PLANE ( 'NONE',  #179 ) ;
#191 = AXIS2_PLACEMENT_3D ( 'NONE', #242, #90, #165 ) ;
#192 = ORIENTED_EDGE ( 'NONE', *, *, #239, .T. ) ;
#193 = PERSON_AND_ORGANIZATION_ROLE ( 'design_owner' ) ;
#194 = CONICAL_SURFACE ( 'NONE', #144, 18.49999999999996447, 0.3490658503988628980 ) ;
#195 = APPROVAL_STATUS ( 'not_yet_approved' ) ;
#196 = PERSON_AND_ORGANIZATION ( #20, #62 ) ;
#197 = ADVANCED_FACE ( 'NONE', ( #47 ), #202, .T. ) ;
#198 = VECTOR ( 'NONE', #145, 999.9999999999998863 ) ;
#199 = PRODUCT_DEFINITION_SHAPE ( 'NONE', 'NONE',  #115 ) ;
#200 = EDGE_CURVE ( 'NONE', #225, #135, #186, .T. ) ;
#201 = CARTESIAN_POINT ( 'NONE',  ( -108.2865231617622612, 0.000000000000000000, 14.99999999999996625 ) ) ;
#202 = CONICAL_SURFACE ( 'NONE', #149, 18.49999999999996447, 0.3490658503988628980 ) ;
#203 = CARTESIAN_POINT ( 'NONE',  ( -2.999999999999988898, 0.000000000000000000, 0.000000000000000000 ) ) ;
#204 = APPROVAL_PERSON_ORGANIZATION ( #54, #43, #211 ) ;
#205 = ORIENTED_EDGE ( 'NONE', *, *, #227, .T. ) ;
#206 = CARTESIAN_POINT ( 'NONE',  ( -2.999999999999988898, 0.000000000000000000, 0.000000000000000000 ) ) ;
#207 = CARTESIAN_POINT ( 'NONE',  ( -2.999999999999988898, 0.000000000000000000, 14.99999999999996625 ) ) ;
#208 = ORIENTED_EDGE ( 'NONE', *, *, #239, .F. ) ;
#209 = FACE_OUTER_BOUND ( 'NONE', #153, .T. ) ;
#210 = VERTEX_POINT ( 'NONE', #77 ) ;
#211 = APPROVAL_ROLE ( '' ) ;
#212 = AXIS2_PLACEMENT_3D ( 'NONE', #9, #132, #71 ) ;
#213 =( GEOMETRIC_REPRESENTATION_CONTEXT ( 3 ) GLOBAL_UNCERTAINTY_ASSIGNED_CONTEXT ( ( #221 ) ) GLOBAL_UNIT_ASSIGNED_CONTEXT ( ( #247, #223, #112 ) ) REPRESENTATION_CONTEXT ( 'NONE', 'WORKASPACE' ) );
#214 = PERSON_AND_ORGANIZATION_ROLE ( 'creator' ) ;
#215 = CC_DESIGN_APPROVAL ( #158, ( #41 ) ) ;
#216 = COORDINATED_UNIVERSAL_TIME_OFFSET ( 1, 0, .AHEAD. ) ;
#217 = PERSON_AND_ORGANIZATION ( #20, #62 ) ;
#218 = AXIS2_PLACEMENT_3D ( 'NONE', #157, #163, #89 ) ;
#219 = ADVANCED_FACE ( 'NONE', ( #111 ), #190, .F. ) ;
#220 = CARTESIAN_POINT ( 'NONE',  ( -2.999999999999988898, 0.000000000000000000, -18.49999999999996447 ) ) ;
#221 = UNCERTAINTY_MEASURE_WITH_UNIT (LENGTH_MEASURE( 1.000000000000000082E-05 ), #247, 'distance_accuracy_value', 'NONE');
#222 = CARTESIAN_POINT ( 'NONE',  ( 3.686287386450715076E-15, 14.99999999999996625, 0.000000000000000000 ) ) ;
#223 =( NAMED_UNIT ( * ) PLANE_ANGLE_UNIT ( ) SI_UNIT ( $, .RADIAN. ) );
#224 = CARTESIAN_POINT ( 'NONE',  ( 1.387778780781445676E-14, 1.836970198721025645E-15, -14.99999999999996625 ) ) ;
#225 = VERTEX_POINT ( 'NONE', #224 ) ;
#226 = ORIENTED_EDGE ( 'NONE', *, *, #136, .F. ) ;
#227 = EDGE_CURVE ( 'NONE', #229, #250, #69, .T. ) ;
#228 = EDGE_LOOP ( 'NONE', ( #80, #205, #72, #55 ) ) ;
#229 = VERTEX_POINT ( 'NONE', #31 ) ;
#230 = CALENDAR_DATE ( 2024, 10, 9 ) ;
#231 = EDGE_LOOP ( 'NONE', ( #208, #114 ) ) ;
#232 = APPROVAL_STATUS ( 'not_yet_approved' ) ;
#233 = CALENDAR_DATE ( 2024, 10, 9 ) ;
#234 = PERSON_AND_ORGANIZATION ( #20, #62 ) ;
#235 = ADVANCED_FACE ( 'NONE', ( #209 ), #131, .T. ) ;
#236 = LOCAL_TIME ( 8, 56, 47.00000000000000000, #255 ) ;
#237 = ADVANCED_BREP_SHAPE_REPRESENTATION ( '3D_M-2030P_20_174774020', ( #7, #253 ), #213 ) ;
#238 = DIRECTION ( 'NONE',  ( -1.000000000000000000, 0.000000000000000000, -0.000000000000000000 ) ) ;
#239 = EDGE_CURVE ( 'NONE', #252, #250, #91, .T. ) ;
#240 = CYLINDRICAL_SURFACE ( 'NONE', #81, 14.99999999999996625 ) ;
#241 = DIRECTION ( 'NONE',  ( 0.000000000000000000, 0.000000000000000000, -1.000000000000000000 ) ) ;
#242 = CARTESIAN_POINT ( 'NONE',  ( 1.387778780781445676E-14, 0.000000000000000000, 0.000000000000000000 ) ) ;
#243 = CC_DESIGN_PERSON_AND_ORGANIZATION_ASSIGNMENT ( #196, #193, ( #22 ) ) ;
#244 = AXIS2_PLACEMENT_3D ( 'NONE', #251, #187, #29 ) ;
#245 = APPLICATION_CONTEXT ( 'configuration controlled 3d designs of mechanical parts and assemblies' ) ;
#246 = DIRECTION ( 'NONE',  ( 0.000000000000000000, 0.000000000000000000, 1.000000000000000000 ) ) ;
#247 =( LENGTH_UNIT ( ) NAMED_UNIT ( * ) SI_UNIT ( .MILLI., .METRE. ) );
#248 = ORIENTED_EDGE ( 'NONE', *, *, #182, .F. ) ;
#249 = DIRECTION ( 'NONE',  ( -1.000000000000000000, -0.000000000000000000, -0.000000000000000000 ) ) ;
#250 = VERTEX_POINT ( 'NONE', #118 ) ;
#251 = CARTESIAN_POINT ( 'NONE',  ( -2.999999999999988898, 0.000000000000000000, 0.000000000000000000 ) ) ;
#252 = VERTEX_POINT ( 'NONE', #150 ) ;
#253 = AXIS2_PLACEMENT_3D ( 'NONE', #134, #34, #116 ) ;
#254 = AXIS2_PLACEMENT_3D ( 'NONE', #6, #159, #25 ) ;
#255 = COORDINATED_UNIVERSAL_TIME_OFFSET ( 1, 0, .AHEAD. ) ;
ENDSEC;
END-ISO-10303-21;
