ISO-10303-21;
HEADER;
/* Generated by software containing ST-Developer
 * from STEP Tools, Inc. (www.steptools.com) 
 */

FILE_DESCRIPTION(
/* description */ (''),
/* implementation_level */ '2;1');

FILE_NAME(
/* name */ 
'R:\\Disegni3D_Area_Manager\\Inoxpres.step\\183_003INOXPRES\\183028003
_Inoxpres.stp',
/* time_stamp */ '2022-10-11T12:03:04+02:00',
/* author */ ('Vault'),
/* organization */ ('Raccorderie metalliche s.p.a. '),
/* preprocessor_version */ 'ST-DEVELOPER v18.1',
/* originating_system */ 'Autodesk Inventor 2020',
/* authorisation */ 'Raccorderie metalliche s.p.a. ');

FILE_SCHEMA (('AUTOMOTIVE_DESIGN { 1 0 10303 214 3 1 1 }'));
ENDSEC;

DATA;
#10=MECHANICAL_DESIGN_GEOMETRIC_PRESENTATION_REPRESENTATION('',(#13),#502);
#11=SHAPE_REPRESENTATION_RELATIONSHIP('SRR','None',#509,#12);
#12=ADVANCED_BREP_SHAPE_REPRESENTATION('',(#14),#501);
#13=STYLED_ITEM('',(#518),#14);
#14=MANIFOLD_SOLID_BREP('Solido1',#256);
#15=CYLINDRICAL_SURFACE('',#302,14.2);
#16=CYLINDRICAL_SURFACE('',#310,15.7);
#17=CYLINDRICAL_SURFACE('',#316,14.4);
#18=PLANE('',#301);
#19=PLANE('',#309);
#20=LINE('',#437,#27);
#21=LINE('',#449,#28);
#22=LINE('',#468,#29);
#23=LINE('',#476,#30);
#24=LINE('',#482,#31);
#25=LINE('',#487,#32);
#26=LINE('',#493,#33);
#27=VECTOR('',#341,14.4611371809026);
#28=VECTOR('',#356,14.4123552452312);
#29=VECTOR('',#379,14.2);
#30=VECTOR('',#388,15.2);
#31=VECTOR('',#397,15.7);
#32=VECTOR('',#404,15.2375);
#33=VECTOR('',#411,14.4);
#34=CONICAL_SURFACE('',#282,14.4611371809026,0.0116891822744392);
#35=CONICAL_SURFACE('',#291,14.4123552452312,0.0116891822744397);
#36=CONICAL_SURFACE('',#305,15.2,0.785398163397448);
#37=CONICAL_SURFACE('',#313,15.2375,1.0471975511966);
#38=FACE_OUTER_BOUND('',#52,.T.);
#39=FACE_OUTER_BOUND('',#53,.T.);
#40=FACE_OUTER_BOUND('',#54,.T.);
#41=FACE_OUTER_BOUND('',#55,.T.);
#42=FACE_OUTER_BOUND('',#56,.T.);
#43=FACE_OUTER_BOUND('',#57,.T.);
#44=FACE_OUTER_BOUND('',#58,.T.);
#45=FACE_OUTER_BOUND('',#59,.T.);
#46=FACE_OUTER_BOUND('',#60,.T.);
#47=FACE_OUTER_BOUND('',#61,.T.);
#48=FACE_OUTER_BOUND('',#62,.T.);
#49=FACE_OUTER_BOUND('',#63,.T.);
#50=FACE_OUTER_BOUND('',#64,.T.);
#51=FACE_OUTER_BOUND('',#65,.T.);
#52=EDGE_LOOP('',(#161,#162,#163,#164,#165,#166));
#53=EDGE_LOOP('',(#167,#168,#169,#170,#171,#172));
#54=EDGE_LOOP('',(#173,#174,#175,#176,#177,#178));
#55=EDGE_LOOP('',(#179,#180,#181,#182,#183,#184));
#56=EDGE_LOOP('',(#185,#186,#187,#188,#189,#190,#191));
#57=EDGE_LOOP('',(#192,#193));
#58=EDGE_LOOP('',(#194,#195,#196,#197,#198,#199,#200));
#59=EDGE_LOOP('',(#201,#202,#203,#204,#205));
#60=EDGE_LOOP('',(#206));
#61=EDGE_LOOP('',(#207,#208,#209,#210,#211,#212));
#62=EDGE_LOOP('',(#213,#214,#215,#216,#217,#218));
#63=EDGE_LOOP('',(#219,#220,#221,#222,#223,#224));
#64=EDGE_LOOP('',(#225,#226,#227,#228,#229,#230));
#65=EDGE_LOOP('',(#231,#232,#233,#234,#235,#236));
#66=CIRCLE('',#277,15.7);
#67=CIRCLE('',#278,15.7);
#68=CIRCLE('',#279,3.74168307971602);
#69=CIRCLE('',#280,15.0742677145684);
#70=CIRCLE('',#281,15.0742677145684);
#71=CIRCLE('',#283,14.4679491924311);
#72=CIRCLE('',#284,14.4679491924311);
#73=CIRCLE('',#285,14.454325169374);
#74=CIRCLE('',#286,14.454325169374);
#75=CIRCLE('',#288,14.4179155712193);
#76=CIRCLE('',#289,14.4179155712193);
#77=CIRCLE('',#290,3.);
#78=CIRCLE('',#292,14.4067949192431);
#79=CIRCLE('',#293,14.4067949192431);
#80=CIRCLE('',#295,14.2);
#81=CIRCLE('',#296,14.2);
#82=CIRCLE('',#297,0.8);
#83=CIRCLE('',#298,13.4);
#84=CIRCLE('',#299,13.4);
#85=CIRCLE('',#300,14.2);
#86=CIRCLE('',#303,14.2);
#87=CIRCLE('',#304,14.2);
#88=CIRCLE('',#306,14.7);
#89=CIRCLE('',#307,15.7);
#90=CIRCLE('',#308,15.7);
#91=CIRCLE('',#312,2.);
#92=CIRCLE('',#314,14.4);
#93=CIRCLE('',#315,14.4);
#94=CIRCLE('',#317,14.4);
#95=CIRCLE('',#318,14.4);
#96=CIRCLE('',#320,0.6);
#97=VERTEX_POINT('',#422);
#98=VERTEX_POINT('',#423);
#99=VERTEX_POINT('',#426);
#100=VERTEX_POINT('',#428);
#101=VERTEX_POINT('',#432);
#102=VERTEX_POINT('',#433);
#103=VERTEX_POINT('',#436);
#104=VERTEX_POINT('',#438);
#105=VERTEX_POINT('',#442);
#106=VERTEX_POINT('',#443);
#107=VERTEX_POINT('',#448);
#108=VERTEX_POINT('',#450);
#109=VERTEX_POINT('',#454);
#110=VERTEX_POINT('',#455);
#111=VERTEX_POINT('',#457);
#112=VERTEX_POINT('',#459);
#113=VERTEX_POINT('',#461);
#114=VERTEX_POINT('',#467);
#115=VERTEX_POINT('',#469);
#116=VERTEX_POINT('',#473);
#117=VERTEX_POINT('',#475);
#118=VERTEX_POINT('',#477);
#119=VERTEX_POINT('',#486);
#120=VERTEX_POINT('',#488);
#121=VERTEX_POINT('',#492);
#122=VERTEX_POINT('',#494);
#123=EDGE_CURVE('',#97,#98,#66,.T.);
#124=EDGE_CURVE('',#98,#97,#67,.T.);
#125=EDGE_CURVE('',#98,#99,#68,.T.);
#126=EDGE_CURVE('',#99,#100,#69,.T.);
#127=EDGE_CURVE('',#100,#99,#70,.T.);
#128=EDGE_CURVE('',#101,#102,#71,.T.);
#129=EDGE_CURVE('',#102,#101,#72,.T.);
#130=EDGE_CURVE('',#102,#103,#20,.T.);
#131=EDGE_CURVE('',#104,#103,#73,.T.);
#132=EDGE_CURVE('',#103,#104,#74,.T.);
#133=EDGE_CURVE('',#105,#106,#75,.T.);
#134=EDGE_CURVE('',#106,#105,#76,.T.);
#135=EDGE_CURVE('',#106,#103,#77,.T.);
#136=EDGE_CURVE('',#106,#107,#21,.T.);
#137=EDGE_CURVE('',#108,#107,#78,.T.);
#138=EDGE_CURVE('',#107,#108,#79,.T.);
#139=EDGE_CURVE('',#109,#110,#80,.T.);
#140=EDGE_CURVE('',#110,#111,#81,.T.);
#141=EDGE_CURVE('',#111,#112,#82,.T.);
#142=EDGE_CURVE('',#112,#113,#83,.T.);
#143=EDGE_CURVE('',#113,#112,#84,.T.);
#144=EDGE_CURVE('',#111,#109,#85,.T.);
#145=EDGE_CURVE('',#110,#114,#22,.T.);
#146=EDGE_CURVE('',#115,#114,#86,.T.);
#147=EDGE_CURVE('',#114,#115,#87,.T.);
#148=EDGE_CURVE('',#116,#116,#88,.T.);
#149=EDGE_CURVE('',#116,#117,#23,.T.);
#150=EDGE_CURVE('',#117,#118,#89,.T.);
#151=EDGE_CURVE('',#118,#117,#90,.T.);
#152=EDGE_CURVE('',#118,#98,#24,.T.);
#153=EDGE_CURVE('',#102,#114,#91,.T.);
#154=EDGE_CURVE('',#107,#119,#25,.T.);
#155=EDGE_CURVE('',#120,#119,#92,.T.);
#156=EDGE_CURVE('',#119,#120,#93,.T.);
#157=EDGE_CURVE('',#119,#121,#26,.T.);
#158=EDGE_CURVE('',#122,#121,#94,.T.);
#159=EDGE_CURVE('',#121,#122,#95,.T.);
#160=EDGE_CURVE('',#99,#121,#96,.T.);
#161=ORIENTED_EDGE('',*,*,#123,.F.);
#162=ORIENTED_EDGE('',*,*,#124,.F.);
#163=ORIENTED_EDGE('',*,*,#125,.T.);
#164=ORIENTED_EDGE('',*,*,#126,.T.);
#165=ORIENTED_EDGE('',*,*,#127,.T.);
#166=ORIENTED_EDGE('',*,*,#125,.F.);
#167=ORIENTED_EDGE('',*,*,#128,.F.);
#168=ORIENTED_EDGE('',*,*,#129,.F.);
#169=ORIENTED_EDGE('',*,*,#130,.T.);
#170=ORIENTED_EDGE('',*,*,#131,.F.);
#171=ORIENTED_EDGE('',*,*,#132,.F.);
#172=ORIENTED_EDGE('',*,*,#130,.F.);
#173=ORIENTED_EDGE('',*,*,#133,.F.);
#174=ORIENTED_EDGE('',*,*,#134,.F.);
#175=ORIENTED_EDGE('',*,*,#135,.T.);
#176=ORIENTED_EDGE('',*,*,#132,.T.);
#177=ORIENTED_EDGE('',*,*,#131,.T.);
#178=ORIENTED_EDGE('',*,*,#135,.F.);
#179=ORIENTED_EDGE('',*,*,#133,.T.);
#180=ORIENTED_EDGE('',*,*,#136,.T.);
#181=ORIENTED_EDGE('',*,*,#137,.F.);
#182=ORIENTED_EDGE('',*,*,#138,.F.);
#183=ORIENTED_EDGE('',*,*,#136,.F.);
#184=ORIENTED_EDGE('',*,*,#134,.T.);
#185=ORIENTED_EDGE('',*,*,#139,.T.);
#186=ORIENTED_EDGE('',*,*,#140,.T.);
#187=ORIENTED_EDGE('',*,*,#141,.T.);
#188=ORIENTED_EDGE('',*,*,#142,.T.);
#189=ORIENTED_EDGE('',*,*,#143,.T.);
#190=ORIENTED_EDGE('',*,*,#141,.F.);
#191=ORIENTED_EDGE('',*,*,#144,.T.);
#192=ORIENTED_EDGE('',*,*,#143,.F.);
#193=ORIENTED_EDGE('',*,*,#142,.F.);
#194=ORIENTED_EDGE('',*,*,#139,.F.);
#195=ORIENTED_EDGE('',*,*,#144,.F.);
#196=ORIENTED_EDGE('',*,*,#140,.F.);
#197=ORIENTED_EDGE('',*,*,#145,.T.);
#198=ORIENTED_EDGE('',*,*,#146,.F.);
#199=ORIENTED_EDGE('',*,*,#147,.F.);
#200=ORIENTED_EDGE('',*,*,#145,.F.);
#201=ORIENTED_EDGE('',*,*,#148,.T.);
#202=ORIENTED_EDGE('',*,*,#149,.T.);
#203=ORIENTED_EDGE('',*,*,#150,.T.);
#204=ORIENTED_EDGE('',*,*,#151,.T.);
#205=ORIENTED_EDGE('',*,*,#149,.F.);
#206=ORIENTED_EDGE('',*,*,#148,.F.);
#207=ORIENTED_EDGE('',*,*,#150,.F.);
#208=ORIENTED_EDGE('',*,*,#151,.F.);
#209=ORIENTED_EDGE('',*,*,#152,.T.);
#210=ORIENTED_EDGE('',*,*,#124,.T.);
#211=ORIENTED_EDGE('',*,*,#123,.T.);
#212=ORIENTED_EDGE('',*,*,#152,.F.);
#213=ORIENTED_EDGE('',*,*,#128,.T.);
#214=ORIENTED_EDGE('',*,*,#153,.T.);
#215=ORIENTED_EDGE('',*,*,#147,.T.);
#216=ORIENTED_EDGE('',*,*,#146,.T.);
#217=ORIENTED_EDGE('',*,*,#153,.F.);
#218=ORIENTED_EDGE('',*,*,#129,.T.);
#219=ORIENTED_EDGE('',*,*,#137,.T.);
#220=ORIENTED_EDGE('',*,*,#154,.T.);
#221=ORIENTED_EDGE('',*,*,#155,.F.);
#222=ORIENTED_EDGE('',*,*,#156,.F.);
#223=ORIENTED_EDGE('',*,*,#154,.F.);
#224=ORIENTED_EDGE('',*,*,#138,.T.);
#225=ORIENTED_EDGE('',*,*,#155,.T.);
#226=ORIENTED_EDGE('',*,*,#157,.T.);
#227=ORIENTED_EDGE('',*,*,#158,.F.);
#228=ORIENTED_EDGE('',*,*,#159,.F.);
#229=ORIENTED_EDGE('',*,*,#157,.F.);
#230=ORIENTED_EDGE('',*,*,#156,.T.);
#231=ORIENTED_EDGE('',*,*,#127,.F.);
#232=ORIENTED_EDGE('',*,*,#126,.F.);
#233=ORIENTED_EDGE('',*,*,#160,.T.);
#234=ORIENTED_EDGE('',*,*,#159,.T.);
#235=ORIENTED_EDGE('',*,*,#158,.T.);
#236=ORIENTED_EDGE('',*,*,#160,.F.);
#237=TOROIDAL_SURFACE('',#276,14.611123962952,3.74168307971602);
#238=TOROIDAL_SURFACE('',#287,17.,3.);
#239=TOROIDAL_SURFACE('',#294,13.4,0.8);
#240=TOROIDAL_SURFACE('',#311,16.2,2.);
#241=TOROIDAL_SURFACE('',#319,15.,0.6);
#242=ADVANCED_FACE('',(#38),#237,.T.);
#243=ADVANCED_FACE('',(#39),#34,.F.);
#244=ADVANCED_FACE('',(#40),#238,.T.);
#245=ADVANCED_FACE('',(#41),#35,.F.);
#246=ADVANCED_FACE('',(#42),#239,.F.);
#247=ADVANCED_FACE('',(#43),#18,.T.);
#248=ADVANCED_FACE('',(#44),#15,.F.);
#249=ADVANCED_FACE('',(#45),#36,.T.);
#250=ADVANCED_FACE('',(#46),#19,.T.);
#251=ADVANCED_FACE('',(#47),#16,.T.);
#252=ADVANCED_FACE('',(#48),#240,.T.);
#253=ADVANCED_FACE('',(#49),#37,.F.);
#254=ADVANCED_FACE('',(#50),#17,.F.);
#255=ADVANCED_FACE('',(#51),#241,.T.);
#256=CLOSED_SHELL('',(#242,#243,#244,#245,#246,#247,#248,#249,#250,#251,
#252,#253,#254,#255));
#257=DERIVED_UNIT_ELEMENT(#259,1.);
#258=DERIVED_UNIT_ELEMENT(#504,3.);
#259=(
MASS_UNIT()
NAMED_UNIT(*)
SI_UNIT($,.GRAM.)
);
#260=DERIVED_UNIT((#257,#258));
#261=MEASURE_REPRESENTATION_ITEM('density measure',
POSITIVE_RATIO_MEASURE(0.001),#260);
#262=PROPERTY_DEFINITION_REPRESENTATION(#267,#264);
#263=PROPERTY_DEFINITION_REPRESENTATION(#268,#265);
#264=REPRESENTATION('material name',(#266),#501);
#265=REPRESENTATION('density',(#261),#501);
#266=DESCRIPTIVE_REPRESENTATION_ITEM('_','_');
#267=PROPERTY_DEFINITION('material property','material name',#511);
#268=PROPERTY_DEFINITION('material property','density of part',#511);
#269=DATE_TIME_ROLE('creation_date');
#270=APPLIED_DATE_AND_TIME_ASSIGNMENT(#271,#269,(#511));
#271=DATE_AND_TIME(#272,#273);
#272=CALENDAR_DATE(2021,18,5);
#273=LOCAL_TIME(14,3,4.,#274);
#274=COORDINATED_UNIVERSAL_TIME_OFFSET(0,0,.BEHIND.);
#275=AXIS2_PLACEMENT_3D('placement',#420,#321,#322);
#276=AXIS2_PLACEMENT_3D('',#421,#323,#324);
#277=AXIS2_PLACEMENT_3D('',#424,#325,#326);
#278=AXIS2_PLACEMENT_3D('',#425,#327,#328);
#279=AXIS2_PLACEMENT_3D('',#427,#329,#330);
#280=AXIS2_PLACEMENT_3D('',#429,#331,#332);
#281=AXIS2_PLACEMENT_3D('',#430,#333,#334);
#282=AXIS2_PLACEMENT_3D('',#431,#335,#336);
#283=AXIS2_PLACEMENT_3D('',#434,#337,#338);
#284=AXIS2_PLACEMENT_3D('',#435,#339,#340);
#285=AXIS2_PLACEMENT_3D('',#439,#342,#343);
#286=AXIS2_PLACEMENT_3D('',#440,#344,#345);
#287=AXIS2_PLACEMENT_3D('',#441,#346,#347);
#288=AXIS2_PLACEMENT_3D('',#444,#348,#349);
#289=AXIS2_PLACEMENT_3D('',#445,#350,#351);
#290=AXIS2_PLACEMENT_3D('',#446,#352,#353);
#291=AXIS2_PLACEMENT_3D('',#447,#354,#355);
#292=AXIS2_PLACEMENT_3D('',#451,#357,#358);
#293=AXIS2_PLACEMENT_3D('',#452,#359,#360);
#294=AXIS2_PLACEMENT_3D('',#453,#361,#362);
#295=AXIS2_PLACEMENT_3D('',#456,#363,#364);
#296=AXIS2_PLACEMENT_3D('',#458,#365,#366);
#297=AXIS2_PLACEMENT_3D('',#460,#367,#368);
#298=AXIS2_PLACEMENT_3D('',#462,#369,#370);
#299=AXIS2_PLACEMENT_3D('',#463,#371,#372);
#300=AXIS2_PLACEMENT_3D('',#464,#373,#374);
#301=AXIS2_PLACEMENT_3D('',#465,#375,#376);
#302=AXIS2_PLACEMENT_3D('',#466,#377,#378);
#303=AXIS2_PLACEMENT_3D('',#470,#380,#381);
#304=AXIS2_PLACEMENT_3D('',#471,#382,#383);
#305=AXIS2_PLACEMENT_3D('',#472,#384,#385);
#306=AXIS2_PLACEMENT_3D('',#474,#386,#387);
#307=AXIS2_PLACEMENT_3D('',#478,#389,#390);
#308=AXIS2_PLACEMENT_3D('',#479,#391,#392);
#309=AXIS2_PLACEMENT_3D('',#480,#393,#394);
#310=AXIS2_PLACEMENT_3D('',#481,#395,#396);
#311=AXIS2_PLACEMENT_3D('',#483,#398,#399);
#312=AXIS2_PLACEMENT_3D('',#484,#400,#401);
#313=AXIS2_PLACEMENT_3D('',#485,#402,#403);
#314=AXIS2_PLACEMENT_3D('',#489,#405,#406);
#315=AXIS2_PLACEMENT_3D('',#490,#407,#408);
#316=AXIS2_PLACEMENT_3D('',#491,#409,#410);
#317=AXIS2_PLACEMENT_3D('',#495,#412,#413);
#318=AXIS2_PLACEMENT_3D('',#496,#414,#415);
#319=AXIS2_PLACEMENT_3D('',#497,#416,#417);
#320=AXIS2_PLACEMENT_3D('',#498,#418,#419);
#321=DIRECTION('axis',(0.,0.,1.));
#322=DIRECTION('refdir',(1.,0.,0.));
#323=DIRECTION('center_axis',(0.,1.,0.));
#324=DIRECTION('ref_axis',(0.,0.,1.));
#325=DIRECTION('center_axis',(0.,1.,0.));
#326=DIRECTION('ref_axis',(0.,0.,1.));
#327=DIRECTION('center_axis',(0.,1.,0.));
#328=DIRECTION('ref_axis',(0.,0.,1.));
#329=DIRECTION('center_axis',(-1.,0.,1.22464679914735E-16));
#330=DIRECTION('ref_axis',(-1.22464679914735E-16,0.,-1.));
#331=DIRECTION('center_axis',(0.,1.,0.));
#332=DIRECTION('ref_axis',(0.,-1.10763015308135E-17,1.));
#333=DIRECTION('center_axis',(0.,1.,0.));
#334=DIRECTION('ref_axis',(0.,-1.10763015308135E-17,1.));
#335=DIRECTION('center_axis',(0.,1.,0.));
#336=DIRECTION('ref_axis',(0.,0.,1.));
#337=DIRECTION('center_axis',(0.,-1.,0.));
#338=DIRECTION('ref_axis',(0.,0.,1.));
#339=DIRECTION('center_axis',(0.,-1.,0.));
#340=DIRECTION('ref_axis',(0.,0.,1.));
#341=DIRECTION('',(1.43147936634773E-18,-0.999931682286777,0.0116889160804926));
#342=DIRECTION('center_axis',(0.,1.,0.));
#343=DIRECTION('ref_axis',(1.,0.,0.));
#344=DIRECTION('center_axis',(0.,1.,0.));
#345=DIRECTION('ref_axis',(1.,0.,0.));
#346=DIRECTION('center_axis',(0.,1.,0.));
#347=DIRECTION('ref_axis',(0.,0.,1.));
#348=DIRECTION('center_axis',(0.,1.,0.));
#349=DIRECTION('ref_axis',(1.,0.,0.));
#350=DIRECTION('center_axis',(0.,1.,0.));
#351=DIRECTION('ref_axis',(1.,0.,0.));
#352=DIRECTION('center_axis',(-1.,0.,1.22464679914735E-16));
#353=DIRECTION('ref_axis',(-1.22464679914735E-16,0.,-1.));
#354=DIRECTION('center_axis',(0.,1.,0.));
#355=DIRECTION('ref_axis',(0.,0.,1.));
#356=DIRECTION('',(1.4314793663478E-18,-0.999931682286777,0.0116889160804932));
#357=DIRECTION('center_axis',(0.,1.,0.));
#358=DIRECTION('ref_axis',(0.,0.,1.));
#359=DIRECTION('center_axis',(0.,1.,0.));
#360=DIRECTION('ref_axis',(0.,0.,1.));
#361=DIRECTION('center_axis',(0.,-1.,0.));
#362=DIRECTION('ref_axis',(0.,0.,-1.));
#363=DIRECTION('center_axis',(0.,-1.,0.));
#364=DIRECTION('ref_axis',(1.,0.,0.));
#365=DIRECTION('center_axis',(0.,-1.,0.));
#366=DIRECTION('ref_axis',(1.,0.,0.));
#367=DIRECTION('center_axis',(-1.,0.,-1.22464679914735E-16));
#368=DIRECTION('ref_axis',(-1.22464679914735E-16,0.,1.));
#369=DIRECTION('center_axis',(0.,1.,0.));
#370=DIRECTION('ref_axis',(1.,0.,0.));
#371=DIRECTION('center_axis',(0.,1.,0.));
#372=DIRECTION('ref_axis',(1.,0.,0.));
#373=DIRECTION('center_axis',(0.,-1.,0.));
#374=DIRECTION('ref_axis',(1.,0.,0.));
#375=DIRECTION('center_axis',(0.,-1.,0.));
#376=DIRECTION('ref_axis',(0.,0.,-1.));
#377=DIRECTION('center_axis',(0.,1.,0.));
#378=DIRECTION('ref_axis',(0.,0.,1.));
#379=DIRECTION('',(0.,-1.,0.));
#380=DIRECTION('center_axis',(0.,1.,0.));
#381=DIRECTION('ref_axis',(0.,0.,1.));
#382=DIRECTION('center_axis',(0.,1.,0.));
#383=DIRECTION('ref_axis',(0.,0.,1.));
#384=DIRECTION('center_axis',(0.,-1.,0.));
#385=DIRECTION('ref_axis',(0.,0.,-1.));
#386=DIRECTION('center_axis',(0.,-1.,0.));
#387=DIRECTION('ref_axis',(0.,0.,-1.));
#388=DIRECTION('',(8.65956056235493E-17,-0.707106781186548,0.707106781186548));
#389=DIRECTION('center_axis',(0.,1.,0.));
#390=DIRECTION('ref_axis',(0.,0.,-1.));
#391=DIRECTION('center_axis',(0.,1.,0.));
#392=DIRECTION('ref_axis',(0.,0.,-1.));
#393=DIRECTION('center_axis',(0.,1.,0.));
#394=DIRECTION('ref_axis',(0.,0.,1.));
#395=DIRECTION('center_axis',(0.,1.,0.));
#396=DIRECTION('ref_axis',(0.,0.,1.));
#397=DIRECTION('',(0.,-1.,0.));
#398=DIRECTION('center_axis',(0.,1.,0.));
#399=DIRECTION('ref_axis',(0.,0.,1.));
#400=DIRECTION('center_axis',(-1.,0.,1.22464679914735E-16));
#401=DIRECTION('ref_axis',(-1.22464679914735E-16,0.,-1.));
#402=DIRECTION('center_axis',(0.,1.,0.));
#403=DIRECTION('ref_axis',(0.,0.,1.));
#404=DIRECTION('',(1.06057523872491E-16,-0.5,0.866025403784439));
#405=DIRECTION('center_axis',(0.,1.,0.));
#406=DIRECTION('ref_axis',(0.,0.,1.));
#407=DIRECTION('center_axis',(0.,1.,0.));
#408=DIRECTION('ref_axis',(0.,0.,1.));
#409=DIRECTION('center_axis',(0.,1.,0.));
#410=DIRECTION('ref_axis',(0.,0.,1.));
#411=DIRECTION('',(0.,-1.,0.));
#412=DIRECTION('center_axis',(0.,1.,0.));
#413=DIRECTION('ref_axis',(0.,0.,1.));
#414=DIRECTION('center_axis',(0.,1.,0.));
#415=DIRECTION('ref_axis',(0.,0.,1.));
#416=DIRECTION('center_axis',(0.,1.,0.));
#417=DIRECTION('ref_axis',(0.,0.,1.));
#418=DIRECTION('center_axis',(-1.,0.,1.22464679914735E-16));
#419=DIRECTION('ref_axis',(-1.22464679914735E-16,0.,-1.));
#420=CARTESIAN_POINT('',(0.,0.,0.));
#421=CARTESIAN_POINT('Origin',(0.,3.71752273466989,0.));
#422=CARTESIAN_POINT('',(0.,7.29726312259966,15.7));
#423=CARTESIAN_POINT('',(-1.92269547466134E-15,7.29726312259966,-15.7));
#424=CARTESIAN_POINT('Origin',(0.,7.29726312259966,0.));
#425=CARTESIAN_POINT('Origin',(0.,7.29726312259966,0.));
#426=CARTESIAN_POINT('',(-1.84606537061365E-15,0.00461415319743641,-15.0742677145684));
#427=CARTESIAN_POINT('Origin',(-1.78934661931743E-15,3.71752273466989,-14.611123962952));
#428=CARTESIAN_POINT('',(0.,0.00461415319743252,15.0742677145684));
#429=CARTESIAN_POINT('Origin',(0.,0.00461415319743641,0.));
#430=CARTESIAN_POINT('Origin',(0.,0.00461415319743641,0.));
#431=CARTESIAN_POINT('Origin',(0.,5.82999769432688,0.));
#432=CARTESIAN_POINT('',(0.,6.41273317643758,14.4679491924311));
#433=CARTESIAN_POINT('',(-1.77181276687373E-15,6.41273317643758,-14.4679491924311));
#434=CARTESIAN_POINT('Origin',(0.,6.41273317643758,0.));
#435=CARTESIAN_POINT('Origin',(0.,6.41273317643758,0.));
#436=CARTESIAN_POINT('',(-1.77014430525089E-15,5.24726221221618,-14.454325169374));
#437=CARTESIAN_POINT('',(-1.77097853606231E-15,5.82999769432688,-14.4611371809026));
#438=CARTESIAN_POINT('',(0.,5.24726221221618,14.454325169374));
#439=CARTESIAN_POINT('Origin',(0.,5.24726221221618,0.));
#440=CARTESIAN_POINT('Origin',(0.,5.24726221221618,0.));
#441=CARTESIAN_POINT('Origin',(0.,3.65995642670502,0.));
#442=CARTESIAN_POINT('',(0.,2.13259268396132,14.4179155712193));
#443=CARTESIAN_POINT('',(-1.76568541546704E-15,2.13259268396132,-14.4179155712193));
#444=CARTESIAN_POINT('Origin',(0.,2.13259268396132,0.));
#445=CARTESIAN_POINT('Origin',(0.,2.13259268396132,0.));
#446=CARTESIAN_POINT('Origin',(-2.0818995585505E-15,3.65995642670502,-17.));
#447=CARTESIAN_POINT('Origin',(0.,1.65693300080254,0.));
#448=CARTESIAN_POINT('',(-1.76432352838234E-15,1.18127331764376,-14.4067949192431));
#449=CARTESIAN_POINT('',(-1.76500447192469E-15,1.65693300080254,-14.4123552452312));
#450=CARTESIAN_POINT('',(0.,1.18127331764376,14.4067949192431));
#451=CARTESIAN_POINT('Origin',(0.,1.18127331764376,0.));
#452=CARTESIAN_POINT('Origin',(0.,1.18127331764376,0.));
#453=CARTESIAN_POINT('Origin',(0.,23.2,0.));
#454=CARTESIAN_POINT('',(-14.2,23.2,-1.73899845478924E-15));
#455=CARTESIAN_POINT('',(-1.73899845478924E-15,23.2,-14.2));
#456=CARTESIAN_POINT('Origin',(0.,23.2,0.));
#457=CARTESIAN_POINT('',(-1.73899845478924E-15,23.2,14.2));
#458=CARTESIAN_POINT('Origin',(0.,23.2,0.));
#459=CARTESIAN_POINT('',(-1.64102671085745E-15,24.,13.4));
#460=CARTESIAN_POINT('Origin',(-1.64102671085745E-15,23.2,13.4));
#461=CARTESIAN_POINT('',(-13.4,24.,1.64102671085745E-15));
#462=CARTESIAN_POINT('Origin',(0.,24.,0.));
#463=CARTESIAN_POINT('Origin',(0.,24.,0.));
#464=CARTESIAN_POINT('Origin',(0.,23.2,0.));
#465=CARTESIAN_POINT('Origin',(0.,24.,15.7));
#466=CARTESIAN_POINT('Origin',(0.,15.2063665882188,0.));
#467=CARTESIAN_POINT('',(-1.73899845478924E-15,7.41273317643758,-14.2));
#468=CARTESIAN_POINT('',(-1.73899845478924E-15,15.2063665882188,-14.2));
#469=CARTESIAN_POINT('',(0.,7.41273317643758,14.2));
#470=CARTESIAN_POINT('Origin',(0.,7.41273317643758,0.));
#471=CARTESIAN_POINT('Origin',(0.,7.41273317643758,0.));
#472=CARTESIAN_POINT('Origin',(0.,28.5,0.));
#473=CARTESIAN_POINT('',(-1.80023079474661E-15,29.,14.7));
#474=CARTESIAN_POINT('Origin',(0.,29.,0.));
#475=CARTESIAN_POINT('',(1.92269547466134E-15,28.,15.7));
#476=CARTESIAN_POINT('',(1.86146313470398E-15,28.5,15.2));
#477=CARTESIAN_POINT('',(-1.92269547466134E-15,28.,-15.7));
#478=CARTESIAN_POINT('Origin',(0.,28.,0.));
#479=CARTESIAN_POINT('Origin',(0.,28.,0.));
#480=CARTESIAN_POINT('Origin',(0.,29.,0.));
#481=CARTESIAN_POINT('Origin',(0.,15.1486315612998,0.));
#482=CARTESIAN_POINT('',(-1.92269547466134E-15,15.1486315612998,-15.7));
#483=CARTESIAN_POINT('Origin',(0.,7.41273317643758,0.));
#484=CARTESIAN_POINT('Origin',(-1.98392781461871E-15,7.41273317643758,-16.2));
#485=CARTESIAN_POINT('Origin',(0.,1.66088111963594,0.));
#486=CARTESIAN_POINT('',(-1.76349139077219E-15,1.17735026918963,-14.4));
#487=CARTESIAN_POINT('',(-1.86605556020078E-15,1.66088111963594,-15.2375));
#488=CARTESIAN_POINT('',(0.,1.17735026918963,14.4));
#489=CARTESIAN_POINT('Origin',(0.,1.17735026918963,0.));
#490=CARTESIAN_POINT('Origin',(0.,1.17735026918963,0.));
#491=CARTESIAN_POINT('Origin',(0.,0.888675134594815,0.));
#492=CARTESIAN_POINT('',(-1.76349139077219E-15,0.6,-14.4));
#493=CARTESIAN_POINT('',(-1.76349139077219E-15,0.888675134594815,-14.4));
#494=CARTESIAN_POINT('',(0.,0.6,14.4));
#495=CARTESIAN_POINT('Origin',(0.,0.6,0.));
#496=CARTESIAN_POINT('Origin',(0.,0.6,0.));
#497=CARTESIAN_POINT('Origin',(0.,0.6,0.));
#498=CARTESIAN_POINT('Origin',(-1.83697019872103E-15,0.6,-15.));
#499=UNCERTAINTY_MEASURE_WITH_UNIT(LENGTH_MEASURE(0.01),#503,
'DISTANCE_ACCURACY_VALUE',
'Maximum model space distance between geometric entities at asserted c
onnectivities');
#500=UNCERTAINTY_MEASURE_WITH_UNIT(LENGTH_MEASURE(0.01),#503,
'DISTANCE_ACCURACY_VALUE',
'Maximum model space distance between geometric entities at asserted c
onnectivities');
#501=(
GEOMETRIC_REPRESENTATION_CONTEXT(3)
GLOBAL_UNCERTAINTY_ASSIGNED_CONTEXT((#499))
GLOBAL_UNIT_ASSIGNED_CONTEXT((#503,#505,#506))
REPRESENTATION_CONTEXT('','3D')
);
#502=(
GEOMETRIC_REPRESENTATION_CONTEXT(3)
GLOBAL_UNCERTAINTY_ASSIGNED_CONTEXT((#500))
GLOBAL_UNIT_ASSIGNED_CONTEXT((#503,#505,#506))
REPRESENTATION_CONTEXT('','3D')
);
#503=(
LENGTH_UNIT()
NAMED_UNIT(*)
SI_UNIT(.MILLI.,.METRE.)
);
#504=(
LENGTH_UNIT()
NAMED_UNIT(*)
SI_UNIT(.CENTI.,.METRE.)
);
#505=(
NAMED_UNIT(*)
PLANE_ANGLE_UNIT()
SI_UNIT($,.RADIAN.)
);
#506=(
NAMED_UNIT(*)
SI_UNIT($,.STERADIAN.)
SOLID_ANGLE_UNIT()
);
#507=SHAPE_DEFINITION_REPRESENTATION(#508,#509);
#508=PRODUCT_DEFINITION_SHAPE('',$,#511);
#509=SHAPE_REPRESENTATION('',(#275),#501);
#510=PRODUCT_DEFINITION_CONTEXT('part definition',#515,'design');
#511=PRODUCT_DEFINITION('183028003_Inoxpres','183028003_Inoxpres',#512,
#510);
#512=PRODUCT_DEFINITION_FORMATION('0',$,#517);
#513=PRODUCT_RELATED_PRODUCT_CATEGORY('183028003_Inoxpres',
'183028003_Inoxpres',(#517));
#514=APPLICATION_PROTOCOL_DEFINITION('international standard',
'automotive_design',2009,#515);
#515=APPLICATION_CONTEXT(
'Core Data for Automotive Mechanical Design Process');
#516=PRODUCT_CONTEXT('part definition',#515,'mechanical');
#517=PRODUCT('183028003_Inoxpres','183028003_Inoxpres',$,(#516));
#518=PRESENTATION_STYLE_ASSIGNMENT((#519));
#519=SURFACE_STYLE_USAGE(.BOTH.,#522);
#520=SURFACE_STYLE_RENDERING_WITH_PROPERTIES($,#526,(#521));
#521=SURFACE_STYLE_TRANSPARENT(0.);
#522=SURFACE_SIDE_STYLE('',(#523,#520));
#523=SURFACE_STYLE_FILL_AREA(#524);
#524=FILL_AREA_STYLE('',(#525));
#525=FILL_AREA_STYLE_COLOUR('',#526);
#526=COLOUR_RGB('',0.83921568627451,0.886274509803922,0.854901960784314);
ENDSEC;
END-ISO-10303-21;
