ISO-10303-21;
HEADER;
/* Generated by software containing ST-Developer
 * from STEP Tools, Inc. (www.steptools.com) 
 */

FILE_DESCRIPTION(
/* description */ ('TUBO RICURVO 90\X\B0 \X\D842 (De 40)'),
/* implementation_level */ '2;1');

FILE_NAME(
/* name */ 
'R:\\Disegni3D_Area_Manager\\Inoxpres.step\\194_900INOXPRES\\194042900
_Inoxpres.stp',
/* time_stamp */ '2022-10-12T14:53:26+02:00',
/* author */ ('Vault'),
/* organization */ ('Raccorderie metalliche s.p.a. '),
/* preprocessor_version */ 'ST-DEVELOPER v18.1',
/* originating_system */ 'Autodesk Inventor 2020',
/* authorisation */ 'Raccorderie metalliche s.p.a. ');

FILE_SCHEMA (('AUTOMOTIVE_DESIGN { 1 0 10303 214 3 1 1 }'));
ENDSEC;

DATA;
#10=MECHANICAL_DESIGN_GEOMETRIC_PRESENTATION_REPRESENTATION('',(#13),#233);
#11=SHAPE_REPRESENTATION_RELATIONSHIP('SRR','None',#240,#12);
#12=ADVANCED_BREP_SHAPE_REPRESENTATION('',(#14),#232);
#13=STYLED_ITEM('',(#249),#14);
#14=MANIFOLD_SOLID_BREP('Solido1',#119);
#15=FACE_BOUND('',#36,.T.);
#16=FACE_BOUND('',#38,.T.);
#17=PLANE('',#155);
#18=PLANE('',#156);
#19=TOROIDAL_SURFACE('',#142,63.,19.5);
#20=TOROIDAL_SURFACE('',#150,63.,21.);
#21=FACE_OUTER_BOUND('',#29,.T.);
#22=FACE_OUTER_BOUND('',#30,.T.);
#23=FACE_OUTER_BOUND('',#31,.T.);
#24=FACE_OUTER_BOUND('',#32,.T.);
#25=FACE_OUTER_BOUND('',#33,.T.);
#26=FACE_OUTER_BOUND('',#34,.T.);
#27=FACE_OUTER_BOUND('',#35,.T.);
#28=FACE_OUTER_BOUND('',#37,.T.);
#29=EDGE_LOOP('',(#79,#80,#81,#82));
#30=EDGE_LOOP('',(#83,#84,#85,#86));
#31=EDGE_LOOP('',(#87,#88,#89,#90));
#32=EDGE_LOOP('',(#91,#92,#93,#94));
#33=EDGE_LOOP('',(#95,#96,#97,#98));
#34=EDGE_LOOP('',(#99,#100,#101,#102));
#35=EDGE_LOOP('',(#103));
#36=EDGE_LOOP('',(#104));
#37=EDGE_LOOP('',(#105));
#38=EDGE_LOOP('',(#106));
#39=LINE('',#204,#43);
#40=LINE('',#213,#44);
#41=LINE('',#218,#45);
#42=LINE('',#226,#46);
#43=VECTOR('',#163,19.5);
#44=VECTOR('',#176,19.5);
#45=VECTOR('',#181,21.);
#46=VECTOR('',#192,21.);
#47=CIRCLE('',#140,19.5);
#48=CIRCLE('',#141,19.5);
#49=CIRCLE('',#143,19.5);
#50=CIRCLE('',#144,43.5);
#51=CIRCLE('',#146,19.5);
#52=CIRCLE('',#148,21.);
#53=CIRCLE('',#149,21.);
#54=CIRCLE('',#151,42.);
#55=CIRCLE('',#152,21.);
#56=CIRCLE('',#154,21.);
#57=VERTEX_POINT('',#201);
#58=VERTEX_POINT('',#203);
#59=VERTEX_POINT('',#207);
#60=VERTEX_POINT('',#211);
#61=VERTEX_POINT('',#215);
#62=VERTEX_POINT('',#217);
#63=VERTEX_POINT('',#221);
#64=VERTEX_POINT('',#225);
#65=EDGE_CURVE('',#57,#57,#47,.T.);
#66=EDGE_CURVE('',#57,#58,#39,.T.);
#67=EDGE_CURVE('',#58,#58,#48,.T.);
#68=EDGE_CURVE('',#59,#59,#49,.T.);
#69=EDGE_CURVE('',#59,#57,#50,.T.);
#70=EDGE_CURVE('',#60,#60,#51,.T.);
#71=EDGE_CURVE('',#60,#59,#40,.T.);
#72=EDGE_CURVE('',#61,#61,#52,.T.);
#73=EDGE_CURVE('',#61,#62,#41,.T.);
#74=EDGE_CURVE('',#62,#62,#53,.T.);
#75=EDGE_CURVE('',#62,#63,#54,.T.);
#76=EDGE_CURVE('',#63,#63,#55,.T.);
#77=EDGE_CURVE('',#63,#64,#42,.T.);
#78=EDGE_CURVE('',#64,#64,#56,.T.);
#79=ORIENTED_EDGE('',*,*,#65,.T.);
#80=ORIENTED_EDGE('',*,*,#66,.T.);
#81=ORIENTED_EDGE('',*,*,#67,.F.);
#82=ORIENTED_EDGE('',*,*,#66,.F.);
#83=ORIENTED_EDGE('',*,*,#68,.T.);
#84=ORIENTED_EDGE('',*,*,#69,.T.);
#85=ORIENTED_EDGE('',*,*,#65,.F.);
#86=ORIENTED_EDGE('',*,*,#69,.F.);
#87=ORIENTED_EDGE('',*,*,#70,.F.);
#88=ORIENTED_EDGE('',*,*,#71,.T.);
#89=ORIENTED_EDGE('',*,*,#68,.F.);
#90=ORIENTED_EDGE('',*,*,#71,.F.);
#91=ORIENTED_EDGE('',*,*,#72,.T.);
#92=ORIENTED_EDGE('',*,*,#73,.T.);
#93=ORIENTED_EDGE('',*,*,#74,.F.);
#94=ORIENTED_EDGE('',*,*,#73,.F.);
#95=ORIENTED_EDGE('',*,*,#74,.T.);
#96=ORIENTED_EDGE('',*,*,#75,.T.);
#97=ORIENTED_EDGE('',*,*,#76,.F.);
#98=ORIENTED_EDGE('',*,*,#75,.F.);
#99=ORIENTED_EDGE('',*,*,#76,.T.);
#100=ORIENTED_EDGE('',*,*,#77,.T.);
#101=ORIENTED_EDGE('',*,*,#78,.T.);
#102=ORIENTED_EDGE('',*,*,#77,.F.);
#103=ORIENTED_EDGE('',*,*,#78,.F.);
#104=ORIENTED_EDGE('',*,*,#70,.T.);
#105=ORIENTED_EDGE('',*,*,#72,.F.);
#106=ORIENTED_EDGE('',*,*,#67,.T.);
#107=CYLINDRICAL_SURFACE('',#139,19.5);
#108=CYLINDRICAL_SURFACE('',#145,19.5);
#109=CYLINDRICAL_SURFACE('',#147,21.);
#110=CYLINDRICAL_SURFACE('',#153,21.);
#111=ADVANCED_FACE('',(#21),#107,.F.);
#112=ADVANCED_FACE('',(#22),#19,.F.);
#113=ADVANCED_FACE('',(#23),#108,.F.);
#114=ADVANCED_FACE('',(#24),#109,.T.);
#115=ADVANCED_FACE('',(#25),#20,.T.);
#116=ADVANCED_FACE('',(#26),#110,.T.);
#117=ADVANCED_FACE('',(#27,#15),#17,.F.);
#118=ADVANCED_FACE('',(#28,#16),#18,.T.);
#119=CLOSED_SHELL('',(#111,#112,#113,#114,#115,#116,#117,#118));
#120=DERIVED_UNIT_ELEMENT(#122,1.);
#121=DERIVED_UNIT_ELEMENT(#235,3.);
#122=(
MASS_UNIT()
NAMED_UNIT(*)
SI_UNIT($,.GRAM.)
);
#123=DERIVED_UNIT((#120,#121));
#124=MEASURE_REPRESENTATION_ITEM('density measure',
POSITIVE_RATIO_MEASURE(1.),#123);
#125=PROPERTY_DEFINITION_REPRESENTATION(#130,#127);
#126=PROPERTY_DEFINITION_REPRESENTATION(#131,#128);
#127=REPRESENTATION('material name',(#129),#232);
#128=REPRESENTATION('density',(#124),#232);
#129=DESCRIPTIVE_REPRESENTATION_ITEM('Generico','Generico');
#130=PROPERTY_DEFINITION('material property','material name',#242);
#131=PROPERTY_DEFINITION('material property','density of part',#242);
#132=DATE_TIME_ROLE('creation_date');
#133=APPLIED_DATE_AND_TIME_ASSIGNMENT(#134,#132,(#242));
#134=DATE_AND_TIME(#135,#136);
#135=CALENDAR_DATE(2016,2,2);
#136=LOCAL_TIME(10,32,58.,#137);
#137=COORDINATED_UNIVERSAL_TIME_OFFSET(0,0,.BEHIND.);
#138=AXIS2_PLACEMENT_3D('placement',#199,#157,#158);
#139=AXIS2_PLACEMENT_3D('',#200,#159,#160);
#140=AXIS2_PLACEMENT_3D('',#202,#161,#162);
#141=AXIS2_PLACEMENT_3D('',#205,#164,#165);
#142=AXIS2_PLACEMENT_3D('',#206,#166,#167);
#143=AXIS2_PLACEMENT_3D('',#208,#168,#169);
#144=AXIS2_PLACEMENT_3D('',#209,#170,#171);
#145=AXIS2_PLACEMENT_3D('',#210,#172,#173);
#146=AXIS2_PLACEMENT_3D('',#212,#174,#175);
#147=AXIS2_PLACEMENT_3D('',#214,#177,#178);
#148=AXIS2_PLACEMENT_3D('',#216,#179,#180);
#149=AXIS2_PLACEMENT_3D('',#219,#182,#183);
#150=AXIS2_PLACEMENT_3D('',#220,#184,#185);
#151=AXIS2_PLACEMENT_3D('',#222,#186,#187);
#152=AXIS2_PLACEMENT_3D('',#223,#188,#189);
#153=AXIS2_PLACEMENT_3D('',#224,#190,#191);
#154=AXIS2_PLACEMENT_3D('',#227,#193,#194);
#155=AXIS2_PLACEMENT_3D('',#228,#195,#196);
#156=AXIS2_PLACEMENT_3D('',#229,#197,#198);
#157=DIRECTION('axis',(0.,0.,1.));
#158=DIRECTION('refdir',(1.,0.,0.));
#159=DIRECTION('center_axis',(-9.49923443529546E-17,1.,0.));
#160=DIRECTION('ref_axis',(-1.,-9.49923443529545E-17,0.));
#161=DIRECTION('center_axis',(-1.40980701539702E-16,-1.,0.));
#162=DIRECTION('ref_axis',(-1.,1.40980701539702E-16,0.));
#163=DIRECTION('',(-9.49923443529546E-17,1.,0.));
#164=DIRECTION('center_axis',(9.49923443529546E-17,-1.,0.));
#165=DIRECTION('ref_axis',(-1.,-9.49923443529545E-17,0.));
#166=DIRECTION('center_axis',(0.,0.,-1.));
#167=DIRECTION('ref_axis',(-1.,0.,0.));
#168=DIRECTION('center_axis',(1.,0.,0.));
#169=DIRECTION('ref_axis',(0.,-1.,0.));
#170=DIRECTION('center_axis',(0.,0.,-1.));
#171=DIRECTION('ref_axis',(-1.,0.,0.));
#172=DIRECTION('center_axis',(-1.,-1.78656578675313E-16,0.));
#173=DIRECTION('ref_axis',(1.78656578675313E-16,-1.,0.));
#174=DIRECTION('center_axis',(-1.,0.,0.));
#175=DIRECTION('ref_axis',(1.78656578675313E-16,-1.,0.));
#176=DIRECTION('',(-1.,-1.78656578675313E-16,0.));
#177=DIRECTION('center_axis',(-9.49923443529546E-17,1.,0.));
#178=DIRECTION('ref_axis',(-1.,-9.49923443529546E-17,0.));
#179=DIRECTION('center_axis',(-1.40980701539702E-16,-1.,0.));
#180=DIRECTION('ref_axis',(-1.,1.40980701539702E-16,0.));
#181=DIRECTION('',(9.49923443529546E-17,-1.,0.));
#182=DIRECTION('center_axis',(-1.40980701539702E-16,-1.,0.));
#183=DIRECTION('ref_axis',(-1.,1.40980701539702E-16,0.));
#184=DIRECTION('center_axis',(0.,0.,-1.));
#185=DIRECTION('ref_axis',(-1.,0.,0.));
#186=DIRECTION('center_axis',(0.,0.,1.));
#187=DIRECTION('ref_axis',(-1.,0.,0.));
#188=DIRECTION('center_axis',(1.,0.,0.));
#189=DIRECTION('ref_axis',(0.,-1.,0.));
#190=DIRECTION('center_axis',(-1.,-1.78656578675313E-16,0.));
#191=DIRECTION('ref_axis',(1.78656578675313E-16,-1.,0.));
#192=DIRECTION('',(1.,1.78656578675313E-16,0.));
#193=DIRECTION('center_axis',(-1.,0.,0.));
#194=DIRECTION('ref_axis',(0.,-1.,0.));
#195=DIRECTION('center_axis',(-1.,0.,0.));
#196=DIRECTION('ref_axis',(0.,0.,1.));
#197=DIRECTION('center_axis',(-9.49923443529546E-17,1.,0.));
#198=DIRECTION('ref_axis',(0.,0.,1.));
#199=CARTESIAN_POINT('',(0.,0.,0.));
#200=CARTESIAN_POINT('Origin',(-150.,63.,0.));
#201=CARTESIAN_POINT('',(-130.5,63.,2.38806125833734E-15));
#202=CARTESIAN_POINT('Origin',(-150.,63.,0.));
#203=CARTESIAN_POINT('',(-130.5,250.,2.38806125833734E-15));
#204=CARTESIAN_POINT('',(-130.5,63.,-2.38806125833734E-15));
#205=CARTESIAN_POINT('Origin',(-150.,250.,0.));
#206=CARTESIAN_POINT('Origin',(-87.,63.,0.));
#207=CARTESIAN_POINT('',(-87.,19.5,2.38806125833734E-15));
#208=CARTESIAN_POINT('Origin',(-87.,-1.55431223447522E-14,0.));
#209=CARTESIAN_POINT('Origin',(-87.,63.,2.38806125833734E-15));
#210=CARTESIAN_POINT('Origin',(0.,0.,0.));
#211=CARTESIAN_POINT('',(0.,19.5,2.38806125833734E-15));
#212=CARTESIAN_POINT('Origin',(0.,0.,0.));
#213=CARTESIAN_POINT('',(-3.48380328416859E-15,19.5,-2.38806125833734E-15));
#214=CARTESIAN_POINT('Origin',(-150.,63.,0.));
#215=CARTESIAN_POINT('',(-129.,250.,2.57175827820944E-15));
#216=CARTESIAN_POINT('Origin',(-150.,250.,0.));
#217=CARTESIAN_POINT('',(-129.,63.,2.57175827820944E-15));
#218=CARTESIAN_POINT('',(-129.,63.,-2.57175827820944E-15));
#219=CARTESIAN_POINT('Origin',(-150.,63.,0.));
#220=CARTESIAN_POINT('Origin',(-87.,63.,0.));
#221=CARTESIAN_POINT('',(-87.,21.,2.57175827820944E-15));
#222=CARTESIAN_POINT('Origin',(-87.,63.,2.57175827820944E-15));
#223=CARTESIAN_POINT('Origin',(-87.,-1.55431223447522E-14,0.));
#224=CARTESIAN_POINT('Origin',(0.,0.,0.));
#225=CARTESIAN_POINT('',(0.,21.,2.57175827820944E-15));
#226=CARTESIAN_POINT('',(-3.75178815218156E-15,21.,-2.57175827820944E-15));
#227=CARTESIAN_POINT('Origin',(0.,0.,0.));
#228=CARTESIAN_POINT('Origin',(0.,0.,0.));
#229=CARTESIAN_POINT('Origin',(-150.,250.,0.));
#230=UNCERTAINTY_MEASURE_WITH_UNIT(LENGTH_MEASURE(0.01),#234,
'DISTANCE_ACCURACY_VALUE',
'Maximum model space distance between geometric entities at asserted c
onnectivities');
#231=UNCERTAINTY_MEASURE_WITH_UNIT(LENGTH_MEASURE(0.01),#234,
'DISTANCE_ACCURACY_VALUE',
'Maximum model space distance between geometric entities at asserted c
onnectivities');
#232=(
GEOMETRIC_REPRESENTATION_CONTEXT(3)
GLOBAL_UNCERTAINTY_ASSIGNED_CONTEXT((#230))
GLOBAL_UNIT_ASSIGNED_CONTEXT((#234,#236,#237))
REPRESENTATION_CONTEXT('','3D')
);
#233=(
GEOMETRIC_REPRESENTATION_CONTEXT(3)
GLOBAL_UNCERTAINTY_ASSIGNED_CONTEXT((#231))
GLOBAL_UNIT_ASSIGNED_CONTEXT((#234,#236,#237))
REPRESENTATION_CONTEXT('','3D')
);
#234=(
LENGTH_UNIT()
NAMED_UNIT(*)
SI_UNIT(.MILLI.,.METRE.)
);
#235=(
LENGTH_UNIT()
NAMED_UNIT(*)
SI_UNIT(.CENTI.,.METRE.)
);
#236=(
NAMED_UNIT(*)
PLANE_ANGLE_UNIT()
SI_UNIT($,.RADIAN.)
);
#237=(
NAMED_UNIT(*)
SI_UNIT($,.STERADIAN.)
SOLID_ANGLE_UNIT()
);
#238=SHAPE_DEFINITION_REPRESENTATION(#239,#240);
#239=PRODUCT_DEFINITION_SHAPE('',$,#242);
#240=SHAPE_REPRESENTATION('',(#138),#232);
#241=PRODUCT_DEFINITION_CONTEXT('part definition',#246,'design');
#242=PRODUCT_DEFINITION('194042900_Inoxpres','194042900_Inoxpres',#243,
#241);
#243=PRODUCT_DEFINITION_FORMATION('0',$,#248);
#244=PRODUCT_RELATED_PRODUCT_CATEGORY('194042900_Inoxpres',
'194042900_Inoxpres',(#248));
#245=APPLICATION_PROTOCOL_DEFINITION('international standard',
'automotive_design',2009,#246);
#246=APPLICATION_CONTEXT(
'Core Data for Automotive Mechanical Design Process');
#247=PRODUCT_CONTEXT('part definition',#246,'mechanical');
#248=PRODUCT('194042900_Inoxpres','194042900_Inoxpres',
'TUBO RICURVO 90\X\B0 \X\D842 (De 40)',(#247));
#249=PRESENTATION_STYLE_ASSIGNMENT((#250));
#250=SURFACE_STYLE_USAGE(.BOTH.,#253);
#251=SURFACE_STYLE_RENDERING_WITH_PROPERTIES($,#257,(#252));
#252=SURFACE_STYLE_TRANSPARENT(0.);
#253=SURFACE_SIDE_STYLE('',(#254,#251));
#254=SURFACE_STYLE_FILL_AREA(#255);
#255=FILL_AREA_STYLE('',(#256));
#256=FILL_AREA_STYLE_COLOUR('',#257);
#257=COLOUR_RGB('',0.886274509803922,0.917647058823529,0.894117647058824);
ENDSEC;
END-ISO-10303-21;
