ISO-10303-21;
HEADER;
FILE_DESCRIPTION (( 'STEP AP203' ),
    '1' );
FILE_NAME ('3D_R152_DN32_17305190.STEP',
    '2024-08-13T07:34:29',
    ( '' ),
    ( '' ),
    'SwSTEP 2.0',
    'SolidWorks 2024',
    '' );
FILE_SCHEMA (( 'CONFIG_CONTROL_DESIGN' ));
ENDSEC;

DATA;
#1 = DIRECTION ( 'NONE',  ( 0.000000000000000000, 0.000000000000000000, 1.000000000000000000 ) ) ;
#2 = EDGE_LOOP ( 'NONE', ( #44, #235 ) ) ;
#3 = CARTESIAN_POINT ( 'NONE',  ( 0.000000000000000000, 6.000000000000000000, 0.000000000000000000 ) ) ;
#4 = CIRCLE ( 'NONE', #149, 39.00000000000000000 ) ;
#5 = AXIS2_PLACEMENT_3D ( 'NONE', #115, #242, #95 ) ;
#6 = VERTEX_POINT ( 'NONE', #234 ) ;
#7 = ORIENTED_EDGE ( 'NONE', *, *, #41, .T. ) ;
#8 = DIRECTION ( 'NONE',  ( -0.000000000000000000, -1.000000000000000000, -0.000000000000000000 ) ) ;
#9 = AXIS2_PLACEMENT_3D ( 'NONE', #244, #57, #35 ) ;
#10 = DIRECTION ( 'NONE',  ( 0.000000000000000000, 1.000000000000000000, 0.000000000000000000 ) ) ;
#11 = CARTESIAN_POINT ( 'NONE',  ( 9.552245033349355756E-15, 0.000000000000000000, 78.00000000000000000 ) ) ;
#12 = LOCAL_TIME ( 9, 34, 29.00000000000000000, #83 ) ;
#13 = PLANE ( 'NONE',  #67 ) ;
#14 = FACE_OUTER_BOUND ( 'NONE', #26, .T. ) ;
#15 = EDGE_CURVE ( 'NONE', #6, #197, #92, .T. ) ;
#16 = COORDINATED_UNIVERSAL_TIME_OFFSET ( 1, 0, .AHEAD. ) ;
#17 = LOCAL_TIME ( 9, 34, 29.00000000000000000, #19 ) ;
#18 = AXIS2_PLACEMENT_3D ( 'NONE', #134, #207, #131 ) ;
#19 = COORDINATED_UNIVERSAL_TIME_OFFSET ( 1, 0, .AHEAD. ) ;
#20 = COORDINATED_UNIVERSAL_TIME_OFFSET ( 1, 0, .AHEAD. ) ;
#21 = DIRECTION ( 'NONE',  ( 0.000000000000000000, 1.000000000000000000, 0.000000000000000000 ) ) ;
#22 = ORIENTED_EDGE ( 'NONE', *, *, #27, .F. ) ;
#23 = CC_DESIGN_DATE_AND_TIME_ASSIGNMENT ( #190, #216, ( #194 ) ) ;
#24 = ORIENTED_EDGE ( 'NONE', *, *, #84, .T. ) ;
#25 = CC_DESIGN_APPROVAL ( #66, ( #119 ) ) ;
#26 = EDGE_LOOP ( 'NONE', ( #110, #141 ) ) ;
#27 = EDGE_CURVE ( 'NONE', #6, #124, #121, .T. ) ;
#28 = SHAPE_DEFINITION_REPRESENTATION ( #51, #147 ) ;
#29 = ORIENTED_EDGE ( 'NONE', *, *, #236, .T. ) ;
#30 = DIRECTION ( 'NONE',  ( 0.000000000000000000, 0.000000000000000000, 1.000000000000000000 ) ) ;
#31 = CARTESIAN_POINT ( 'NONE',  ( 0.000000000000000000, 6.000000000000000000, -78.00000000000000000 ) ) ;
#32 = DIRECTION ( 'NONE',  ( 0.000000000000000000, -0.000000000000000000, 1.000000000000000000 ) ) ;
#33 = DESIGN_CONTEXT ( 'detailed design', #176, 'design' ) ;
#34 = EDGE_CURVE ( 'NONE', #70, #201, #193, .T. ) ;
#35 = DIRECTION ( 'NONE',  ( 0.000000000000000000, 0.000000000000000000, 1.000000000000000000 ) ) ;
#36 = DIRECTION ( 'NONE',  ( 0.000000000000000000, 1.000000000000000000, 0.000000000000000000 ) ) ;
#37 = EDGE_CURVE ( 'NONE', #124, #91, #87, .T. ) ;
#38 = CALENDAR_DATE ( 2024, 13, 8 ) ;
#39 = APPROVAL_ROLE ( '' ) ;
#40 =( LENGTH_UNIT ( ) NAMED_UNIT ( * ) SI_UNIT ( .MILLI., .METRE. ) );
#41 = EDGE_CURVE ( 'NONE', #201, #70, #4, .T. ) ;
#42 = DATE_TIME_ROLE ( 'classification_date' ) ;
#43 = ORIENTED_EDGE ( 'NONE', *, *, #212, .F. ) ;
#44 = ORIENTED_EDGE ( 'NONE', *, *, #34, .F. ) ;
#45 = EDGE_LOOP ( 'NONE', ( #22, #106, #162, #128 ) ) ;
#46 = PERSON ( 'UNSPECIFIED', 'UNSPECIFIED', 'UNSPECIFIED', ('UNSPECIFIED'), ('UNSPECIFIED'), ('UNSPECIFIED') ) ;
#47 = ORIENTED_EDGE ( 'NONE', *, *, #34, .T. ) ;
#48 = EDGE_LOOP ( 'NONE', ( #73, #69 ) ) ;
#49 = ADVANCED_FACE ( 'NONE', ( #93 ), #99, .F. ) ;
#50 = CARTESIAN_POINT ( 'NONE',  ( 0.000000000000000000, 6.000000000000000000, -39.00000000000000000 ) ) ;
#51 = PRODUCT_DEFINITION_SHAPE ( 'NONE', 'NONE',  #194 ) ;
#52 = PLANE ( 'NONE',  #18 ) ;
#53 = ADVANCED_FACE ( 'NONE', ( #152 ), #223, .T. ) ;
#54 = DIRECTION ( 'NONE',  ( 0.000000000000000000, 0.000000000000000000, -1.000000000000000000 ) ) ;
#55 = VECTOR ( 'NONE', #170, 1000.000000000000000 ) ;
#56 = APPROVAL_PERSON_ORGANIZATION ( #123, #66, #196 ) ;
#57 = DIRECTION ( 'NONE',  ( 0.000000000000000000, 1.000000000000000000, 0.000000000000000000 ) ) ;
#58 = CARTESIAN_POINT ( 'NONE',  ( 4.776122516674677878E-15, 6.000000000000000000, 39.00000000000000000 ) ) ;
#59 = EDGE_CURVE ( 'NONE', #197, #91, #215, .T. ) ;
#60 = CALENDAR_DATE ( 2024, 13, 8 ) ;
#61 = APPLICATION_PROTOCOL_DEFINITION ( 'international standard', 'config_control_design', 1994, #155 ) ;
#62 = AXIS2_PLACEMENT_3D ( 'NONE', #209, #10, #185 ) ;
#63 = PERSON_AND_ORGANIZATION ( #46, #78 ) ;
#64 = CC_DESIGN_APPROVAL ( #180, ( #194 ) ) ;
#65 = PERSON_AND_ORGANIZATION ( #46, #78 ) ;
#66 = APPROVAL ( #100, 'UNSPECIFIED' ) ;
#67 = AXIS2_PLACEMENT_3D ( 'NONE', #203, #206, #32 ) ;
#68 = APPLICATION_PROTOCOL_DEFINITION ( 'international standard', 'config_control_design', 1994, #176 ) ;
#69 = ORIENTED_EDGE ( 'NONE', *, *, #59, .F. ) ;
#70 = VERTEX_POINT ( 'NONE', #50 ) ;
#71 = AXIS2_PLACEMENT_3D ( 'NONE', #101, #82, #231 ) ;
#72 = ORIENTED_EDGE ( 'NONE', *, *, #98, .F. ) ;
#73 = ORIENTED_EDGE ( 'NONE', *, *, #236, .F. ) ;
#74 = DIRECTION ( 'NONE',  ( 0.000000000000000000, 0.000000000000000000, 1.000000000000000000 ) ) ;
#75 = DIRECTION ( 'NONE',  ( 0.000000000000000000, 0.000000000000000000, -1.000000000000000000 ) ) ;
#76 = ADVANCED_FACE ( 'NONE', ( #114, #129 ), #13, .F. ) ;
#77 = CARTESIAN_POINT ( 'NONE',  ( 0.000000000000000000, 6.000000000000000000, 0.000000000000000000 ) ) ;
#78 = ORGANIZATION ( 'UNSPECIFIED', 'UNSPECIFIED', '' ) ;
#79 = DIRECTION ( 'NONE',  ( 0.000000000000000000, 1.000000000000000000, 0.000000000000000000 ) ) ;
#80 = AXIS2_PLACEMENT_3D ( 'NONE', #97, #81, #144 ) ;
#81 = DIRECTION ( 'NONE',  ( -0.000000000000000000, -1.000000000000000000, -0.000000000000000000 ) ) ;
#82 = DIRECTION ( 'NONE',  ( 0.000000000000000000, 0.000000000000000000, 1.000000000000000000 ) ) ;
#83 = COORDINATED_UNIVERSAL_TIME_OFFSET ( 1, 0, .AHEAD. ) ;
#84 = EDGE_CURVE ( 'NONE', #201, #158, #240, .T. ) ;
#85 = APPROVAL_DATE_TIME ( #153, #249 ) ;
#86 =( NAMED_UNIT ( * ) PLANE_ANGLE_UNIT ( ) SI_UNIT ( $, .RADIAN. ) );
#87 = LINE ( 'NONE', #127, #55 ) ;
#88 = EDGE_LOOP ( 'NONE', ( #160, #238 ) ) ;
#89 = CARTESIAN_POINT ( 'NONE',  ( 9.552245033349355756E-15, 6.000000000000000000, 78.00000000000000000 ) ) ;
#90 = CC_DESIGN_PERSON_AND_ORGANIZATION_ASSIGNMENT ( #63, #211, ( #194 ) ) ;
#91 = VERTEX_POINT ( 'NONE', #169 ) ;
#92 = LINE ( 'NONE', #89, #179 ) ;
#93 = FACE_OUTER_BOUND ( 'NONE', #178, .T. ) ;
#94 = AXIS2_PLACEMENT_3D ( 'NONE', #186, #8, #75 ) ;
#95 = DIRECTION ( 'NONE',  ( 0.000000000000000000, 0.000000000000000000, 1.000000000000000000 ) ) ;
#96 = LINE ( 'NONE', #168, #184 ) ;
#97 = CARTESIAN_POINT ( 'NONE',  ( 0.000000000000000000, 6.000000000000000000, 0.000000000000000000 ) ) ;
#98 = EDGE_CURVE ( 'NONE', #174, #158, #202, .T. ) ;
#99 = CYLINDRICAL_SURFACE ( 'NONE', #80, 39.00000000000000000 ) ;
#100 = APPROVAL_STATUS ( 'not_yet_approved' ) ;
#101 = CARTESIAN_POINT ( 'NONE',  ( 0.000000000000000000, 0.000000000000000000, 0.000000000000000000 ) ) ;
#102 = APPROVAL_STATUS ( 'not_yet_approved' ) ;
#103 = APPROVAL_STATUS ( 'not_yet_approved' ) ;
#104 = CC_DESIGN_PERSON_AND_ORGANIZATION_ASSIGNMENT ( #157, #232, ( #151 ) ) ;
#105 = DIRECTION ( 'NONE',  ( 0.000000000000000000, 1.000000000000000000, 0.000000000000000000 ) ) ;
#106 = ORIENTED_EDGE ( 'NONE', *, *, #15, .T. ) ;
#107 = APPROVAL_PERSON_ORGANIZATION ( #120, #249, #192 ) ;
#108 = ADVANCED_FACE ( 'NONE', ( #14, #167 ), #52, .T. ) ;
#109 = AXIS2_PLACEMENT_3D ( 'NONE', #117, #220, #227 ) ;
#110 = ORIENTED_EDGE ( 'NONE', *, *, #143, .T. ) ;
#111 = ORIENTED_EDGE ( 'NONE', *, *, #84, .F. ) ;
#112 = FACE_OUTER_BOUND ( 'NONE', #165, .T. ) ;
#113 = CARTESIAN_POINT ( 'NONE',  ( 0.000000000000000000, 0.000000000000000000, 0.000000000000000000 ) ) ;
#114 = FACE_OUTER_BOUND ( 'NONE', #48, .T. ) ;
#115 = CARTESIAN_POINT ( 'NONE',  ( 0.000000000000000000, 6.000000000000000000, 0.000000000000000000 ) ) ;
#116 = CC_DESIGN_DATE_AND_TIME_ASSIGNMENT ( #248, #42, ( #119 ) ) ;
#117 = CARTESIAN_POINT ( 'NONE',  ( 0.000000000000000000, 6.000000000000000000, 0.000000000000000000 ) ) ;
#118 =( NAMED_UNIT ( * ) SI_UNIT ( $, .STERADIAN. ) SOLID_ANGLE_UNIT ( ) );
#119 = SECURITY_CLASSIFICATION ( '', '', #156 ) ;
#120 = PERSON_AND_ORGANIZATION ( #46, #78 ) ;
#121 = CIRCLE ( 'NONE', #205, 78.00000000000000000 ) ;
#122 = LOCAL_TIME ( 9, 34, 29.00000000000000000, #20 ) ;
#123 = PERSON_AND_ORGANIZATION ( #46, #78 ) ;
#124 = VERTEX_POINT ( 'NONE', #31 ) ;
#125 = EDGE_CURVE ( 'NONE', #158, #174, #233, .T. ) ;
#126 = LOCAL_TIME ( 9, 34, 29.00000000000000000, #16 ) ;
#127 = CARTESIAN_POINT ( 'NONE',  ( 0.000000000000000000, 6.000000000000000000, -78.00000000000000000 ) ) ;
#128 = ORIENTED_EDGE ( 'NONE', *, *, #37, .F. ) ;
#129 = FACE_BOUND ( 'NONE', #88, .T. ) ;
#130 = CARTESIAN_POINT ( 'NONE',  ( 4.776122516674677878E-15, 6.000000000000000000, 39.00000000000000000 ) ) ;
#131 = DIRECTION ( 'NONE',  ( 0.000000000000000000, -0.000000000000000000, 1.000000000000000000 ) ) ;
#132 = UNCERTAINTY_MEASURE_WITH_UNIT (LENGTH_MEASURE( 1.000000000000000082E-05 ), #40, 'distance_accuracy_value', 'NONE');
#133 = DIRECTION ( 'NONE',  ( 0.000000000000000000, 0.000000000000000000, 1.000000000000000000 ) ) ;
#134 = CARTESIAN_POINT ( 'NONE',  ( 0.000000000000000000, 6.000000000000000000, 0.000000000000000000 ) ) ;
#135 = DATE_AND_TIME ( #60, #122 ) ;
#136 = COORDINATED_UNIVERSAL_TIME_OFFSET ( 1, 0, .AHEAD. ) ;
#137 = DATE_AND_TIME ( #38, #12 ) ;
#138 = AXIS2_PLACEMENT_3D ( 'NONE', #113, #166, #133 ) ;
#139 = PERSON_AND_ORGANIZATION ( #46, #78 ) ;
#140 = DIRECTION ( 'NONE',  ( 0.000000000000000000, 0.000000000000000000, 1.000000000000000000 ) ) ;
#141 = ORIENTED_EDGE ( 'NONE', *, *, #27, .T. ) ;
#142 = CARTESIAN_POINT ( 'NONE',  ( 0.000000000000000000, 6.000000000000000000, 0.000000000000000000 ) ) ;
#143 = EDGE_CURVE ( 'NONE', #124, #6, #163, .T. ) ;
#144 = DIRECTION ( 'NONE',  ( 0.000000000000000000, 0.000000000000000000, -1.000000000000000000 ) ) ;
#145 = CYLINDRICAL_SURFACE ( 'NONE', #246, 78.00000000000000000 ) ;
#146 = CARTESIAN_POINT ( 'NONE',  ( 0.000000000000000000, 6.000000000000000000, 0.000000000000000000 ) ) ;
#147 = ADVANCED_BREP_SHAPE_REPRESENTATION ( '3D_R152_DN32_17305190', ( #208, #71 ), #226 ) ;
#148 = CC_DESIGN_PERSON_AND_ORGANIZATION_ASSIGNMENT ( #247, #195, ( #198 ) ) ;
#149 = AXIS2_PLACEMENT_3D ( 'NONE', #146, #36, #74 ) ;
#150 = CARTESIAN_POINT ( 'NONE',  ( 0.000000000000000000, 0.000000000000000000, 0.000000000000000000 ) ) ;
#151 = PRODUCT ( '3D_R152_DN32_17305190', '3D_R152_DN32_17305190', '', ( #245 ) ) ;
#152 = FACE_OUTER_BOUND ( 'NONE', #45, .T. ) ;
#153 = DATE_AND_TIME ( #173, #126 ) ;
#154 = APPROVAL_DATE_TIME ( #135, #66 ) ;
#155 = APPLICATION_CONTEXT ( 'configuration controlled 3d designs of mechanical parts and assemblies' ) ;
#156 = SECURITY_CLASSIFICATION_LEVEL ( 'unclassified' ) ;
#157 = PERSON_AND_ORGANIZATION ( #46, #78 ) ;
#158 = VERTEX_POINT ( 'NONE', #183 ) ;
#159 = PRODUCT_RELATED_PRODUCT_CATEGORY ( 'detail', '', ( #151 ) ) ;
#160 = ORIENTED_EDGE ( 'NONE', *, *, #98, .T. ) ;
#161 = CLOSED_SHELL ( 'NONE', ( #49, #53, #108, #76, #199, #175 ) ) ;
#162 = ORIENTED_EDGE ( 'NONE', *, *, #59, .T. ) ;
#163 = CIRCLE ( 'NONE', #5, 78.00000000000000000 ) ;
#164 = AXIS2_PLACEMENT_3D ( 'NONE', #150, #79, #30 ) ;
#165 = EDGE_LOOP ( 'NONE', ( #111, #7, #237, #177 ) ) ;
#166 = DIRECTION ( 'NONE',  ( 0.000000000000000000, 1.000000000000000000, 0.000000000000000000 ) ) ;
#167 = FACE_BOUND ( 'NONE', #2, .T. ) ;
#168 = CARTESIAN_POINT ( 'NONE',  ( 0.000000000000000000, 6.000000000000000000, -39.00000000000000000 ) ) ;
#169 = CARTESIAN_POINT ( 'NONE',  ( 0.000000000000000000, 0.000000000000000000, -78.00000000000000000 ) ) ;
#170 = DIRECTION ( 'NONE',  ( -0.000000000000000000, -1.000000000000000000, -0.000000000000000000 ) ) ;
#171 = APPROVAL_DATE_TIME ( #137, #180 ) ;
#172 = PERSON_AND_ORGANIZATION_ROLE ( 'creator' ) ;
#173 = CALENDAR_DATE ( 2024, 13, 8 ) ;
#174 = VERTEX_POINT ( 'NONE', #241 ) ;
#175 = ADVANCED_FACE ( 'NONE', ( #112 ), #182, .F. ) ;
#176 = APPLICATION_CONTEXT ( 'configuration controlled 3d designs of mechanical parts and assemblies' ) ;
#177 = ORIENTED_EDGE ( 'NONE', *, *, #125, .F. ) ;
#178 = EDGE_LOOP ( 'NONE', ( #47, #24, #72, #43 ) ) ;
#179 = VECTOR ( 'NONE', #219, 1000.000000000000000 ) ;
#180 = APPROVAL ( #103, 'UNSPECIFIED' ) ;
#181 = ORIENTED_EDGE ( 'NONE', *, *, #143, .F. ) ;
#182 = CYLINDRICAL_SURFACE ( 'NONE', #94, 39.00000000000000000 ) ;
#183 = CARTESIAN_POINT ( 'NONE',  ( 4.776122516674677878E-15, 0.000000000000000000, 39.00000000000000000 ) ) ;
#184 = VECTOR ( 'NONE', #225, 1000.000000000000000 ) ;
#185 = DIRECTION ( 'NONE',  ( 0.000000000000000000, 0.000000000000000000, 1.000000000000000000 ) ) ;
#186 = CARTESIAN_POINT ( 'NONE',  ( 0.000000000000000000, 6.000000000000000000, 0.000000000000000000 ) ) ;
#187 = CC_DESIGN_SECURITY_CLASSIFICATION ( #119, ( #198 ) ) ;
#188 = CC_DESIGN_PERSON_AND_ORGANIZATION_ASSIGNMENT ( #229, #172, ( #198 ) ) ;
#189 = DIRECTION ( 'NONE',  ( -0.000000000000000000, -1.000000000000000000, -0.000000000000000000 ) ) ;
#190 = DATE_AND_TIME ( #210, #191 ) ;
#191 = LOCAL_TIME ( 9, 34, 29.00000000000000000, #136 ) ;
#192 = APPROVAL_ROLE ( '' ) ;
#193 = CIRCLE ( 'NONE', #224, 39.00000000000000000 ) ;
#194 = PRODUCT_DEFINITION ( 'UNKNOWN', '', #198, #33 ) ;
#195 = PERSON_AND_ORGANIZATION_ROLE ( 'design_supplier' ) ;
#196 = APPROVAL_ROLE ( '' ) ;
#197 = VERTEX_POINT ( 'NONE', #11 ) ;
#198 = PRODUCT_DEFINITION_FORMATION_WITH_SPECIFIED_SOURCE ( 'ANY', '', #151, .NOT_KNOWN. ) ;
#199 = ADVANCED_FACE ( 'NONE', ( #204 ), #145, .T. ) ;
#200 = VECTOR ( 'NONE', #189, 1000.000000000000000 ) ;
#201 = VERTEX_POINT ( 'NONE', #130 ) ;
#202 = CIRCLE ( 'NONE', #164, 39.00000000000000000 ) ;
#203 = CARTESIAN_POINT ( 'NONE',  ( 0.000000000000000000, 0.000000000000000000, 0.000000000000000000 ) ) ;
#204 = FACE_OUTER_BOUND ( 'NONE', #239, .T. ) ;
#205 = AXIS2_PLACEMENT_3D ( 'NONE', #142, #21, #140 ) ;
#206 = DIRECTION ( 'NONE',  ( 0.000000000000000000, 1.000000000000000000, 0.000000000000000000 ) ) ;
#207 = DIRECTION ( 'NONE',  ( 0.000000000000000000, 1.000000000000000000, 0.000000000000000000 ) ) ;
#208 = MANIFOLD_SOLID_BREP ( 'Aufsatz-Linear austragen1', #161 ) ;
#209 = CARTESIAN_POINT ( 'NONE',  ( 0.000000000000000000, 0.000000000000000000, 0.000000000000000000 ) ) ;
#210 = CALENDAR_DATE ( 2024, 13, 8 ) ;
#211 = PERSON_AND_ORGANIZATION_ROLE ( 'creator' ) ;
#212 = EDGE_CURVE ( 'NONE', #70, #174, #96, .T. ) ;
#213 = APPROVAL_PERSON_ORGANIZATION ( #139, #180, #39 ) ;
#214 = CALENDAR_DATE ( 2024, 13, 8 ) ;
#215 = CIRCLE ( 'NONE', #138, 78.00000000000000000 ) ;
#216 = DATE_TIME_ROLE ( 'creation_date' ) ;
#217 = ORIENTED_EDGE ( 'NONE', *, *, #37, .T. ) ;
#218 = ORIENTED_EDGE ( 'NONE', *, *, #15, .F. ) ;
#219 = DIRECTION ( 'NONE',  ( -0.000000000000000000, -1.000000000000000000, -0.000000000000000000 ) ) ;
#220 = DIRECTION ( 'NONE',  ( -0.000000000000000000, -1.000000000000000000, -0.000000000000000000 ) ) ;
#221 = DIRECTION ( 'NONE',  ( -0.000000000000000000, -1.000000000000000000, -0.000000000000000000 ) ) ;
#222 = CC_DESIGN_APPROVAL ( #249, ( #198 ) ) ;
#223 = CYLINDRICAL_SURFACE ( 'NONE', #109, 78.00000000000000000 ) ;
#224 = AXIS2_PLACEMENT_3D ( 'NONE', #3, #105, #1 ) ;
#225 = DIRECTION ( 'NONE',  ( -0.000000000000000000, -1.000000000000000000, -0.000000000000000000 ) ) ;
#226 =( GEOMETRIC_REPRESENTATION_CONTEXT ( 3 ) GLOBAL_UNCERTAINTY_ASSIGNED_CONTEXT ( ( #132 ) ) GLOBAL_UNIT_ASSIGNED_CONTEXT ( ( #40, #86, #118 ) ) REPRESENTATION_CONTEXT ( 'NONE', 'WORKASPACE' ) );
#227 = DIRECTION ( 'NONE',  ( 0.000000000000000000, 0.000000000000000000, -1.000000000000000000 ) ) ;
#228 = PERSON_AND_ORGANIZATION_ROLE ( 'classification_officer' ) ;
#229 = PERSON_AND_ORGANIZATION ( #46, #78 ) ;
#230 = CIRCLE ( 'NONE', #9, 78.00000000000000000 ) ;
#231 = DIRECTION ( 'NONE',  ( 1.000000000000000000, 0.000000000000000000, 0.000000000000000000 ) ) ;
#232 = PERSON_AND_ORGANIZATION_ROLE ( 'design_owner' ) ;
#233 = CIRCLE ( 'NONE', #62, 39.00000000000000000 ) ;
#234 = CARTESIAN_POINT ( 'NONE',  ( 9.552245033349355756E-15, 6.000000000000000000, 78.00000000000000000 ) ) ;
#235 = ORIENTED_EDGE ( 'NONE', *, *, #41, .F. ) ;
#236 = EDGE_CURVE ( 'NONE', #91, #197, #230, .T. ) ;
#237 = ORIENTED_EDGE ( 'NONE', *, *, #212, .T. ) ;
#238 = ORIENTED_EDGE ( 'NONE', *, *, #125, .T. ) ;
#239 = EDGE_LOOP ( 'NONE', ( #218, #181, #217, #29 ) ) ;
#240 = LINE ( 'NONE', #58, #200 ) ;
#241 = CARTESIAN_POINT ( 'NONE',  ( 0.000000000000000000, 0.000000000000000000, -39.00000000000000000 ) ) ;
#242 = DIRECTION ( 'NONE',  ( 0.000000000000000000, 1.000000000000000000, 0.000000000000000000 ) ) ;
#243 = CC_DESIGN_PERSON_AND_ORGANIZATION_ASSIGNMENT ( #65, #228, ( #119 ) ) ;
#244 = CARTESIAN_POINT ( 'NONE',  ( 0.000000000000000000, 0.000000000000000000, 0.000000000000000000 ) ) ;
#245 = MECHANICAL_CONTEXT ( 'NONE', #155, 'mechanical' ) ;
#246 = AXIS2_PLACEMENT_3D ( 'NONE', #77, #221, #54 ) ;
#247 = PERSON_AND_ORGANIZATION ( #46, #78 ) ;
#248 = DATE_AND_TIME ( #214, #17 ) ;
#249 = APPROVAL ( #102, 'UNSPECIFIED' ) ;
ENDSEC;
END-ISO-10303-21;
