ISO-10303-21;
HEADER;
FILE_DESCRIPTION (( 'STEP AP203' ),
    '1' );
FILE_NAME ('3D-M2102P_42.4x2_174114030.STEP',
    '2024-09-05T09:19:47',
    ( '' ),
    ( '' ),
    'SwSTEP 2.0',
    'SolidWorks 2024',
    '' );
FILE_SCHEMA (( 'CONFIG_CONTROL_DESIGN' ));
ENDSEC;

DATA;
#1 = CARTESIAN_POINT ( 'NONE',  ( -16.64708581120227038, 0.000000000000000000, 0.000000000000000000 ) ) ;
#2 = AXIS2_PLACEMENT_3D ( 'NONE', #350, #338, #309 ) ;
#3 = VERTEX_POINT ( 'NONE', #15 ) ;
#4 = CARTESIAN_POINT ( 'NONE',  ( -16.64708581120227038, 0.000000000000000000, 0.000000000000000000 ) ) ;
#5 = CARTESIAN_POINT ( 'NONE',  ( 0.000000000000000000, 0.000000000000000000, 0.000000000000000000 ) ) ;
#6 = CARTESIAN_POINT ( 'NONE',  ( 0.000000000000000000, 1.959434878635765131E-15, -16.00000000000000000 ) ) ;
#7 = EDGE_LOOP ( 'NONE', ( #401, #103 ) ) ;
#8 = DIRECTION ( 'NONE',  ( 1.000000000000000000, 0.000000000000000000, 0.000000000000000000 ) ) ;
#9 = DIRECTION ( 'NONE',  ( -1.000000000000000000, -0.000000000000000000, -0.000000000000000000 ) ) ;
#10 = EDGE_CURVE ( 'NONE', #142, #36, #107, .T. ) ;
#11 = AXIS2_PLACEMENT_3D ( 'NONE', #370, #23, #271 ) ;
#12 = EDGE_LOOP ( 'NONE', ( #299, #138, #45, #163 ) ) ;
#13 = AXIS2_PLACEMENT_3D ( 'NONE', #375, #416, #110 ) ;
#14 = CARTESIAN_POINT ( 'NONE',  ( 1.000000000000000888, 0.000000000000000000, -16.00000000000000000 ) ) ;
#15 = CARTESIAN_POINT ( 'NONE',  ( 0.000000000000000000, 0.000000000000000000, -22.18653347947319787 ) ) ;
#16 = DIRECTION ( 'NONE',  ( 0.000000000000000000, 0.000000000000000000, 1.000000000000000000 ) ) ;
#17 = EDGE_CURVE ( 'NONE', #405, #372, #353, .T. ) ;
#18 = FACE_OUTER_BOUND ( 'NONE', #420, .T. ) ;
#19 = AXIS2_PLACEMENT_3D ( 'NONE', #409, #297, #236 ) ;
#20 = DIRECTION ( 'NONE',  ( -1.000000000000000000, -0.000000000000000000, -0.000000000000000000 ) ) ;
#21 = DIRECTION ( 'NONE',  ( 0.000000000000000000, 0.000000000000000000, 1.000000000000000000 ) ) ;
#22 = VERTEX_POINT ( 'NONE', #104 ) ;
#23 = DIRECTION ( 'NONE',  ( -1.000000000000000000, -0.000000000000000000, -0.000000000000000000 ) ) ;
#24 = AXIS2_PLACEMENT_3D ( 'NONE', #41, #145, #174 ) ;
#25 = DIRECTION ( 'NONE',  ( 1.000000000000000000, 0.000000000000000000, 0.000000000000000000 ) ) ;
#26 = CALENDAR_DATE ( 2024, 5, 9 ) ;
#27 = EDGE_CURVE ( 'NONE', #3, #359, #418, .T. ) ;
#28 = DATE_TIME_ROLE ( 'creation_date' ) ;
#29 = VECTOR ( 'NONE', #322, 1000.000000000000114 ) ;
#30 = ORIENTED_EDGE ( 'NONE', *, *, #203, .T. ) ;
#31 = CALENDAR_DATE ( 2024, 5, 9 ) ;
#32 = LINE ( 'NONE', #348, #222 ) ;
#33 = VERTEX_POINT ( 'NONE', #352 ) ;
#34 = CARTESIAN_POINT ( 'NONE',  ( 10.50000000000000178, 0.000000000000000000, 0.000000000000000000 ) ) ;
#35 = AXIS2_PLACEMENT_3D ( 'NONE', #38, #334, #341 ) ;
#36 = VERTEX_POINT ( 'NONE', #343 ) ;
#37 = CARTESIAN_POINT ( 'NONE',  ( 10.50000000000000178, 0.000000000000000000, 0.000000000000000000 ) ) ;
#38 = CARTESIAN_POINT ( 'NONE',  ( 10.50000000000000178, 0.000000000000000000, 0.000000000000000000 ) ) ;
#39 = ORIENTED_EDGE ( 'NONE', *, *, #134, .T. ) ;
#40 = EDGE_CURVE ( 'NONE', #259, #142, #177, .T. ) ;
#41 = CARTESIAN_POINT ( 'NONE',  ( 25.00000000000000000, 0.000000000000000000, 0.000000000000000000 ) ) ;
#42 = ORIENTED_EDGE ( 'NONE', *, *, #84, .F. ) ;
#43 = CIRCLE ( 'NONE', #287, 25.00000000000000000 ) ;
#44 = DIRECTION ( 'NONE',  ( -1.000000000000000000, -0.000000000000000000, -0.000000000000000000 ) ) ;
#45 = ORIENTED_EDGE ( 'NONE', *, *, #52, .T. ) ;
#46 = DIRECTION ( 'NONE',  ( -0.000000000000000000, 0.000000000000000000, 1.000000000000000000 ) ) ;
#47 = DIRECTION ( 'NONE',  ( 0.000000000000000000, 0.000000000000000000, 1.000000000000000000 ) ) ;
#48 = CARTESIAN_POINT ( 'NONE',  ( -16.64708581120227038, 0.000000000000000000, 0.000000000000000000 ) ) ;
#49 = DIRECTION ( 'NONE',  ( -1.000000000000000000, -0.000000000000000000, -0.000000000000000000 ) ) ;
#50 = DIRECTION ( 'NONE',  ( 0.000000000000000000, 0.000000000000000000, 1.000000000000000000 ) ) ;
#51 = CIRCLE ( 'NONE', #69, 19.19999999999999929 ) ;
#52 = EDGE_CURVE ( 'NONE', #365, #191, #307, .T. ) ;
#53 = PLANE ( 'NONE',  #60 ) ;
#54 = DIRECTION ( 'NONE',  ( -1.000000000000000000, -0.000000000000000000, -0.000000000000000000 ) ) ;
#55 = CARTESIAN_POINT ( 'NONE',  ( -16.64708581120227038, 0.000000000000000000, 0.000000000000000000 ) ) ;
#56 = CIRCLE ( 'NONE', #139, 16.00000000000000000 ) ;
#57 = CALENDAR_DATE ( 2024, 5, 9 ) ;
#58 = EDGE_CURVE ( 'NONE', #234, #36, #32, .T. ) ;
#59 = APPROVAL_ROLE ( '' ) ;
#60 = AXIS2_PLACEMENT_3D ( 'NONE', #383, #83, #183 ) ;
#61 = ORIENTED_EDGE ( 'NONE', *, *, #220, .T. ) ;
#62 = PERSON_AND_ORGANIZATION_ROLE ( 'classification_officer' ) ;
#63 = DIRECTION ( 'NONE',  ( 0.000000000000000000, 0.000000000000000000, 1.000000000000000000 ) ) ;
#64 = EDGE_LOOP ( 'NONE', ( #231, #221, #61, #340 ) ) ;
#65 = CARTESIAN_POINT ( 'NONE',  ( 1.000000000000000888, 0.000000000000000000, 0.000000000000000000 ) ) ;
#66 = CARTESIAN_POINT ( 'NONE',  ( 1.000000000000000888, 0.000000000000000000, 0.000000000000000000 ) ) ;
#67 = EDGE_LOOP ( 'NONE', ( #175, #152, #207, #331 ) ) ;
#68 = LINE ( 'NONE', #260, #238 ) ;
#69 = AXIS2_PLACEMENT_3D ( 'NONE', #301, #164, #50 ) ;
#70 = CC_DESIGN_APPROVAL ( #157, ( #156 ) ) ;
#71 = ADVANCED_FACE ( 'NONE', ( #172 ), #241, .T. ) ;
#72 = DIRECTION ( 'NONE',  ( -1.000000000000000000, -0.000000000000000000, -0.000000000000000000 ) ) ;
#73 = ORIENTED_EDGE ( 'NONE', *, *, #165, .F. ) ;
#74 = ORIENTED_EDGE ( 'NONE', *, *, #149, .F. ) ;
#75 = CARTESIAN_POINT ( 'NONE',  ( 25.00000000000000000, 21.19999999999999929, 0.000000000000000000 ) ) ;
#76 = ORIENTED_EDGE ( 'NONE', *, *, #425, .T. ) ;
#77 = CIRCLE ( 'NONE', #319, 19.19999999999999929 ) ;
#78 = DIRECTION ( 'NONE',  ( 0.000000000000000000, 0.000000000000000000, 1.000000000000000000 ) ) ;
#79 = VERTEX_POINT ( 'NONE', #376 ) ;
#80 = DIRECTION ( 'NONE',  ( -1.000000000000000000, -0.000000000000000000, -0.000000000000000000 ) ) ;
#81 = CC_DESIGN_DATE_AND_TIME_ASSIGNMENT ( #354, #120, ( #345 ) ) ;
#82 = DIRECTION ( 'NONE',  ( 0.000000000000000000, 0.000000000000000000, 1.000000000000000000 ) ) ;
#83 = DIRECTION ( 'NONE',  ( 1.000000000000000000, 0.000000000000000000, 0.000000000000000000 ) ) ;
#84 = EDGE_CURVE ( 'NONE', #234, #372, #68, .T. ) ;
#85 = AXIS2_PLACEMENT_3D ( 'NONE', #4, #367, #63 ) ;
#86 = FACE_BOUND ( 'NONE', #291, .T. ) ;
#87 = ORIENTED_EDGE ( 'NONE', *, *, #40, .F. ) ;
#88 = CARTESIAN_POINT ( 'NONE',  ( -16.64708581120227038, 0.000000000000000000, 0.000000000000000000 ) ) ;
#89 = ORIENTED_EDGE ( 'NONE', *, *, #58, .T. ) ;
#90 = ADVANCED_FACE ( 'NONE', ( #274 ), #296, .F. ) ;
#91 = CIRCLE ( 'NONE', #2, 19.19999999999999929 ) ;
#92 = COORDINATED_UNIVERSAL_TIME_OFFSET ( 1, 0, .AHEAD. ) ;
#93 = APPROVAL_STATUS ( 'not_yet_approved' ) ;
#94 = APPROVAL_PERSON_ORGANIZATION ( #386, #157, #161 ) ;
#95 = ORIENTED_EDGE ( 'NONE', *, *, #17, .F. ) ;
#96 = DIRECTION ( 'NONE',  ( 0.000000000000000000, 0.000000000000000000, 1.000000000000000000 ) ) ;
#97 = ORIENTED_EDGE ( 'NONE', *, *, #425, .F. ) ;
#98 = DIRECTION ( 'NONE',  ( 0.000000000000000000, 0.000000000000000000, 1.000000000000000000 ) ) ;
#99 = EDGE_LOOP ( 'NONE', ( #197, #200 ) ) ;
#100 = CYLINDRICAL_SURFACE ( 'NONE', #85, 21.19999999999999929 ) ;
#101 = CONICAL_SURFACE ( 'NONE', #403, 16.00000000000000000, 0.1382429904777284224 ) ;
#102 = CARTESIAN_POINT ( 'NONE',  ( 10.50000000000000178, 0.000000000000000000, 0.000000000000000000 ) ) ;
#103 = ORIENTED_EDGE ( 'NONE', *, *, #314, .T. ) ;
#104 = CARTESIAN_POINT ( 'NONE',  ( 1.000000000000000888, 2.155378366499341605E-15, 16.00000000000000000 ) ) ;
#105 = ORIENTED_EDGE ( 'NONE', *, *, #247, .T. ) ;
#106 = APPLICATION_PROTOCOL_DEFINITION ( 'international standard', 'config_control_design', 1994, #305 ) ;
#107 = CIRCLE ( 'NONE', #356, 19.19999999999999929 ) ;
#108 = DIRECTION ( 'NONE',  ( -1.000000000000000000, -0.000000000000000000, -0.000000000000000000 ) ) ;
#109 = PLANE ( 'NONE',  #336 ) ;
#110 = DIRECTION ( 'NONE',  ( 1.000000000000000000, 0.000000000000000000, 0.000000000000000000 ) ) ;
#111 = ADVANCED_FACE ( 'NONE', ( #243 ), #100, .T. ) ;
#112 = DIRECTION ( 'NONE',  ( 0.9659258262890678681, 0.000000000000000000, -0.2588190451025219052 ) ) ;
#113 = ORIENTED_EDGE ( 'NONE', *, *, #321, .T. ) ;
#114 = CONICAL_SURFACE ( 'NONE', #19, 16.00000000000000000, 0.1382429904777284224 ) ;
#115 = VECTOR ( 'NONE', #112, 1000.000000000000114 ) ;
#116 = LINE ( 'NONE', #213, #115 ) ;
#117 = ORIENTED_EDGE ( 'NONE', *, *, #27, .F. ) ;
#118 = EDGE_CURVE ( 'NONE', #33, #191, #344, .T. ) ;
#119 = PERSON_AND_ORGANIZATION_ROLE ( 'design_supplier' ) ;
#120 = DATE_TIME_ROLE ( 'classification_date' ) ;
#121 = CIRCLE ( 'NONE', #24, 21.19999999999999929 ) ;
#122 = APPROVAL_STATUS ( 'not_yet_approved' ) ;
#123 = PERSON_AND_ORGANIZATION ( #427, #419 ) ;
#124 = ADVANCED_FACE ( 'NONE', ( #232 ), #208, .F. ) ;
#125 = ADVANCED_BREP_SHAPE_REPRESENTATION ( '3D-M2102P_42.4x2_174114030', ( #289, #13 ), #283 ) ;
#126 = CC_DESIGN_PERSON_AND_ORGANIZATION_ASSIGNMENT ( #391, #62, ( #345 ) ) ;
#127 = COORDINATED_UNIVERSAL_TIME_OFFSET ( 1, 0, .AHEAD. ) ;
#128 = DIRECTION ( 'NONE',  ( 0.000000000000000000, 0.000000000000000000, -1.000000000000000000 ) ) ;
#129 = ORIENTED_EDGE ( 'NONE', *, *, #251, .F. ) ;
#130 = CC_DESIGN_SECURITY_CLASSIFICATION ( #345, ( #156 ) ) ;
#131 = DIRECTION ( 'NONE',  ( -1.000000000000000000, -0.000000000000000000, -0.000000000000000000 ) ) ;
#132 = FACE_OUTER_BOUND ( 'NONE', #317, .T. ) ;
#133 = EDGE_LOOP ( 'NONE', ( #362, #342, #398, #265 ) ) ;
#134 = EDGE_CURVE ( 'NONE', #36, #142, #91, .T. ) ;
#135 = DIRECTION ( 'NONE',  ( -1.000000000000000000, -0.000000000000000000, -0.000000000000000000 ) ) ;
#136 = DIRECTION ( 'NONE',  ( 0.000000000000000000, 0.000000000000000000, 1.000000000000000000 ) ) ;
#137 = CARTESIAN_POINT ( 'NONE',  ( 10.50000000000000178, 21.19999999999999929, 0.000000000000000000 ) ) ;
#138 = ORIENTED_EDGE ( 'NONE', *, *, #251, .T. ) ;
#139 = AXIS2_PLACEMENT_3D ( 'NONE', #65, #135, #98 ) ;
#140 = LOCAL_TIME ( 11, 19, 47.00000000000000000, #92 ) ;
#141 = CARTESIAN_POINT ( 'NONE',  ( -16.64708581120227038, 0.000000000000000000, 16.00000000000000000 ) ) ;
#142 = VERTEX_POINT ( 'NONE', #330 ) ;
#143 = FACE_OUTER_BOUND ( 'NONE', #67, .T. ) ;
#144 = ORIENTED_EDGE ( 'NONE', *, *, #247, .F. ) ;
#145 = DIRECTION ( 'NONE',  ( -1.000000000000000000, -0.000000000000000000, -0.000000000000000000 ) ) ;
#146 = CARTESIAN_POINT ( 'NONE',  ( 1.000000000000000888, 0.000000000000000000, 0.000000000000000000 ) ) ;
#147 = PERSON_AND_ORGANIZATION_ROLE ( 'design_owner' ) ;
#148 = CONICAL_SURFACE ( 'NONE', #198, 25.00000000000000000, 0.2617993877991506846 ) ;
#149 = EDGE_CURVE ( 'NONE', #22, #142, #402, .T. ) ;
#150 = DIRECTION ( 'NONE',  ( 0.000000000000000000, 0.000000000000000000, 1.000000000000000000 ) ) ;
#151 = CARTESIAN_POINT ( 'NONE',  ( 25.00000000000000000, 2.596251214192388770E-15, -21.19999999999999929 ) ) ;
#152 = ORIENTED_EDGE ( 'NONE', *, *, #149, .T. ) ;
#153 = DIRECTION ( 'NONE',  ( 0.000000000000000000, 0.000000000000000000, 1.000000000000000000 ) ) ;
#154 = EDGE_LOOP ( 'NONE', ( #394, #117, #382, #76 ) ) ;
#155 = AXIS2_PLACEMENT_3D ( 'NONE', #48, #131, #150 ) ;
#156 = PRODUCT_DEFINITION_FORMATION_WITH_SPECIFIED_SOURCE ( 'ANY', '', #269, .NOT_KNOWN. ) ;
#157 = APPROVAL ( #423, 'UNSPECIFIED' ) ;
#158 = COORDINATED_UNIVERSAL_TIME_OFFSET ( 1, 0, .AHEAD. ) ;
#159 = VECTOR ( 'NONE', #179, 1000.000000000000000 ) ;
#160 = CONICAL_SURFACE ( 'NONE', #406, 25.00000000000000000, 0.2617993877991506846 ) ;
#161 = APPROVAL_ROLE ( '' ) ;
#162 = ADVANCED_FACE ( 'NONE', ( #18, #229 ), #109, .F. ) ;
#163 = ORIENTED_EDGE ( 'NONE', *, *, #118, .F. ) ;
#164 = DIRECTION ( 'NONE',  ( -1.000000000000000000, -0.000000000000000000, -0.000000000000000000 ) ) ;
#165 = EDGE_CURVE ( 'NONE', #259, #79, #51, .T. ) ;
#166 = ORIENTED_EDGE ( 'NONE', *, *, #326, .F. ) ;
#167 = AXIS2_PLACEMENT_3D ( 'NONE', #235, #384, #47 ) ;
#168 = AXIS2_PLACEMENT_3D ( 'NONE', #55, #316, #21 ) ;
#169 = DIRECTION ( 'NONE',  ( -1.000000000000000000, -0.000000000000000000, -0.000000000000000000 ) ) ;
#170 = CARTESIAN_POINT ( 'NONE',  ( 0.000000000000000000, 0.000000000000000000, 0.000000000000000000 ) ) ;
#171 = ORIENTED_EDGE ( 'NONE', *, *, #203, .F. ) ;
#172 = FACE_OUTER_BOUND ( 'NONE', #12, .T. ) ;
#173 = ORIENTED_EDGE ( 'NONE', *, *, #10, .F. ) ;
#174 = DIRECTION ( 'NONE',  ( 0.000000000000000000, 0.000000000000000000, 1.000000000000000000 ) ) ;
#175 = ORIENTED_EDGE ( 'NONE', *, *, #189, .T. ) ;
#176 = VECTOR ( 'NONE', #227, 1000.000000000000114 ) ;
#177 = LINE ( 'NONE', #306, #159 ) ;
#178 = DIRECTION ( 'NONE',  ( 0.000000000000000000, 0.000000000000000000, 1.000000000000000000 ) ) ;
#179 = DIRECTION ( 'NONE',  ( -1.000000000000000000, -0.000000000000000000, -0.000000000000000000 ) ) ;
#180 = DIRECTION ( 'NONE',  ( 0.000000000000000000, 0.000000000000000000, 1.000000000000000000 ) ) ;
#181 = ADVANCED_FACE ( 'NONE', ( #413 ), #148, .T. ) ;
#182 = LINE ( 'NONE', #311, #295 ) ;
#183 = DIRECTION ( 'NONE',  ( 0.000000000000000000, 0.000000000000000000, -1.000000000000000000 ) ) ;
#184 = CLOSED_SHELL ( 'NONE', ( #111, #333, #90, #300, #378, #407, #355, #124, #389, #181, #162, #71, #233 ) ) ;
#185 = AXIS2_PLACEMENT_3D ( 'NONE', #258, #80, #180 ) ;
#186 = ORIENTED_EDGE ( 'NONE', *, *, #10, .T. ) ;
#187 = AXIS2_PLACEMENT_3D ( 'NONE', #88, #215, #153 ) ;
#188 = SHAPE_DEFINITION_REPRESENTATION ( #267, #125 ) ;
#189 = EDGE_CURVE ( 'NONE', #234, #22, #412, .T. ) ;
#190 = SECURITY_CLASSIFICATION_LEVEL ( 'unclassified' ) ;
#191 = VERTEX_POINT ( 'NONE', #332 ) ;
#192 = DATE_AND_TIME ( #57, #325 ) ;
#193 = EDGE_CURVE ( 'NONE', #79, #36, #182, .T. ) ;
#194 = DIRECTION ( 'NONE',  ( -1.000000000000000000, -0.000000000000000000, -0.000000000000000000 ) ) ;
#195 = DIRECTION ( 'NONE',  ( 0.9904596462288625114, 0.000000000000000000, -0.1378030812144503681 ) ) ;
#196 = PLANE ( 'NONE',  #387 ) ;
#197 = ORIENTED_EDGE ( 'NONE', *, *, #165, .T. ) ;
#198 = AXIS2_PLACEMENT_3D ( 'NONE', #37, #8, #397 ) ;
#199 = DIRECTION ( 'NONE',  ( 0.000000000000000000, 0.000000000000000000, 1.000000000000000000 ) ) ;
#200 = ORIENTED_EDGE ( 'NONE', *, *, #326, .T. ) ;
#201 = DIRECTION ( 'NONE',  ( -1.000000000000000000, 0.000000000000000000, -0.000000000000000000 ) ) ;
#202 = VERTEX_POINT ( 'NONE', #361 ) ;
#203 = EDGE_CURVE ( 'NONE', #22, #234, #56, .T. ) ;
#204 = CARTESIAN_POINT ( 'NONE',  ( -16.64708581120227038, 2.596251214192388770E-15, -21.19999999999999929 ) ) ;
#205 = EDGE_LOOP ( 'NONE', ( #228, #129 ) ) ;
#206 = LOCAL_TIME ( 11, 19, 47.00000000000000000, #127 ) ;
#207 = ORIENTED_EDGE ( 'NONE', *, *, #134, .F. ) ;
#208 = CYLINDRICAL_SURFACE ( 'NONE', #185, 16.00000000000000000 ) ;
#209 = FACE_OUTER_BOUND ( 'NONE', #216, .T. ) ;
#210 = CC_DESIGN_PERSON_AND_ORGANIZATION_ASSIGNMENT ( #310, #147, ( #269 ) ) ;
#211 = DIRECTION ( 'NONE',  ( -0.000000000000000000, 0.000000000000000000, 1.000000000000000000 ) ) ;
#212 = AXIS2_PLACEMENT_3D ( 'NONE', #146, #108, #82 ) ;
#213 = CARTESIAN_POINT ( 'NONE',  ( 10.50000000000000178, 0.000000000000000000, -25.00000000000000000 ) ) ;
#214 = CARTESIAN_POINT ( 'NONE',  ( 24.00000000000000000, 0.000000000000000000, 0.000000000000000000 ) ) ;
#215 = DIRECTION ( 'NONE',  ( -1.000000000000000000, -0.000000000000000000, -0.000000000000000000 ) ) ;
#216 = EDGE_LOOP ( 'NONE', ( #328, #73, #335, #186 ) ) ;
#217 = CIRCLE ( 'NONE', #35, 21.19999999999999929 ) ;
#218 = CARTESIAN_POINT ( 'NONE',  ( 25.00000000000000000, 0.000000000000000000, 21.19999999999999929 ) ) ;
#219 = PERSON_AND_ORGANIZATION ( #427, #419 ) ;
#220 = EDGE_CURVE ( 'NONE', #202, #262, #43, .T. ) ;
#221 = ORIENTED_EDGE ( 'NONE', *, *, #360, .T. ) ;
#222 = VECTOR ( 'NONE', #195, 1000.000000000000114 ) ;
#223 = CC_DESIGN_APPROVAL ( #327, ( #345 ) ) ;
#224 = DATE_AND_TIME ( #31, #140 ) ;
#225 = APPLICATION_CONTEXT ( 'configuration controlled 3d designs of mechanical parts and assemblies' ) ;
#226 = CC_DESIGN_DATE_AND_TIME_ASSIGNMENT ( #192, #28, ( #371 ) ) ;
#227 = DIRECTION ( 'NONE',  ( 0.9904596462288625114, 1.687601023219194134E-17, 0.1378030812144503681 ) ) ;
#228 = ORIENTED_EDGE ( 'NONE', *, *, #272, .F. ) ;
#229 = FACE_BOUND ( 'NONE', #268, .T. ) ;
#230 = CARTESIAN_POINT ( 'NONE',  ( 25.00000000000000000, 0.000000000000000000, 19.19999999999999929 ) ) ;
#231 = ORIENTED_EDGE ( 'NONE', *, *, #314, .F. ) ;
#232 = FACE_OUTER_BOUND ( 'NONE', #357, .T. ) ;
#233 = ADVANCED_FACE ( 'NONE', ( #369, #240 ), #196, .F. ) ;
#234 = VERTEX_POINT ( 'NONE', #14 ) ;
#235 = CARTESIAN_POINT ( 'NONE',  ( 0.000000000000000000, 0.000000000000000000, 0.000000000000000000 ) ) ;
#236 = DIRECTION ( 'NONE',  ( 0.000000000000000000, 0.000000000000000000, -1.000000000000000000 ) ) ;
#237 = ORIENTED_EDGE ( 'NONE', *, *, #279, .T. ) ;
#238 = VECTOR ( 'NONE', #277, 1000.000000000000000 ) ;
#239 = CC_DESIGN_APPROVAL ( #390, ( #371 ) ) ;
#240 = FACE_BOUND ( 'NONE', #99, .T. ) ;
#241 = CYLINDRICAL_SURFACE ( 'NONE', #155, 21.19999999999999929 ) ;
#242 = CARTESIAN_POINT ( 'NONE',  ( 10.50000000000000178, 0.000000000000000000, 0.000000000000000000 ) ) ;
#243 = FACE_OUTER_BOUND ( 'NONE', #417, .T. ) ;
#244 =( NAMED_UNIT ( * ) PLANE_ANGLE_UNIT ( ) SI_UNIT ( $, .RADIAN. ) );
#245 = ORIENTED_EDGE ( 'NONE', *, *, #220, .F. ) ;
#246 = AXIS2_PLACEMENT_3D ( 'NONE', #242, #49, #380 ) ;
#247 = EDGE_CURVE ( 'NONE', #191, #33, #217, .T. ) ;
#248 = PRODUCT_RELATED_PRODUCT_CATEGORY ( 'detail', '', ( #269 ) ) ;
#249 = CARTESIAN_POINT ( 'NONE',  ( 0.000000000000000000, 0.000000000000000000, 16.00000000000000000 ) ) ;
#250 = DIRECTION ( 'NONE',  ( 0.000000000000000000, 0.000000000000000000, 1.000000000000000000 ) ) ;
#251 = EDGE_CURVE ( 'NONE', #410, #365, #121, .T. ) ;
#252 = VECTOR ( 'NONE', #72, 1000.000000000000000 ) ;
#253 = CALENDAR_DATE ( 2024, 5, 9 ) ;
#254 = APPROVAL_DATE_TIME ( #392, #327 ) ;
#255 = UNCERTAINTY_MEASURE_WITH_UNIT (LENGTH_MEASURE( 1.000000000000000082E-05 ), #278, 'distance_accuracy_value', 'NONE');
#256 = PERSON_AND_ORGANIZATION ( #427, #419 ) ;
#257 = AXIS2_PLACEMENT_3D ( 'NONE', #273, #44, #178 ) ;
#258 = CARTESIAN_POINT ( 'NONE',  ( -16.64708581120227038, 0.000000000000000000, 0.000000000000000000 ) ) ;
#259 = VERTEX_POINT ( 'NONE', #230 ) ;
#260 = CARTESIAN_POINT ( 'NONE',  ( -16.64708581120227038, 1.959434878635765131E-15, -16.00000000000000000 ) ) ;
#261 = CYLINDRICAL_SURFACE ( 'NONE', #187, 19.19999999999999929 ) ;
#262 = VERTEX_POINT ( 'NONE', #339 ) ;
#263 = CARTESIAN_POINT ( 'NONE',  ( 1.000000000000000888, 1.959434878635765131E-15, 16.00000000000000000 ) ) ;
#264 = CARTESIAN_POINT ( 'NONE',  ( 25.00000000000000000, 0.000000000000000000, 0.000000000000000000 ) ) ;
#265 = ORIENTED_EDGE ( 'NONE', *, *, #321, .F. ) ;
#266 = VECTOR ( 'NONE', #54, 1000.000000000000000 ) ;
#267 = PRODUCT_DEFINITION_SHAPE ( 'NONE', 'NONE',  #371 ) ;
#268 = EDGE_LOOP ( 'NONE', ( #105, #294 ) ) ;
#269 = PRODUCT ( '3D-M2102P_42.4x2_174114030', '3D-M2102P_42.4x2_174114030', '', ( #349 ) ) ;
#270 = DIRECTION ( 'NONE',  ( -1.000000000000000000, -0.000000000000000000, -0.000000000000000000 ) ) ;
#271 = DIRECTION ( 'NONE',  ( 0.000000000000000000, 0.000000000000000000, 1.000000000000000000 ) ) ;
#272 = EDGE_CURVE ( 'NONE', #365, #410, #313, .T. ) ;
#273 = CARTESIAN_POINT ( 'NONE',  ( 25.00000000000000000, 0.000000000000000000, 0.000000000000000000 ) ) ;
#274 = FACE_OUTER_BOUND ( 'NONE', #133, .T. ) ;
#275 = APPLICATION_PROTOCOL_DEFINITION ( 'international standard', 'config_control_design', 1994, #225 ) ;
#276 = CIRCLE ( 'NONE', #351, 16.00000000000000000 ) ;
#277 = DIRECTION ( 'NONE',  ( -1.000000000000000000, -0.000000000000000000, -0.000000000000000000 ) ) ;
#278 =( LENGTH_UNIT ( ) NAMED_UNIT ( * ) SI_UNIT ( .MILLI., .METRE. ) );
#279 = EDGE_CURVE ( 'NONE', #410, #33, #411, .T. ) ;
#280 = CARTESIAN_POINT ( 'NONE',  ( -16.64708581120227038, 0.000000000000000000, 21.19999999999999929 ) ) ;
#281 = DIRECTION ( 'NONE',  ( -1.000000000000000000, -0.000000000000000000, -0.000000000000000000 ) ) ;
#282 = AXIS2_PLACEMENT_3D ( 'NONE', #414, #194, #96 ) ;
#283 =( GEOMETRIC_REPRESENTATION_CONTEXT ( 3 ) GLOBAL_UNCERTAINTY_ASSIGNED_CONTEXT ( ( #255 ) ) GLOBAL_UNIT_ASSIGNED_CONTEXT ( ( #278, #244, #415 ) ) REPRESENTATION_CONTEXT ( 'NONE', 'WORKASPACE' ) );
#284 = CARTESIAN_POINT ( 'NONE',  ( 10.50000000000000178, 3.061616997868383043E-15, 25.00000000000000000 ) ) ;
#285 = EDGE_CURVE ( 'NONE', #372, #405, #276, .T. ) ;
#286 = DATE_AND_TIME ( #324, #320 ) ;
#287 = AXIS2_PLACEMENT_3D ( 'NONE', #34, #169, #199 ) ;
#288 = PERSON_AND_ORGANIZATION_ROLE ( 'creator' ) ;
#289 = MANIFOLD_SOLID_BREP ( 'Rotation1', #184 ) ;
#290 = CARTESIAN_POINT ( 'NONE',  ( 0.000000000000000000, 2.889341859424813696E-15, 22.18653347947319787 ) ) ;
#291 = EDGE_LOOP ( 'NONE', ( #95, #302 ) ) ;
#292 = DIRECTION ( 'NONE',  ( -1.000000000000000000, -0.000000000000000000, -0.000000000000000000 ) ) ;
#293 = DIRECTION ( 'NONE',  ( 0.000000000000000000, 0.000000000000000000, -1.000000000000000000 ) ) ;
#294 = ORIENTED_EDGE ( 'NONE', *, *, #118, .T. ) ;
#295 = VECTOR ( 'NONE', #292, 1000.000000000000000 ) ;
#296 = CYLINDRICAL_SURFACE ( 'NONE', #426, 16.00000000000000000 ) ;
#297 = DIRECTION ( 'NONE',  ( 1.000000000000000000, 0.000000000000000000, 0.000000000000000000 ) ) ;
#298 = LINE ( 'NONE', #284, #29 ) ;
#299 = ORIENTED_EDGE ( 'NONE', *, *, #279, .F. ) ;
#300 = ADVANCED_FACE ( 'NONE', ( #143 ), #114, .F. ) ;
#301 = CARTESIAN_POINT ( 'NONE',  ( 25.00000000000000000, 0.000000000000000000, 0.000000000000000000 ) ) ;
#302 = ORIENTED_EDGE ( 'NONE', *, *, #285, .F. ) ;
#303 = DIRECTION ( 'NONE',  ( -1.000000000000000000, -0.000000000000000000, -0.000000000000000000 ) ) ;
#304 = ORIENTED_EDGE ( 'NONE', *, *, #17, .T. ) ;
#305 = APPLICATION_CONTEXT ( 'configuration controlled 3d designs of mechanical parts and assemblies' ) ;
#306 = CARTESIAN_POINT ( 'NONE',  ( -16.64708581120227038, 0.000000000000000000, 19.19999999999999929 ) ) ;
#307 = LINE ( 'NONE', #280, #266 ) ;
#308 = CC_DESIGN_PERSON_AND_ORGANIZATION_ASSIGNMENT ( #219, #323, ( #371 ) ) ;
#309 = DIRECTION ( 'NONE',  ( 0.000000000000000000, 0.000000000000000000, 1.000000000000000000 ) ) ;
#310 = PERSON_AND_ORGANIZATION ( #427, #419 ) ;
#311 = CARTESIAN_POINT ( 'NONE',  ( -16.64708581120227038, 2.351321854362917684E-15, -19.19999999999999929 ) ) ;
#312 = FACE_OUTER_BOUND ( 'NONE', #7, .T. ) ;
#313 = CIRCLE ( 'NONE', #257, 21.19999999999999929 ) ;
#314 = EDGE_CURVE ( 'NONE', #359, #3, #366, .T. ) ;
#315 = PERSON_AND_ORGANIZATION ( #427, #419 ) ;
#316 = DIRECTION ( 'NONE',  ( -1.000000000000000000, -0.000000000000000000, -0.000000000000000000 ) ) ;
#317 = EDGE_LOOP ( 'NONE', ( #74, #30, #89, #173 ) ) ;
#318 = DIRECTION ( 'NONE',  ( 1.000000000000000000, 0.000000000000000000, 0.000000000000000000 ) ) ;
#319 = AXIS2_PLACEMENT_3D ( 'NONE', #264, #9, #78 ) ;
#320 = LOCAL_TIME ( 11, 19, 47.00000000000000000, #385 ) ;
#321 = EDGE_CURVE ( 'NONE', #22, #405, #400, .T. ) ;
#322 = DIRECTION ( 'NONE',  ( 0.9659258262890678681, 3.169619151431779116E-17, 0.2588190451025219052 ) ) ;
#323 = PERSON_AND_ORGANIZATION_ROLE ( 'creator' ) ;
#324 = CALENDAR_DATE ( 2024, 5, 9 ) ;
#325 = LOCAL_TIME ( 11, 19, 47.00000000000000000, #158 ) ;
#326 = EDGE_CURVE ( 'NONE', #79, #259, #77, .T. ) ;
#327 = APPROVAL ( #122, 'UNSPECIFIED' ) ;
#328 = ORIENTED_EDGE ( 'NONE', *, *, #193, .F. ) ;
#329 = COORDINATED_UNIVERSAL_TIME_OFFSET ( 1, 0, .AHEAD. ) ;
#330 = CARTESIAN_POINT ( 'NONE',  ( 24.00000000000000000, 0.000000000000000000, 19.19999999999999929 ) ) ;
#331 = ORIENTED_EDGE ( 'NONE', *, *, #58, .F. ) ;
#332 = CARTESIAN_POINT ( 'NONE',  ( 10.50000000000000178, 0.000000000000000000, 21.19999999999999929 ) ) ;
#333 = ADVANCED_FACE ( 'NONE', ( #404 ), #160, .T. ) ;
#334 = DIRECTION ( 'NONE',  ( -1.000000000000000000, -0.000000000000000000, -0.000000000000000000 ) ) ;
#335 = ORIENTED_EDGE ( 'NONE', *, *, #40, .T. ) ;
#336 = AXIS2_PLACEMENT_3D ( 'NONE', #137, #363, #211 ) ;
#337 = LOCAL_TIME ( 11, 19, 47.00000000000000000, #329 ) ;
#338 = DIRECTION ( 'NONE',  ( -1.000000000000000000, -0.000000000000000000, -0.000000000000000000 ) ) ;
#339 = CARTESIAN_POINT ( 'NONE',  ( 10.50000000000000178, 0.000000000000000000, -25.00000000000000000 ) ) ;
#340 = ORIENTED_EDGE ( 'NONE', *, *, #396, .F. ) ;
#341 = DIRECTION ( 'NONE',  ( 0.000000000000000000, 0.000000000000000000, 1.000000000000000000 ) ) ;
#342 = ORIENTED_EDGE ( 'NONE', *, *, #84, .T. ) ;
#343 = CARTESIAN_POINT ( 'NONE',  ( 24.00000000000000000, 2.351321854362917684E-15, -19.19999999999999929 ) ) ;
#344 = CIRCLE ( 'NONE', #282, 21.19999999999999929 ) ;
#345 = SECURITY_CLASSIFICATION ( '', '', #190 ) ;
#346 = CC_DESIGN_PERSON_AND_ORGANIZATION_ASSIGNMENT ( #123, #119, ( #156 ) ) ;
#347 = ORIENTED_EDGE ( 'NONE', *, *, #52, .F. ) ;
#348 = CARTESIAN_POINT ( 'NONE',  ( 1.000000000000000888, 0.000000000000000000, -16.00000000000000000 ) ) ;
#349 = MECHANICAL_CONTEXT ( 'NONE', #305, 'mechanical' ) ;
#350 = CARTESIAN_POINT ( 'NONE',  ( 24.00000000000000000, 0.000000000000000000, 0.000000000000000000 ) ) ;
#351 = AXIS2_PLACEMENT_3D ( 'NONE', #170, #270, #16 ) ;
#352 = CARTESIAN_POINT ( 'NONE',  ( 10.50000000000000178, 2.596251214192388770E-15, -21.19999999999999929 ) ) ;
#353 = CIRCLE ( 'NONE', #167, 16.00000000000000000 ) ;
#354 = DATE_AND_TIME ( #26, #206 ) ;
#355 = ADVANCED_FACE ( 'NONE', ( #132 ), #101, .F. ) ;
#356 = AXIS2_PLACEMENT_3D ( 'NONE', #214, #281, #250 ) ;
#357 = EDGE_LOOP ( 'NONE', ( #42, #171, #113, #304 ) ) ;
#358 = PERSON_AND_ORGANIZATION ( #427, #419 ) ;
#359 = VERTEX_POINT ( 'NONE', #290 ) ;
#360 = EDGE_CURVE ( 'NONE', #359, #202, #298, .T. ) ;
#361 = CARTESIAN_POINT ( 'NONE',  ( 10.50000000000000178, 3.061616997868383043E-15, 25.00000000000000000 ) ) ;
#362 = ORIENTED_EDGE ( 'NONE', *, *, #189, .F. ) ;
#363 = DIRECTION ( 'NONE',  ( -1.000000000000000000, 0.000000000000000000, -0.000000000000000000 ) ) ;
#364 = DIRECTION ( 'NONE',  ( -1.000000000000000000, -0.000000000000000000, -0.000000000000000000 ) ) ;
#365 = VERTEX_POINT ( 'NONE', #218 ) ;
#366 = CIRCLE ( 'NONE', #379, 22.18653347947319787 ) ;
#367 = DIRECTION ( 'NONE',  ( -1.000000000000000000, -0.000000000000000000, -0.000000000000000000 ) ) ;
#368 = ORIENTED_EDGE ( 'NONE', *, *, #272, .T. ) ;
#369 = FACE_OUTER_BOUND ( 'NONE', #205, .T. ) ;
#370 = CARTESIAN_POINT ( 'NONE',  ( 0.000000000000000000, 0.000000000000000000, 0.000000000000000000 ) ) ;
#371 = PRODUCT_DEFINITION ( 'UNKNOWN', '', #156, #395 ) ;
#372 = VERTEX_POINT ( 'NONE', #6 ) ;
#373 = VECTOR ( 'NONE', #364, 1000.000000000000000 ) ;
#374 = APPROVAL_PERSON_ORGANIZATION ( #315, #390, #428 ) ;
#375 = CARTESIAN_POINT ( 'NONE',  ( 0.000000000000000000, 0.000000000000000000, 0.000000000000000000 ) ) ;
#376 = CARTESIAN_POINT ( 'NONE',  ( 25.00000000000000000, 2.351321854362917684E-15, -19.19999999999999929 ) ) ;
#377 = CYLINDRICAL_SURFACE ( 'NONE', #168, 19.19999999999999929 ) ;
#378 = ADVANCED_FACE ( 'NONE', ( #422 ), #261, .F. ) ;
#379 = AXIS2_PLACEMENT_3D ( 'NONE', #5, #303, #136 ) ;
#380 = DIRECTION ( 'NONE',  ( 0.000000000000000000, 0.000000000000000000, 1.000000000000000000 ) ) ;
#381 = APPROVAL_PERSON_ORGANIZATION ( #256, #327, #59 ) ;
#382 = ORIENTED_EDGE ( 'NONE', *, *, #396, .T. ) ;
#383 = CARTESIAN_POINT ( 'NONE',  ( 1.689432726598112311E-16, 22.18653347947319787, 0.000000000000000000 ) ) ;
#384 = DIRECTION ( 'NONE',  ( -1.000000000000000000, -0.000000000000000000, -0.000000000000000000 ) ) ;
#385 = COORDINATED_UNIVERSAL_TIME_OFFSET ( 1, 0, .AHEAD. ) ;
#386 = PERSON_AND_ORGANIZATION ( #427, #419 ) ;
#387 = AXIS2_PLACEMENT_3D ( 'NONE', #75, #201, #46 ) ;
#388 = APPROVAL_DATE_TIME ( #224, #390 ) ;
#389 = ADVANCED_FACE ( 'NONE', ( #86, #312 ), #53, .F. ) ;
#390 = APPROVAL ( #93, 'UNSPECIFIED' ) ;
#391 = PERSON_AND_ORGANIZATION ( #427, #419 ) ;
#392 = DATE_AND_TIME ( #253, #337 ) ;
#393 = CIRCLE ( 'NONE', #246, 25.00000000000000000 ) ;
#394 = ORIENTED_EDGE ( 'NONE', *, *, #360, .F. ) ;
#395 = DESIGN_CONTEXT ( 'detailed design', #225, 'design' ) ;
#396 = EDGE_CURVE ( 'NONE', #3, #262, #116, .T. ) ;
#397 = DIRECTION ( 'NONE',  ( 0.000000000000000000, 0.000000000000000000, -1.000000000000000000 ) ) ;
#398 = ORIENTED_EDGE ( 'NONE', *, *, #285, .T. ) ;
#399 = DIRECTION ( 'NONE',  ( 0.000000000000000000, 0.000000000000000000, 1.000000000000000000 ) ) ;
#400 = LINE ( 'NONE', #141, #252 ) ;
#401 = ORIENTED_EDGE ( 'NONE', *, *, #27, .T. ) ;
#402 = LINE ( 'NONE', #263, #176 ) ;
#403 = AXIS2_PLACEMENT_3D ( 'NONE', #66, #318, #128 ) ;
#404 = FACE_OUTER_BOUND ( 'NONE', #64, .T. ) ;
#405 = VERTEX_POINT ( 'NONE', #249 ) ;
#406 = AXIS2_PLACEMENT_3D ( 'NONE', #102, #25, #293 ) ;
#407 = ADVANCED_FACE ( 'NONE', ( #209 ), #377, .F. ) ;
#408 = ORIENTED_EDGE ( 'NONE', *, *, #193, .T. ) ;
#409 = CARTESIAN_POINT ( 'NONE',  ( 1.000000000000000888, 0.000000000000000000, 0.000000000000000000 ) ) ;
#410 = VERTEX_POINT ( 'NONE', #151 ) ;
#411 = LINE ( 'NONE', #204, #373 ) ;
#412 = CIRCLE ( 'NONE', #212, 16.00000000000000000 ) ;
#413 = FACE_OUTER_BOUND ( 'NONE', #154, .T. ) ;
#414 = CARTESIAN_POINT ( 'NONE',  ( 10.50000000000000178, 0.000000000000000000, 0.000000000000000000 ) ) ;
#415 =( NAMED_UNIT ( * ) SI_UNIT ( $, .STERADIAN. ) SOLID_ANGLE_UNIT ( ) );
#416 = DIRECTION ( 'NONE',  ( 0.000000000000000000, 0.000000000000000000, 1.000000000000000000 ) ) ;
#417 = EDGE_LOOP ( 'NONE', ( #368, #237, #144, #347 ) ) ;
#418 = CIRCLE ( 'NONE', #11, 22.18653347947319787 ) ;
#419 = ORGANIZATION ( 'UNSPECIFIED', 'UNSPECIFIED', '' ) ;
#420 = EDGE_LOOP ( 'NONE', ( #97, #245 ) ) ;
#421 = CC_DESIGN_PERSON_AND_ORGANIZATION_ASSIGNMENT ( #358, #288, ( #156 ) ) ;
#422 = FACE_OUTER_BOUND ( 'NONE', #429, .T. ) ;
#423 = APPROVAL_STATUS ( 'not_yet_approved' ) ;
#424 = APPROVAL_DATE_TIME ( #286, #157 ) ;
#425 = EDGE_CURVE ( 'NONE', #262, #202, #393, .T. ) ;
#426 = AXIS2_PLACEMENT_3D ( 'NONE', #1, #20, #399 ) ;
#427 = PERSON ( 'UNSPECIFIED', 'UNSPECIFIED', 'UNSPECIFIED', ('UNSPECIFIED'), ('UNSPECIFIED'), ('UNSPECIFIED') ) ;
#428 = APPROVAL_ROLE ( '' ) ;
#429 = EDGE_LOOP ( 'NONE', ( #166, #408, #39, #87 ) ) ;
ENDSEC;
END-ISO-10303-21;
