ISO-10303-21;
HEADER;
FILE_DESCRIPTION (( 'STEP AP203' ),
    '1' );
FILE_NAME ('3D_R175_DN33.7x2_17336190.STEP',
    '2024-07-18T10:05:36',
    ( '' ),
    ( '' ),
    'SwSTEP 2.0',
    'SolidWorks 2024',
    '' );
FILE_SCHEMA (( 'CONFIG_CONTROL_DESIGN' ));
ENDSEC;

DATA;
#1 = CARTESIAN_POINT ( 'NONE',  ( 9.468888454660790406E-16, 5.055492940258865531, 0.000000000000000000 ) ) ;
#2 = CIRCLE ( 'NONE', #38, 22.96000000000000085 ) ;
#3 = FACE_OUTER_BOUND ( 'NONE', #36, .T. ) ;
#4 = CARTESIAN_POINT ( 'NONE',  ( 1.387778780781445676E-14, 2817.965330118411202, 0.000000000000000000 ) ) ;
#5 = ORIENTED_EDGE ( 'NONE', *, *, #26, .T. ) ;
#6 = EDGE_CURVE ( 'NONE', #93, #59, #31, .T. ) ;
#7 = AXIS2_PLACEMENT_3D ( 'NONE', #291, #384, #234 ) ;
#8 = VECTOR ( 'NONE', #298, 1000.000000000000000 ) ;
#9 = ORIENTED_EDGE ( 'NONE', *, *, #317, .F. ) ;
#10 = EDGE_LOOP ( 'NONE', ( #362, #164, #227, #196 ) ) ;
#11 = ORIENTED_EDGE ( 'NONE', *, *, #326, .T. ) ;
#12 = CC_DESIGN_PERSON_AND_ORGANIZATION_ASSIGNMENT ( #205, #173, ( #162 ) ) ;
#13 = LINE ( 'NONE', #368, #370 ) ;
#14 = DIRECTION ( 'NONE',  ( 4.596983092540343816E-18, 1.000000000000000000, -0.000000000000000000 ) ) ;
#15 = CARTESIAN_POINT ( 'NONE',  ( 15.71893175074184157, 7.428573558039719416, 1.994271901009729745E-15 ) ) ;
#16 = PERSON_AND_ORGANIZATION ( #130, #213 ) ;
#17 = CARTESIAN_POINT ( 'NONE',  ( 14.85000000000000142, -6.826519892422410906E-17, 1.818600496733819553E-15 ) ) ;
#18 = APPROVAL_ROLE ( '' ) ;
#19 = CARTESIAN_POINT ( 'NONE',  ( 0.000000000000000000, 0.000000000000000000, 0.000000000000000000 ) ) ;
#20 = CIRCLE ( 'NONE', #179, 14.45940196302217728 ) ;
#21 = CARTESIAN_POINT ( 'NONE',  ( 1.387778780781445676E-14, 2817.965330118411202, 0.000000000000000000 ) ) ;
#22 = CARTESIAN_POINT ( 'NONE',  ( 9.236488298952508525E-16, 0.000000000000000000, 0.000000000000000000 ) ) ;
#23 = CARTESIAN_POINT ( 'NONE',  ( 9.236488298952508525E-16, 0.000000000000000000, 0.000000000000000000 ) ) ;
#24 = FACE_OUTER_BOUND ( 'NONE', #224, .T. ) ;
#25 = APPROVAL_PERSON_ORGANIZATION ( #86, #87, #215 ) ;
#26 = EDGE_CURVE ( 'NONE', #202, #102, #52, .T. ) ;
#27 = EDGE_LOOP ( 'NONE', ( #63, #379 ) ) ;
#28 = DIRECTION ( 'NONE',  ( -1.000000000000000000, 0.000000000000000000, 0.000000000000000000 ) ) ;
#29 = VERTEX_POINT ( 'NONE', #199 ) ;
#30 = CARTESIAN_POINT ( 'NONE',  ( 9.236488298952508525E-16, 0.000000000000000000, 0.000000000000000000 ) ) ;
#31 = CIRCLE ( 'NONE', #269, 14.85000000000000142 ) ;
#32 = AXIS2_PLACEMENT_3D ( 'NONE', #392, #175, #43 ) ;
#33 = DIRECTION ( 'NONE',  ( 4.596983092540343816E-18, 1.000000000000000000, -0.000000000000000000 ) ) ;
#34 = DIRECTION ( 'NONE',  ( 1.000000000000000000, 0.000000000000000000, 1.224646799147352961E-16 ) ) ;
#35 = CARTESIAN_POINT ( 'NONE',  ( 2.001299976884853369E-15, 10.99999999999999822, 0.000000000000000000 ) ) ;
#36 = EDGE_LOOP ( 'NONE', ( #11, #325, #348, #266 ) ) ;
#37 = VERTEX_POINT ( 'NONE', #56 ) ;
#38 = AXIS2_PLACEMENT_3D ( 'NONE', #99, #191, #65 ) ;
#39 = EDGE_CURVE ( 'NONE', #37, #202, #340, .T. ) ;
#40 = VERTEX_POINT ( 'NONE', #282 ) ;
#41 =( NAMED_UNIT ( * ) PLANE_ANGLE_UNIT ( ) SI_UNIT ( $, .RADIAN. ) );
#42 = VERTEX_POINT ( 'NONE', #183 ) ;
#43 = DIRECTION ( 'NONE',  ( -1.000000000000000000, 0.000000000000000000, 0.000000000000000000 ) ) ;
#44 = DIRECTION ( 'NONE',  ( -1.224646799147353207E-16, 5.629680630014033300E-34, 1.000000000000000000 ) ) ;
#45 = CIRCLE ( 'NONE', #280, 14.45940196302217728 ) ;
#46 = CYLINDRICAL_SURFACE ( 'NONE', #32, 14.84999999999999964 ) ;
#47 = DATE_TIME_ROLE ( 'creation_date' ) ;
#48 = AXIS2_PLACEMENT_3D ( 'NONE', #79, #44, #366 ) ;
#49 = EDGE_CURVE ( 'NONE', #169, #138, #287, .T. ) ;
#50 = PERSON_AND_ORGANIZATION_ROLE ( 'creator' ) ;
#51 = DESIGN_CONTEXT ( 'detailed design', #147, 'design' ) ;
#52 = CIRCLE ( 'NONE', #410, 24.96000000000000441 ) ;
#53 = EDGE_CURVE ( 'NONE', #40, #37, #322, .T. ) ;
#54 = CARTESIAN_POINT ( 'NONE',  ( -14.84999999999999964, 5.055492940258873524, 0.000000000000000000 ) ) ;
#55 = DIRECTION ( 'NONE',  ( -1.000000000000000000, 0.000000000000000000, 0.000000000000000000 ) ) ;
#56 = CARTESIAN_POINT ( 'NONE',  ( -15.71893175074184157, 7.428573558039719416, 0.000000000000000000 ) ) ;
#57 = DIRECTION ( 'NONE',  ( -1.000000000000000000, 0.000000000000000000, 0.000000000000000000 ) ) ;
#58 = CARTESIAN_POINT ( 'NONE',  ( -13.79500000000000171, 5.055492940258877965, 0.000000000000000000 ) ) ;
#59 = VERTEX_POINT ( 'NONE', #54 ) ;
#60 = SPHERICAL_SURFACE ( 'NONE', #295, 24.96000000000000441 ) ;
#61 = CIRCLE ( 'NONE', #148, 16.85000000000000142 ) ;
#62 = PRODUCT_DEFINITION_FORMATION_WITH_SPECIFIED_SOURCE ( 'ANY', '', #406, .NOT_KNOWN. ) ;
#63 = ORIENTED_EDGE ( 'NONE', *, *, #155, .T. ) ;
#64 = DIRECTION ( 'NONE',  ( -1.000000000000000000, 0.000000000000000000, 0.000000000000000000 ) ) ;
#65 = DIRECTION ( 'NONE',  ( -1.000000000000000000, 0.000000000000000000, 0.000000000000000000 ) ) ;
#66 = AXIS2_PLACEMENT_3D ( 'NONE', #30, #316, #408 ) ;
#67 = CARTESIAN_POINT ( 'NONE',  ( -14.45940196302217373, 5.875001958837859029, 0.000000000000000000 ) ) ;
#68 = DIRECTION ( 'NONE',  ( -1.000000000000000000, 0.000000000000000000, 0.000000000000000000 ) ) ;
#69 = ORIENTED_EDGE ( 'NONE', *, *, #284, .F. ) ;
#70 = CC_DESIGN_APPROVAL ( #210, ( #404 ) ) ;
#71 = EDGE_LOOP ( 'NONE', ( #391, #268, #124, #387 ) ) ;
#72 = ADVANCED_FACE ( 'NONE', ( #24 ), #153, .F. ) ;
#73 = DIRECTION ( 'NONE',  ( 1.000000000000000000, 0.000000000000000000, 1.224646799147353207E-16 ) ) ;
#74 = CIRCLE ( 'NONE', #226, 14.85000000000000142 ) ;
#75 = DIRECTION ( 'NONE',  ( 1.000000000000000000, 0.000000000000000000, 0.000000000000000000 ) ) ;
#76 = EDGE_LOOP ( 'NONE', ( #256, #235, #254, #125 ) ) ;
#77 = SECURITY_CLASSIFICATION_LEVEL ( 'unclassified' ) ;
#78 = CARTESIAN_POINT ( 'NONE',  ( 1.734723475976807094E-15, 5.055492940258877965, 0.000000000000000000 ) ) ;
#79 = CARTESIAN_POINT ( 'NONE',  ( 3.301647770501288687E-15, -11.96000000000000441, 0.000000000000000000 ) ) ;
#80 = DATE_AND_TIME ( #396, #354 ) ;
#81 = FACE_OUTER_BOUND ( 'NONE', #292, .T. ) ;
#82 = CALENDAR_DATE ( 2024, 18, 7 ) ;
#83 = CARTESIAN_POINT ( 'NONE',  ( 9.577978569432524375E-16, 7.428573558039719416, 0.000000000000000000 ) ) ;
#84 = ADVANCED_FACE ( 'NONE', ( #122 ), #151, .T. ) ;
#85 = LOCAL_TIME ( 12, 5, 36.00000000000000000, #338 ) ;
#86 = PERSON_AND_ORGANIZATION ( #130, #213 ) ;
#87 = APPROVAL ( #393, 'UNSPECIFIED' ) ;
#88 = AXIS2_PLACEMENT_3D ( 'NONE', #171, #301, #141 ) ;
#89 = DIRECTION ( 'NONE',  ( 4.596983092540343816E-18, 1.000000000000000000, -0.000000000000000000 ) ) ;
#90 = DIRECTION ( 'NONE',  ( -1.000000000000000000, 0.000000000000000000, 0.000000000000000000 ) ) ;
#91 = FACE_OUTER_BOUND ( 'NONE', #386, .T. ) ;
#92 = CARTESIAN_POINT ( 'NONE',  ( 3.301647770501288687E-15, -11.96000000000000441, 0.000000000000000000 ) ) ;
#93 = VERTEX_POINT ( 'NONE', #279 ) ;
#94 = CC_DESIGN_PERSON_AND_ORGANIZATION_ASSIGNMENT ( #109, #395, ( #62 ) ) ;
#95 = ORIENTED_EDGE ( 'NONE', *, *, #264, .F. ) ;
#96 = CARTESIAN_POINT ( 'NONE',  ( 3.383634972961490347E-15, 5.875001958837859029, 0.000000000000000000 ) ) ;
#97 = TOROIDAL_SURFACE ( 'NONE', #7, 13.79500000000000348, 3.054999999999999716 ) ;
#98 = DIRECTION ( 'NONE',  ( 1.000000000000000000, 0.000000000000000000, 1.224646799147353207E-16 ) ) ;
#99 = CARTESIAN_POINT ( 'NONE',  ( 3.301647770501288687E-15, -11.96000000000000441, 0.000000000000000000 ) ) ;
#100 = AXIS2_PLACEMENT_3D ( 'NONE', #78, #110, #142 ) ;
#101 = DIRECTION ( 'NONE',  ( -1.000000000000000000, 0.000000000000000000, 0.000000000000000000 ) ) ;
#102 = VERTEX_POINT ( 'NONE', #378 ) ;
#103 = ORIENTED_EDGE ( 'NONE', *, *, #155, .F. ) ;
#104 = DIRECTION ( 'NONE',  ( -1.224646799147353207E-16, 5.629680630014033300E-34, 1.000000000000000000 ) ) ;
#105 = AXIS2_PLACEMENT_3D ( 'NONE', #22, #251, #221 ) ;
#106 = AXIS2_PLACEMENT_3D ( 'NONE', #21, #375, #57 ) ;
#107 = ORIENTED_EDGE ( 'NONE', *, *, #189, .F. ) ;
#108 = DIRECTION ( 'NONE',  ( 4.596983092540343816E-18, 1.000000000000000000, -0.000000000000000000 ) ) ;
#109 = PERSON_AND_ORGANIZATION ( #130, #213 ) ;
#110 = DIRECTION ( 'NONE',  ( 4.596983092540343816E-18, 1.000000000000000000, -0.000000000000000000 ) ) ;
#111 = APPLICATION_PROTOCOL_DEFINITION ( 'international standard', 'config_control_design', 1994, #147 ) ;
#112 = EDGE_CURVE ( 'NONE', #42, #356, #333, .T. ) ;
#113 =( NAMED_UNIT ( * ) SI_UNIT ( $, .STERADIAN. ) SOLID_ANGLE_UNIT ( ) );
#114 = PERSON_AND_ORGANIZATION ( #130, #213 ) ;
#115 = CIRCLE ( 'NONE', #276, 1.055000000000000382 ) ;
#116 = ADVANCED_FACE ( 'NONE', ( #343, #220 ), #252, .T. ) ;
#117 = CIRCLE ( 'NONE', #283, 15.71893175074184157 ) ;
#118 = LINE ( 'NONE', #399, #161 ) ;
#119 = AXIS2_PLACEMENT_3D ( 'NONE', #313, #405, #181 ) ;
#120 = DIRECTION ( 'NONE',  ( 4.596983092540343816E-18, 1.000000000000000000, -0.000000000000000000 ) ) ;
#121 = CARTESIAN_POINT ( 'NONE',  ( 16.85000000000000142, 5.055492940258865531, 2.063529856563290244E-15 ) ) ;
#122 = FACE_OUTER_BOUND ( 'NONE', #315, .T. ) ;
#123 = EDGE_CURVE ( 'NONE', #356, #132, #118, .T. ) ;
#124 = ORIENTED_EDGE ( 'NONE', *, *, #293, .T. ) ;
#125 = ORIENTED_EDGE ( 'NONE', *, *, #397, .F. ) ;
#126 = CARTESIAN_POINT ( 'NONE',  ( 3.301647770501288687E-15, -11.96000000000000441, 0.000000000000000000 ) ) ;
#127 = EDGE_LOOP ( 'NONE', ( #288, #103, #238, #327 ) ) ;
#128 = AXIS2_PLACEMENT_3D ( 'NONE', #1, #33, #163 ) ;
#129 = CARTESIAN_POINT ( 'NONE',  ( 1.734723475976807094E-15, 5.055492940258877965, 0.000000000000000000 ) ) ;
#130 = PERSON ( 'UNSPECIFIED', 'UNSPECIFIED', 'UNSPECIFIED', ('UNSPECIFIED'), ('UNSPECIFIED'), ('UNSPECIFIED') ) ;
#131 = CARTESIAN_POINT ( 'NONE',  ( 16.85000000000000142, -7.745916510930479669E-17, 2.063529856563290244E-15 ) ) ;
#132 = VERTEX_POINT ( 'NONE', #121 ) ;
#133 = ADVANCED_FACE ( 'NONE', ( #149 ), #250, .T. ) ;
#134 = EDGE_LOOP ( 'NONE', ( #346, #294, #389 ) ) ;
#135 = AXIS2_PLACEMENT_3D ( 'NONE', #19, #144, #75 ) ;
#136 = EDGE_LOOP ( 'NONE', ( #237, #241 ) ) ;
#137 = ORIENTED_EDGE ( 'NONE', *, *, #53, .T. ) ;
#138 = VERTEX_POINT ( 'NONE', #278 ) ;
#139 = DIRECTION ( 'NONE',  ( 4.596983092540343816E-18, 1.000000000000000000, -0.000000000000000000 ) ) ;
#140 = AXIS2_PLACEMENT_3D ( 'NONE', #23, #222, #363 ) ;
#141 = DIRECTION ( 'NONE',  ( -1.000000000000000000, 4.596983092540343816E-18, 0.000000000000000000 ) ) ;
#142 = DIRECTION ( 'NONE',  ( -1.000000000000000000, 4.596983092540343046E-18, 0.000000000000000000 ) ) ;
#143 = COORDINATED_UNIVERSAL_TIME_OFFSET ( 1, 0, .AHEAD. ) ;
#144 = DIRECTION ( 'NONE',  ( 0.000000000000000000, 0.000000000000000000, 1.000000000000000000 ) ) ;
#145 = ADVANCED_FACE ( 'NONE', ( #91 ), #182, .F. ) ;
#146 = CALENDAR_DATE ( 2024, 18, 7 ) ;
#147 = APPLICATION_CONTEXT ( 'configuration controlled 3d designs of mechanical parts and assemblies' ) ;
#148 = AXIS2_PLACEMENT_3D ( 'NONE', #192, #231, #261 ) ;
#149 = FACE_OUTER_BOUND ( 'NONE', #10, .T. ) ;
#150 = CC_DESIGN_DATE_AND_TIME_ASSIGNMENT ( #211, #217, ( #404 ) ) ;
#151 = SPHERICAL_SURFACE ( 'NONE', #300, 24.96000000000000441 ) ;
#152 = DIRECTION ( 'NONE',  ( 4.596983092540343816E-18, 1.000000000000000000, -0.000000000000000000 ) ) ;
#153 = SPHERICAL_SURFACE ( 'NONE', #119, 22.96000000000000085 ) ;
#154 =( GEOMETRIC_REPRESENTATION_CONTEXT ( 3 ) GLOBAL_UNCERTAINTY_ASSIGNED_CONTEXT ( ( #216 ) ) GLOBAL_UNIT_ASSIGNED_CONTEXT ( ( #307, #41, #113 ) ) REPRESENTATION_CONTEXT ( 'NONE', 'WORKASPACE' ) );
#155 = EDGE_CURVE ( 'NONE', #138, #169, #172, .T. ) ;
#156 = ORIENTED_EDGE ( 'NONE', *, *, #273, .T. ) ;
#157 = DIRECTION ( 'NONE',  ( 4.596983092540343816E-18, 1.000000000000000000, -0.000000000000000000 ) ) ;
#158 = ORIENTED_EDGE ( 'NONE', *, *, #403, .F. ) ;
#159 = DIRECTION ( 'NONE',  ( -1.000000000000000000, 0.000000000000000000, 0.000000000000000000 ) ) ;
#160 = APPROVAL_PERSON_ORGANIZATION ( #369, #210, #332 ) ;
#161 = VECTOR ( 'NONE', #152, 1000.000000000000000 ) ;
#162 = PRODUCT_DEFINITION ( 'UNKNOWN', '', #62, #51 ) ;
#163 = DIRECTION ( 'NONE',  ( -1.000000000000000000, 0.000000000000000000, 0.000000000000000000 ) ) ;
#164 = ORIENTED_EDGE ( 'NONE', *, *, #371, .T. ) ;
#165 = ORIENTED_EDGE ( 'NONE', *, *, #388, .F. ) ;
#166 = TOROIDAL_SURFACE ( 'NONE', #258, 13.79500000000000348, 1.054999999999999494 ) ;
#167 = DIRECTION ( 'NONE',  ( -1.000000000000000000, 0.000000000000000000, 0.000000000000000000 ) ) ;
#168 = DIRECTION ( 'NONE',  ( -1.000000000000000000, 0.000000000000000000, 0.000000000000000000 ) ) ;
#169 = VERTEX_POINT ( 'NONE', #17 ) ;
#170 = DATE_AND_TIME ( #146, #253 ) ;
#171 = CARTESIAN_POINT ( 'NONE',  ( 1.734723475976807094E-15, 5.055492940258877965, 0.000000000000000000 ) ) ;
#172 = CIRCLE ( 'NONE', #140, 14.84999999999999964 ) ;
#173 = PERSON_AND_ORGANIZATION_ROLE ( 'creator' ) ;
#174 = COORDINATED_UNIVERSAL_TIME_OFFSET ( 1, 0, .AHEAD. ) ;
#175 = DIRECTION ( 'NONE',  ( 4.596983092540343816E-18, 1.000000000000000000, -0.000000000000000000 ) ) ;
#176 = CC_DESIGN_APPROVAL ( #351, ( #62 ) ) ;
#177 = PERSON_AND_ORGANIZATION ( #130, #213 ) ;
#178 = EDGE_CURVE ( 'NONE', #37, #102, #372, .T. ) ;
#179 = AXIS2_PLACEMENT_3D ( 'NONE', #96, #228, #286 ) ;
#180 = CARTESIAN_POINT ( 'NONE',  ( 9.236488298952508525E-16, 0.000000000000000000, 0.000000000000000000 ) ) ;
#181 = DIRECTION ( 'NONE',  ( -1.000000000000000000, 0.000000000000000000, 0.000000000000000000 ) ) ;
#182 = SPHERICAL_SURFACE ( 'NONE', #219, 22.96000000000000085 ) ;
#183 = CARTESIAN_POINT ( 'NONE',  ( -16.85000000000000142, 7.745916510930479669E-17, 0.000000000000000000 ) ) ;
#184 = CARTESIAN_POINT ( 'NONE',  ( -1.780392361848825308E-34, -3.872958255465239834E-17, 0.000000000000000000 ) ) ;
#185 = AXIS2_PLACEMENT_3D ( 'NONE', #260, #355, #98 ) ;
#186 = ORIENTED_EDGE ( 'NONE', *, *, #123, .T. ) ;
#187 = DIRECTION ( 'NONE',  ( -0.000000000000000000, 0.000000000000000000, -1.000000000000000000 ) ) ;
#188 = CC_DESIGN_APPROVAL ( #87, ( #162 ) ) ;
#189 = EDGE_CURVE ( 'NONE', #319, #29, #45, .T. ) ;
#190 = ORIENTED_EDGE ( 'NONE', *, *, #39, .T. ) ;
#191 = DIRECTION ( 'NONE',  ( -0.000000000000000000, 0.000000000000000000, -1.000000000000000000 ) ) ;
#192 = CARTESIAN_POINT ( 'NONE',  ( 9.468888454660790406E-16, 5.055492940258865531, 0.000000000000000000 ) ) ;
#193 = AXIS2_PLACEMENT_3D ( 'NONE', #180, #89, #402 ) ;
#194 = CARTESIAN_POINT ( 'NONE',  ( -13.79500000000000171, 5.055492940258877965, 0.000000000000000000 ) ) ;
#195 = DIRECTION ( 'NONE',  ( 4.596983092540343816E-18, 1.000000000000000000, -0.000000000000000000 ) ) ;
#196 = ORIENTED_EDGE ( 'NONE', *, *, #273, .F. ) ;
#197 = ADVANCED_FACE ( 'NONE', ( #81 ), #390, .F. ) ;
#198 = EDGE_LOOP ( 'NONE', ( #9, #156, #137, #158 ) ) ;
#199 = CARTESIAN_POINT ( 'NONE',  ( 14.45940196302218261, 5.875001958837859029, 1.794683264946913221E-15 ) ) ;
#200 = CIRCLE ( 'NONE', #66, 16.85000000000000142 ) ;
#201 = CALENDAR_DATE ( 2024, 18, 7 ) ;
#202 = VERTEX_POINT ( 'NONE', #15 ) ;
#203 = CC_DESIGN_DATE_AND_TIME_ASSIGNMENT ( #272, #47, ( #162 ) ) ;
#204 = CARTESIAN_POINT ( 'NONE',  ( 3.301647770501288687E-15, -11.96000000000000441, 0.000000000000000000 ) ) ;
#205 = PERSON_AND_ORGANIZATION ( #130, #213 ) ;
#206 = APPROVAL_DATE_TIME ( #170, #210 ) ;
#207 = PRODUCT_DEFINITION_SHAPE ( 'NONE', 'NONE',  #162 ) ;
#208 = DIRECTION ( 'NONE',  ( -0.000000000000000000, 0.000000000000000000, -1.000000000000000000 ) ) ;
#209 = MECHANICAL_CONTEXT ( 'NONE', #376, 'mechanical' ) ;
#210 = APPROVAL ( #308, 'UNSPECIFIED' ) ;
#211 = DATE_AND_TIME ( #82, #236 ) ;
#212 = ADVANCED_FACE ( 'NONE', ( #334 ), #46, .F. ) ;
#213 = ORGANIZATION ( 'UNSPECIFIED', 'UNSPECIFIED', '' ) ;
#214 = LINE ( 'NONE', #246, #8 ) ;
#215 = APPROVAL_ROLE ( '' ) ;
#216 = UNCERTAINTY_MEASURE_WITH_UNIT (LENGTH_MEASURE( 1.000000000000000082E-05 ), #307, 'distance_accuracy_value', 'NONE');
#217 = DATE_TIME_ROLE ( 'classification_date' ) ;
#218 = CLOSED_SHELL ( 'NONE', ( #72, #255, #212, #84, #310, #249, #116, #133, #225, #377, #345, #197, #145 ) ) ;
#219 = AXIS2_PLACEMENT_3D ( 'NONE', #373, #341, #55 ) ;
#220 = FACE_OUTER_BOUND ( 'NONE', #136, .T. ) ;
#221 = DIRECTION ( 'NONE',  ( 1.000000000000000000, -4.596983092540343816E-18, 0.000000000000000000 ) ) ;
#222 = DIRECTION ( 'NONE',  ( 4.596983092540343816E-18, 1.000000000000000000, -0.000000000000000000 ) ) ;
#223 = DIRECTION ( 'NONE',  ( -1.000000000000000000, 0.000000000000000000, 0.000000000000000000 ) ) ;
#224 = EDGE_LOOP ( 'NONE', ( #411, #329, #69 ) ) ;
#225 = ADVANCED_FACE ( 'NONE', ( #304 ), #270, .T. ) ;
#226 = AXIS2_PLACEMENT_3D ( 'NONE', #289, #290, #28 ) ;
#227 = ORIENTED_EDGE ( 'NONE', *, *, #357, .T. ) ;
#228 = DIRECTION ( 'NONE',  ( 4.596983092540343816E-18, 1.000000000000000000, -0.000000000000000000 ) ) ;
#229 = FACE_OUTER_BOUND ( 'NONE', #71, .T. ) ;
#230 = CC_DESIGN_PERSON_AND_ORGANIZATION_ASSIGNMENT ( #16, #275, ( #404 ) ) ;
#231 = DIRECTION ( 'NONE',  ( 4.596983092540343816E-18, 1.000000000000000000, -0.000000000000000000 ) ) ;
#232 = AXIS2_PLACEMENT_3D ( 'NONE', #58, #374, #90 ) ;
#233 = MANIFOLD_SOLID_BREP ( 'Wandung1', #218 ) ;
#234 = DIRECTION ( 'NONE',  ( -1.000000000000000000, 4.596983092540343816E-18, 0.000000000000000000 ) ) ;
#235 = ORIENTED_EDGE ( 'NONE', *, *, #409, .T. ) ;
#236 = LOCAL_TIME ( 12, 5, 36.00000000000000000, #174 ) ;
#237 = ORIENTED_EDGE ( 'NONE', *, *, #112, .F. ) ;
#238 = ORIENTED_EDGE ( 'NONE', *, *, #397, .T. ) ;
#239 = AXIS2_PLACEMENT_3D ( 'NONE', #401, #120, #344 ) ;
#240 = CC_DESIGN_PERSON_AND_ORGANIZATION_ASSIGNMENT ( #274, #335, ( #406 ) ) ;
#241 = ORIENTED_EDGE ( 'NONE', *, *, #371, .F. ) ;
#242 = CARTESIAN_POINT ( 'NONE',  ( 3.383634972961490347E-15, 5.875001958837859029, 0.000000000000000000 ) ) ;
#243 = DATE_AND_TIME ( #201, #85 ) ;
#244 = CARTESIAN_POINT ( 'NONE',  ( 1.387778780781445676E-14, 2817.965330118411202, 0.000000000000000000 ) ) ;
#245 = CALENDAR_DATE ( 2024, 18, 7 ) ;
#246 = CARTESIAN_POINT ( 'NONE',  ( 14.85000000000001386, 2817.965330118411202, 1.818600496733819553E-15 ) ) ;
#247 = AXIS2_PLACEMENT_3D ( 'NONE', #383, #321, #34 ) ;
#248 = CIRCLE ( 'NONE', #48, 22.96000000000000085 ) ;
#249 = ADVANCED_FACE ( 'NONE', ( #331 ), #394, .T. ) ;
#250 = CYLINDRICAL_SURFACE ( 'NONE', #106, 16.85000000000000142 ) ;
#251 = DIRECTION ( 'NONE',  ( 4.596983092540343816E-18, 1.000000000000000000, -0.000000000000000000 ) ) ;
#252 = PLANE ( 'NONE',  #353 ) ;
#253 = LOCAL_TIME ( 12, 5, 36.00000000000000000, #339 ) ;
#254 = ORIENTED_EDGE ( 'NONE', *, *, #6, .T. ) ;
#255 = ADVANCED_FACE ( 'NONE', ( #229 ), #166, .F. ) ;
#256 = ORIENTED_EDGE ( 'NONE', *, *, #49, .F. ) ;
#257 = DIRECTION ( 'NONE',  ( 0.000000000000000000, 0.000000000000000000, 1.000000000000000000 ) ) ;
#258 = AXIS2_PLACEMENT_3D ( 'NONE', #129, #195, #350 ) ;
#259 = ORIENTED_EDGE ( 'NONE', *, *, #306, .T. ) ;
#260 = CARTESIAN_POINT ( 'NONE',  ( 13.79500000000000526, 5.055492940258877965, 1.689400259423774138E-15 ) ) ;
#261 = DIRECTION ( 'NONE',  ( -1.000000000000000000, 0.000000000000000000, 0.000000000000000000 ) ) ;
#262 = CARTESIAN_POINT ( 'NONE',  ( -16.84999999999998721, 2817.965330118411202, 0.000000000000000000 ) ) ;
#263 = ORIENTED_EDGE ( 'NONE', *, *, #357, .F. ) ;
#264 = EDGE_CURVE ( 'NONE', #59, #93, #74, .T. ) ;
#265 = ORIENTED_EDGE ( 'NONE', *, *, #267, .F. ) ;
#266 = ORIENTED_EDGE ( 'NONE', *, *, #53, .F. ) ;
#267 = EDGE_CURVE ( 'NONE', #93, #29, #309, .T. ) ;
#268 = ORIENTED_EDGE ( 'NONE', *, *, #267, .T. ) ;
#269 = AXIS2_PLACEMENT_3D ( 'NONE', #359, #14, #167 ) ;
#270 = TOROIDAL_SURFACE ( 'NONE', #88, 13.79500000000000348, 3.054999999999999716 ) ;
#271 = DIRECTION ( 'NONE',  ( -1.000000000000000000, 0.000000000000000000, 0.000000000000000000 ) ) ;
#272 = DATE_AND_TIME ( #245, #314 ) ;
#273 = EDGE_CURVE ( 'NONE', #132, #40, #361, .T. ) ;
#274 = PERSON_AND_ORGANIZATION ( #130, #213 ) ;
#275 = PERSON_AND_ORGANIZATION_ROLE ( 'classification_officer' ) ;
#276 = AXIS2_PLACEMENT_3D ( 'NONE', #194, #187, #101 ) ;
#277 = CC_DESIGN_PERSON_AND_ORGANIZATION_ASSIGNMENT ( #114, #50, ( #62 ) ) ;
#278 = CARTESIAN_POINT ( 'NONE',  ( -14.84999999999999787, 6.826519892422410906E-17, 0.000000000000000000 ) ) ;
#279 = CARTESIAN_POINT ( 'NONE',  ( 14.85000000000000497, 5.055492940258873524, 1.818600496733819948E-15 ) ) ;
#280 = AXIS2_PLACEMENT_3D ( 'NONE', #242, #139, #365 ) ;
#281 = DIRECTION ( 'NONE',  ( 1.000000000000000000, -4.596983092540343816E-18, 0.000000000000000000 ) ) ;
#282 = CARTESIAN_POINT ( 'NONE',  ( -16.85000000000000142, 5.055492940258865531, 0.000000000000000000 ) ) ;
#283 = AXIS2_PLACEMENT_3D ( 'NONE', #83, #302, #168 ) ;
#284 = EDGE_CURVE ( 'NONE', #319, #381, #2, .T. ) ;
#285 = ORIENTED_EDGE ( 'NONE', *, *, #189, .T. ) ;
#286 = DIRECTION ( 'NONE',  ( -1.000000000000000000, 0.000000000000000000, 0.000000000000000000 ) ) ;
#287 = CIRCLE ( 'NONE', #105, 14.84999999999999964 ) ;
#288 = ORIENTED_EDGE ( 'NONE', *, *, #409, .F. ) ;
#289 = CARTESIAN_POINT ( 'NONE',  ( 1.734723475976807094E-15, 5.055492940258873524, 0.000000000000000000 ) ) ;
#290 = DIRECTION ( 'NONE',  ( 4.596983092540343816E-18, 1.000000000000000000, -0.000000000000000000 ) ) ;
#291 = CARTESIAN_POINT ( 'NONE',  ( 1.734723475976807094E-15, 5.055492940258877965, 0.000000000000000000 ) ) ;
#292 = EDGE_LOOP ( 'NONE', ( #265, #95, #259, #285 ) ) ;
#293 = EDGE_CURVE ( 'NONE', #29, #319, #20, .T. ) ;
#294 = ORIENTED_EDGE ( 'NONE', *, *, #403, .T. ) ;
#295 = AXIS2_PLACEMENT_3D ( 'NONE', #126, #257, #64 ) ;
#296 = APPROVAL_PERSON_ORGANIZATION ( #177, #351, #18 ) ;
#297 = CARTESIAN_POINT ( 'NONE',  ( 3.301647770501288687E-15, -11.96000000000000441, 0.000000000000000000 ) ) ;
#298 = DIRECTION ( 'NONE',  ( 4.596983092540343816E-18, 1.000000000000000000, -0.000000000000000000 ) ) ;
#299 = ORIENTED_EDGE ( 'NONE', *, *, #326, .F. ) ;
#300 = AXIS2_PLACEMENT_3D ( 'NONE', #92, #342, #223 ) ;
#301 = DIRECTION ( 'NONE',  ( 4.596983092540343816E-18, 1.000000000000000000, -0.000000000000000000 ) ) ;
#302 = DIRECTION ( 'NONE',  ( 4.596983092540343816E-18, 1.000000000000000000, -0.000000000000000000 ) ) ;
#303 = ADVANCED_BREP_SHAPE_REPRESENTATION ( '3D_R175_DN33.7x2_17336190', ( #233, #135 ), #154 ) ;
#304 = FACE_OUTER_BOUND ( 'NONE', #198, .T. ) ;
#305 = APPROVAL_STATUS ( 'not_yet_approved' ) ;
#306 = EDGE_CURVE ( 'NONE', #59, #319, #115, .T. ) ;
#307 =( LENGTH_UNIT ( ) NAMED_UNIT ( * ) SI_UNIT ( .MILLI., .METRE. ) );
#308 = APPROVAL_STATUS ( 'not_yet_approved' ) ;
#309 = CIRCLE ( 'NONE', #247, 1.055000000000000382 ) ;
#310 = ADVANCED_FACE ( 'NONE', ( #3 ), #97, .T. ) ;
#311 = DIRECTION ( 'NONE',  ( -4.596983092540343816E-18, -1.000000000000000000, 0.000000000000000000 ) ) ;
#312 = PRODUCT_RELATED_PRODUCT_CATEGORY ( 'detail', '', ( #406 ) ) ;
#313 = CARTESIAN_POINT ( 'NONE',  ( 3.301647770501288687E-15, -11.96000000000000441, 0.000000000000000000 ) ) ;
#314 = LOCAL_TIME ( 12, 5, 36.00000000000000000, #364 ) ;
#315 = EDGE_LOOP ( 'NONE', ( #190, #5, #330 ) ) ;
#316 = DIRECTION ( 'NONE',  ( 4.596983092540343816E-18, 1.000000000000000000, -0.000000000000000000 ) ) ;
#317 = EDGE_CURVE ( 'NONE', #132, #202, #328, .T. ) ;
#318 = CC_DESIGN_SECURITY_CLASSIFICATION ( #404, ( #62 ) ) ;
#319 = VERTEX_POINT ( 'NONE', #67 ) ;
#320 = CYLINDRICAL_SURFACE ( 'NONE', #347, 14.84999999999999964 ) ;
#321 = DIRECTION ( 'NONE',  ( -1.224646799147353207E-16, 5.629680630014033300E-34, 1.000000000000000000 ) ) ;
#322 = CIRCLE ( 'NONE', #232, 3.054999999999998828 ) ;
#323 = LINE ( 'NONE', #262, #382 ) ;
#324 = FACE_OUTER_BOUND ( 'NONE', #134, .T. ) ;
#325 = ORIENTED_EDGE ( 'NONE', *, *, #317, .T. ) ;
#326 = EDGE_CURVE ( 'NONE', #40, #132, #61, .T. ) ;
#327 = ORIENTED_EDGE ( 'NONE', *, *, #264, .T. ) ;
#328 = CIRCLE ( 'NONE', #185, 3.054999999999998828 ) ;
#329 = ORIENTED_EDGE ( 'NONE', *, *, #388, .T. ) ;
#330 = ORIENTED_EDGE ( 'NONE', *, *, #178, .F. ) ;
#331 = FACE_OUTER_BOUND ( 'NONE', #380, .T. ) ;
#332 = APPROVAL_ROLE ( '' ) ;
#333 = CIRCLE ( 'NONE', #193, 16.85000000000000142 ) ;
#334 = FACE_OUTER_BOUND ( 'NONE', #76, .T. ) ;
#335 = PERSON_AND_ORGANIZATION_ROLE ( 'design_owner' ) ;
#336 = APPROVAL_DATE_TIME ( #80, #351 ) ;
#337 = APPLICATION_PROTOCOL_DEFINITION ( 'international standard', 'config_control_design', 1994, #376 ) ;
#338 = COORDINATED_UNIVERSAL_TIME_OFFSET ( 1, 0, .AHEAD. ) ;
#339 = COORDINATED_UNIVERSAL_TIME_OFFSET ( 1, 0, .AHEAD. ) ;
#340 = CIRCLE ( 'NONE', #239, 15.71893175074184157 ) ;
#341 = DIRECTION ( 'NONE',  ( 0.000000000000000000, 0.000000000000000000, 1.000000000000000000 ) ) ;
#342 = DIRECTION ( 'NONE',  ( 0.000000000000000000, 0.000000000000000000, 1.000000000000000000 ) ) ;
#343 = FACE_BOUND ( 'NONE', #27, .T. ) ;
#344 = DIRECTION ( 'NONE',  ( -1.000000000000000000, 0.000000000000000000, 0.000000000000000000 ) ) ;
#345 = ADVANCED_FACE ( 'NONE', ( #352 ), #320, .F. ) ;
#346 = ORIENTED_EDGE ( 'NONE', *, *, #26, .F. ) ;
#347 = AXIS2_PLACEMENT_3D ( 'NONE', #4, #349, #68 ) ;
#348 = ORIENTED_EDGE ( 'NONE', *, *, #39, .F. ) ;
#349 = DIRECTION ( 'NONE',  ( 4.596983092540343816E-18, 1.000000000000000000, -0.000000000000000000 ) ) ;
#350 = DIRECTION ( 'NONE',  ( -1.000000000000000000, 4.596983092540343046E-18, 0.000000000000000000 ) ) ;
#351 = APPROVAL ( #305, 'UNSPECIFIED' ) ;
#352 = FACE_OUTER_BOUND ( 'NONE', #127, .T. ) ;
#353 = AXIS2_PLACEMENT_3D ( 'NONE', #184, #311, #281 ) ;
#354 = LOCAL_TIME ( 12, 5, 36.00000000000000000, #143 ) ;
#355 = DIRECTION ( 'NONE',  ( -1.224646799147353207E-16, 5.629680630014033300E-34, 1.000000000000000000 ) ) ;
#356 = VERTEX_POINT ( 'NONE', #131 ) ;
#357 = EDGE_CURVE ( 'NONE', #42, #40, #323, .T. ) ;
#358 = ORIENTED_EDGE ( 'NONE', *, *, #112, .T. ) ;
#359 = CARTESIAN_POINT ( 'NONE',  ( 1.734723475976807094E-15, 5.055492940258873524, 0.000000000000000000 ) ) ;
#360 = APPROVAL_DATE_TIME ( #243, #87 ) ;
#361 = CIRCLE ( 'NONE', #128, 16.85000000000000142 ) ;
#362 = ORIENTED_EDGE ( 'NONE', *, *, #123, .F. ) ;
#363 = DIRECTION ( 'NONE',  ( 1.000000000000000000, -4.596983092540343816E-18, 0.000000000000000000 ) ) ;
#364 = COORDINATED_UNIVERSAL_TIME_OFFSET ( 1, 0, .AHEAD. ) ;
#365 = DIRECTION ( 'NONE',  ( -1.000000000000000000, 0.000000000000000000, 0.000000000000000000 ) ) ;
#366 = DIRECTION ( 'NONE',  ( 1.000000000000000000, 0.000000000000000000, 1.224646799147353207E-16 ) ) ;
#367 = SHAPE_DEFINITION_REPRESENTATION ( #207, #303 ) ;
#368 = CARTESIAN_POINT ( 'NONE',  ( -14.84999999999998721, 2817.965330118411202, 0.000000000000000000 ) ) ;
#369 = PERSON_AND_ORGANIZATION ( #130, #213 ) ;
#370 = VECTOR ( 'NONE', #108, 1000.000000000000000 ) ;
#371 = EDGE_CURVE ( 'NONE', #356, #42, #200, .T. ) ;
#372 = CIRCLE ( 'NONE', #400, 24.96000000000000441 ) ;
#373 = CARTESIAN_POINT ( 'NONE',  ( 3.301647770501288687E-15, -11.96000000000000441, 0.000000000000000000 ) ) ;
#374 = DIRECTION ( 'NONE',  ( -0.000000000000000000, 0.000000000000000000, -1.000000000000000000 ) ) ;
#375 = DIRECTION ( 'NONE',  ( 4.596983092540343816E-18, 1.000000000000000000, -0.000000000000000000 ) ) ;
#376 = APPLICATION_CONTEXT ( 'configuration controlled 3d designs of mechanical parts and assemblies' ) ;
#377 = ADVANCED_FACE ( 'NONE', ( #324 ), #60, .T. ) ;
#378 = CARTESIAN_POINT ( 'NONE',  ( 1.888029263155198847E-15, 13.00000000000000000, 0.000000000000000000 ) ) ;
#379 = ORIENTED_EDGE ( 'NONE', *, *, #49, .T. ) ;
#380 = EDGE_LOOP ( 'NONE', ( #358, #186, #299, #263 ) ) ;
#381 = VERTEX_POINT ( 'NONE', #35 ) ;
#382 = VECTOR ( 'NONE', #385, 1000.000000000000000 ) ;
#383 = CARTESIAN_POINT ( 'NONE',  ( 13.79500000000000526, 5.055492940258877965, 1.689400259423774138E-15 ) ) ;
#384 = DIRECTION ( 'NONE',  ( 4.596983092540343816E-18, 1.000000000000000000, -0.000000000000000000 ) ) ;
#385 = DIRECTION ( 'NONE',  ( 4.596983092540343816E-18, 1.000000000000000000, -0.000000000000000000 ) ) ;
#386 = EDGE_LOOP ( 'NONE', ( #165, #107, #407 ) ) ;
#387 = ORIENTED_EDGE ( 'NONE', *, *, #306, .F. ) ;
#388 = EDGE_CURVE ( 'NONE', #29, #381, #248, .T. ) ;
#389 = ORIENTED_EDGE ( 'NONE', *, *, #178, .T. ) ;
#390 = TOROIDAL_SURFACE ( 'NONE', #100, 13.79500000000000348, 1.054999999999999494 ) ;
#391 = ORIENTED_EDGE ( 'NONE', *, *, #6, .F. ) ;
#392 = CARTESIAN_POINT ( 'NONE',  ( 1.387778780781445676E-14, 2817.965330118411202, 0.000000000000000000 ) ) ;
#393 = APPROVAL_STATUS ( 'not_yet_approved' ) ;
#394 = CYLINDRICAL_SURFACE ( 'NONE', #398, 16.85000000000000142 ) ;
#395 = PERSON_AND_ORGANIZATION_ROLE ( 'design_supplier' ) ;
#396 = CALENDAR_DATE ( 2024, 18, 7 ) ;
#397 = EDGE_CURVE ( 'NONE', #138, #59, #13, .T. ) ;
#398 = AXIS2_PLACEMENT_3D ( 'NONE', #244, #157, #159 ) ;
#399 = CARTESIAN_POINT ( 'NONE',  ( 16.85000000000001563, 2817.965330118411202, 2.063529856563290244E-15 ) ) ;
#400 = AXIS2_PLACEMENT_3D ( 'NONE', #204, #208, #271 ) ;
#401 = CARTESIAN_POINT ( 'NONE',  ( 9.577978569432524375E-16, 7.428573558039719416, 0.000000000000000000 ) ) ;
#402 = DIRECTION ( 'NONE',  ( -1.000000000000000000, 4.596983092540343816E-18, 0.000000000000000000 ) ) ;
#403 = EDGE_CURVE ( 'NONE', #202, #37, #117, .T. ) ;
#404 = SECURITY_CLASSIFICATION ( '', '', #77 ) ;
#405 = DIRECTION ( 'NONE',  ( 0.000000000000000000, 0.000000000000000000, 1.000000000000000000 ) ) ;
#406 = PRODUCT ( '3D_R175_DN33.7x2_17336190', '3D_R175_DN33.7x2_17336190', '', ( #209 ) ) ;
#407 = ORIENTED_EDGE ( 'NONE', *, *, #284, .T. ) ;
#408 = DIRECTION ( 'NONE',  ( -1.000000000000000000, 4.596983092540343816E-18, 0.000000000000000000 ) ) ;
#409 = EDGE_CURVE ( 'NONE', #169, #93, #214, .T. ) ;
#410 = AXIS2_PLACEMENT_3D ( 'NONE', #297, #104, #73 ) ;
#411 = ORIENTED_EDGE ( 'NONE', *, *, #293, .F. ) ;
ENDSEC;
END-ISO-10303-21;
