ISO-10303-21;
HEADER;
FILE_DESCRIPTION (( 'STEP AP203' ),
    '1' );
FILE_NAME ('3D_GR1442_60 x 4_188741185.STEP',
    '2024-10-22T15:37:48',
    ( '' ),
    ( '' ),
    'SwSTEP 2.0',
    'SolidWorks 2023',
    '' );
FILE_SCHEMA (( 'CONFIG_CONTROL_DESIGN' ));
ENDSEC;

DATA;
#1 = CC_DESIGN_APPROVAL ( #173, ( #49 ) ) ;
#2 = EDGE_LOOP ( 'NONE', ( #265, #190, #267, #3 ) ) ;
#3 = ORIENTED_EDGE ( 'NONE', *, *, #4, .F. ) ;
#4 = EDGE_CURVE ( 'NONE', #258, #149, #58, .T. ) ;
#5 = ORIENTED_EDGE ( 'NONE', *, *, #4, .T. ) ;
#6 = ORIENTED_EDGE ( 'NONE', *, *, #164, .F. ) ;
#7 = ORIENTED_EDGE ( 'NONE', *, *, #164, .T. ) ;
#8 = DIRECTION ( 'NONE',  ( 0.000000000000000000, 0.000000000000000000, 1.000000000000000000 ) ) ;
#9 = DIRECTION ( 'NONE',  ( -0.000000000000000000, -1.000000000000000000, -0.000000000000000000 ) ) ;
#10 = EDGE_CURVE ( 'NONE', #209, #68, #210, .T. ) ;
#11 = DIRECTION ( 'NONE',  ( 0.000000000000000000, 1.000000000000000000, 0.000000000000000000 ) ) ;
#12 = LOCAL_TIME ( 17, 37, 48.00000000000000000, #256 ) ;
#13 = PLANE ( 'NONE',  #41 ) ;
#14 = CIRCLE ( 'NONE', #33, 29.75000000000000000 ) ;
#15 = CC_DESIGN_SECURITY_CLASSIFICATION ( #157, ( #49 ) ) ;
#16 =( NAMED_UNIT ( * ) PLANE_ANGLE_UNIT ( ) SI_UNIT ( $, .RADIAN. ) );
#17 = CALENDAR_DATE ( 2024, 22, 10 ) ;
#18 = EDGE_LOOP ( 'NONE', ( #217, #67, #50, #85 ) ) ;
#19 = PERSON_AND_ORGANIZATION ( #231, #214 ) ;
#20 = ADVANCED_FACE ( 'NONE', ( #48 ), #184, .T. ) ;
#21 = AXIS2_PLACEMENT_3D ( 'NONE', #27, #104, #87 ) ;
#22 = CALENDAR_DATE ( 2024, 22, 10 ) ;
#23 = PERSON_AND_ORGANIZATION ( #231, #214 ) ;
#24 = ORIENTED_EDGE ( 'NONE', *, *, #107, .F. ) ;
#25 = CIRCLE ( 'NONE', #92, 0.2500000000000002220 ) ;
#26 = DIRECTION ( 'NONE',  ( 0.000000000000000000, 0.000000000000000000, 1.000000000000000000 ) ) ;
#27 = CARTESIAN_POINT ( 'NONE',  ( 0.000000000000000000, 3.750000000000000000, 0.000000000000000000 ) ) ;
#28 = DIRECTION ( 'NONE',  ( 1.000000000000000000, -0.000000000000000000, 1.224646799147353207E-16 ) ) ;
#29 = CIRCLE ( 'NONE', #84, 29.75000000000000000 ) ;
#30 = DIRECTION ( 'NONE',  ( 0.000000000000000000, 0.000000000000000000, 1.000000000000000000 ) ) ;
#31 = VERTEX_POINT ( 'NONE', #45 ) ;
#32 = DIRECTION ( 'NONE',  ( 0.000000000000000000, 1.000000000000000000, 0.000000000000000000 ) ) ;
#33 = AXIS2_PLACEMENT_3D ( 'NONE', #78, #226, #8 ) ;
#34 = DIRECTION ( 'NONE',  ( 0.000000000000000000, -0.000000000000000000, 1.000000000000000000 ) ) ;
#35 = CARTESIAN_POINT ( 'NONE',  ( 0.000000000000000000, 4.000000000000000000, 0.000000000000000000 ) ) ;
#36 = CARTESIAN_POINT ( 'NONE',  ( 0.000000000000000000, 3.750000000000000000, -30.00000000000000000 ) ) ;
#37 = LOCAL_TIME ( 17, 37, 48.00000000000000000, #182 ) ;
#38 = DIRECTION ( 'NONE',  ( 0.000000000000000000, 0.000000000000000000, 1.000000000000000000 ) ) ;
#39 = DATE_AND_TIME ( #64, #222 ) ;
#40 = APPROVAL ( #165, 'UNSPECIFIED' ) ;
#41 = AXIS2_PLACEMENT_3D ( 'NONE', #53, #272, #56 ) ;
#42 = APPLICATION_CONTEXT ( 'configuration controlled 3d designs of mechanical parts and assemblies' ) ;
#43 = COORDINATED_UNIVERSAL_TIME_OFFSET ( 1, 0, .AHEAD. ) ;
#44 = EDGE_CURVE ( 'NONE', #149, #258, #88, .T. ) ;
#45 = CARTESIAN_POINT ( 'NONE',  ( 3.658632312452717284E-15, 0.000000000000000000, -29.75000000000000000 ) ) ;
#46 = ORIENTED_EDGE ( 'NONE', *, *, #10, .T. ) ;
#47 = ORIENTED_EDGE ( 'NONE', *, *, #264, .T. ) ;
#48 = FACE_OUTER_BOUND ( 'NONE', #2, .T. ) ;
#49 = PRODUCT_DEFINITION_FORMATION_WITH_SPECIFIED_SOURCE ( 'ANY', '', #194, .NOT_KNOWN. ) ;
#50 = ORIENTED_EDGE ( 'NONE', *, *, #264, .F. ) ;
#51 = CARTESIAN_POINT ( 'NONE',  ( 0.000000000000000000, 0.2500000000000002220, 29.75000000000000000 ) ) ;
#52 = FACE_OUTER_BOUND ( 'NONE', #69, .T. ) ;
#53 = CARTESIAN_POINT ( 'NONE',  ( 0.000000000000000000, 4.000000000000000000, 0.000000000000000000 ) ) ;
#54 = DIRECTION ( 'NONE',  ( 1.000000000000000000, -0.000000000000000000, 1.224646799147353207E-16 ) ) ;
#55 = EDGE_CURVE ( 'NONE', #209, #258, #86, .T. ) ;
#56 = DIRECTION ( 'NONE',  ( 0.000000000000000000, -0.000000000000000000, 1.000000000000000000 ) ) ;
#57 = DATE_AND_TIME ( #252, #154 ) ;
#58 = CIRCLE ( 'NONE', #203, 30.00000000000000000 ) ;
#59 = APPROVAL_ROLE ( '' ) ;
#60 = APPROVAL_DATE_TIME ( #120, #173 ) ;
#61 = APPLICATION_PROTOCOL_DEFINITION ( 'international standard', 'config_control_design', 1994, #42 ) ;
#62 = AXIS2_PLACEMENT_3D ( 'NONE', #79, #276, #278 ) ;
#63 = ORIENTED_EDGE ( 'NONE', *, *, #55, .T. ) ;
#64 = CALENDAR_DATE ( 2024, 22, 10 ) ;
#65 = ADVANCED_BREP_SHAPE_REPRESENTATION ( '3D_GR1442_60 x 4_188741185', ( #155, #62 ), #206 ) ;
#66 = DIRECTION ( 'NONE',  ( -0.000000000000000000, -1.000000000000000000, -0.000000000000000000 ) ) ;
#67 = ORIENTED_EDGE ( 'NONE', *, *, #102, .T. ) ;
#68 = VERTEX_POINT ( 'NONE', #170 ) ;
#69 = EDGE_LOOP ( 'NONE', ( #99, #108 ) ) ;
#70 = ORIENTED_EDGE ( 'NONE', *, *, #257, .F. ) ;
#71 = AXIS2_PLACEMENT_3D ( 'NONE', #219, #32, #177 ) ;
#72 = CARTESIAN_POINT ( 'NONE',  ( 0.000000000000000000, 0.2500000000000002220, -30.00000000000000000 ) ) ;
#73 = PRODUCT_DEFINITION_SHAPE ( 'NONE', 'NONE',  #236 ) ;
#74 = LINE ( 'NONE', #113, #215 ) ;
#75 = CARTESIAN_POINT ( 'NONE',  ( 0.000000000000000000, 0.000000000000000000, 29.75000000000000000 ) ) ;
#76 = ADVANCED_FACE ( 'NONE', ( #89 ), #156, .T. ) ;
#77 = DIRECTION ( 'NONE',  ( 0.000000000000000000, 0.000000000000000000, 1.000000000000000000 ) ) ;
#78 = CARTESIAN_POINT ( 'NONE',  ( 0.000000000000000000, 4.000000000000000000, 0.000000000000000000 ) ) ;
#79 = CARTESIAN_POINT ( 'NONE',  ( 0.000000000000000000, 0.000000000000000000, 0.000000000000000000 ) ) ;
#80 = CIRCLE ( 'NONE', #237, 0.2500000000000002220 ) ;
#81 = SECURITY_CLASSIFICATION_LEVEL ( 'unclassified' ) ;
#82 = PERSON_AND_ORGANIZATION ( #231, #214 ) ;
#83 =( NAMED_UNIT ( * ) SI_UNIT ( $, .STERADIAN. ) SOLID_ANGLE_UNIT ( ) );
#84 = AXIS2_PLACEMENT_3D ( 'NONE', #174, #248, #160 ) ;
#85 = ORIENTED_EDGE ( 'NONE', *, *, #151, .F. ) ;
#86 = LINE ( 'NONE', #266, #221 ) ;
#87 = DIRECTION ( 'NONE',  ( 0.000000000000000000, 0.000000000000000000, 1.000000000000000000 ) ) ;
#88 = CIRCLE ( 'NONE', #273, 30.00000000000000000 ) ;
#89 = FACE_OUTER_BOUND ( 'NONE', #127, .T. ) ;
#90 = VERTEX_POINT ( 'NONE', #150 ) ;
#91 = DIRECTION ( 'NONE',  ( 0.000000000000000000, 0.000000000000000000, 1.000000000000000000 ) ) ;
#92 = AXIS2_PLACEMENT_3D ( 'NONE', #239, #28, #105 ) ;
#93 = DIRECTION ( 'NONE',  ( 0.000000000000000000, 0.000000000000000000, 1.000000000000000000 ) ) ;
#94 = CC_DESIGN_DATE_AND_TIME_ASSIGNMENT ( #140, #185, ( #236 ) ) ;
#95 = CARTESIAN_POINT ( 'NONE',  ( 0.000000000000000000, 4.000000000000000000, 29.75000000000000000 ) ) ;
#96 = AXIS2_PLACEMENT_3D ( 'NONE', #213, #66, #263 ) ;
#97 = DIRECTION ( 'NONE',  ( 0.000000000000000000, 0.000000000000000000, -1.000000000000000000 ) ) ;
#98 = PERSON_AND_ORGANIZATION_ROLE ( 'creator' ) ;
#99 = ORIENTED_EDGE ( 'NONE', *, *, #169, .T. ) ;
#100 = APPLICATION_PROTOCOL_DEFINITION ( 'international standard', 'config_control_design', 1994, #148 ) ;
#101 = PERSON_AND_ORGANIZATION_ROLE ( 'creator' ) ;
#102 = EDGE_CURVE ( 'NONE', #209, #90, #25, .T. ) ;
#103 = ORIENTED_EDGE ( 'NONE', *, *, #44, .F. ) ;
#104 = DIRECTION ( 'NONE',  ( 0.000000000000000000, 1.000000000000000000, 0.000000000000000000 ) ) ;
#105 = DIRECTION ( 'NONE',  ( 1.224646799147349509E-16, 0.000000000000000000, -1.000000000000000000 ) ) ;
#106 = DIRECTION ( 'NONE',  ( -0.000000000000000000, -1.000000000000000000, -0.000000000000000000 ) ) ;
#107 = EDGE_CURVE ( 'NONE', #31, #147, #29, .T. ) ;
#108 = ORIENTED_EDGE ( 'NONE', *, *, #107, .T. ) ;
#109 = PLANE ( 'NONE',  #122 ) ;
#110 = TOROIDAL_SURFACE ( 'NONE', #277, 29.75000000000000000, 0.2500000000000000000 ) ;
#111 = FACE_OUTER_BOUND ( 'NONE', #131, .T. ) ;
#112 = CC_DESIGN_PERSON_AND_ORGANIZATION_ASSIGNMENT ( #143, #101, ( #49 ) ) ;
#113 = CARTESIAN_POINT ( 'NONE',  ( 3.673940397442059178E-15, 4.000000000000000000, 30.00000000000000000 ) ) ;
#114 = CARTESIAN_POINT ( 'NONE',  ( 0.000000000000000000, 0.2500000000000002220, 0.000000000000000000 ) ) ;
#115 = APPROVAL_PERSON_ORGANIZATION ( #119, #40, #254 ) ;
#116 = AXIS2_PLACEMENT_3D ( 'NONE', #51, #246, #176 ) ;
#117 = APPROVAL_PERSON_ORGANIZATION ( #139, #173, #59 ) ;
#118 = CC_DESIGN_PERSON_AND_ORGANIZATION_ASSIGNMENT ( #229, #227, ( #157 ) ) ;
#119 = PERSON_AND_ORGANIZATION ( #231, #214 ) ;
#120 = DATE_AND_TIME ( #17, #12 ) ;
#121 = CIRCLE ( 'NONE', #116, 0.2500000000000002220 ) ;
#122 = AXIS2_PLACEMENT_3D ( 'NONE', #269, #220, #34 ) ;
#123 = ADVANCED_FACE ( 'NONE', ( #245 ), #13, .T. ) ;
#124 = PERSON_AND_ORGANIZATION_ROLE ( 'design_supplier' ) ;
#125 = CARTESIAN_POINT ( 'NONE',  ( 0.000000000000000000, 0.2500000000000002220, 0.000000000000000000 ) ) ;
#126 = CIRCLE ( 'NONE', #259, 30.00000000000000000 ) ;
#127 = EDGE_LOOP ( 'NONE', ( #152, #6, #172, #262 ) ) ;
#128 = UNCERTAINTY_MEASURE_WITH_UNIT (LENGTH_MEASURE( 1.000000000000000082E-05 ), #270, 'distance_accuracy_value', 'NONE');
#129 = ORIENTED_EDGE ( 'NONE', *, *, #218, .T. ) ;
#130 = AXIS2_PLACEMENT_3D ( 'NONE', #114, #274, #202 ) ;
#131 = EDGE_LOOP ( 'NONE', ( #255, #7, #63, #5 ) ) ;
#132 = DIRECTION ( 'NONE',  ( -0.000000000000000000, -1.000000000000000000, -0.000000000000000000 ) ) ;
#133 = PRODUCT_RELATED_PRODUCT_CATEGORY ( 'detail', '', ( #194 ) ) ;
#134 = CLOSED_SHELL ( 'NONE', ( #228, #233, #188, #191, #123, #275, #20, #76 ) ) ;
#135 = CARTESIAN_POINT ( 'NONE',  ( 0.000000000000000000, 3.750000000000000000, 0.000000000000000000 ) ) ;
#136 = DIRECTION ( 'NONE',  ( -0.000000000000000000, -1.000000000000000000, -0.000000000000000000 ) ) ;
#137 = FACE_OUTER_BOUND ( 'NONE', #195, .T. ) ;
#138 = AXIS2_PLACEMENT_3D ( 'NONE', #235, #212, #30 ) ;
#139 = PERSON_AND_ORGANIZATION ( #231, #214 ) ;
#140 = DATE_AND_TIME ( #207, #241 ) ;
#141 = EDGE_LOOP ( 'NONE', ( #46, #175, #193, #153 ) ) ;
#142 = CC_DESIGN_PERSON_AND_ORGANIZATION_ASSIGNMENT ( #232, #98, ( #236 ) ) ;
#143 = PERSON_AND_ORGANIZATION ( #231, #214 ) ;
#144 = APPROVAL_DATE_TIME ( #57, #40 ) ;
#145 = CC_DESIGN_APPROVAL ( #40, ( #236 ) ) ;
#146 = APPROVAL_DATE_TIME ( #39, #253 ) ;
#147 = VERTEX_POINT ( 'NONE', #75 ) ;
#148 = APPLICATION_CONTEXT ( 'configuration controlled 3d designs of mechanical parts and assemblies' ) ;
#149 = VERTEX_POINT ( 'NONE', #250 ) ;
#150 = CARTESIAN_POINT ( 'NONE',  ( 3.658632312452717284E-15, 4.000000000000000000, -29.75000000000000000 ) ) ;
#151 = EDGE_CURVE ( 'NONE', #68, #230, #249, .T. ) ;
#152 = ORIENTED_EDGE ( 'NONE', *, *, #102, .F. ) ;
#153 = ORIENTED_EDGE ( 'NONE', *, *, #55, .F. ) ;
#154 = LOCAL_TIME ( 17, 37, 48.00000000000000000, #204 ) ;
#155 = MANIFOLD_SOLID_BREP ( 'Verrundung1', #134 ) ;
#156 = TOROIDAL_SURFACE ( 'NONE', #21, 29.75000000000000000, 0.2500000000000000000 ) ;
#157 = SECURITY_CLASSIFICATION ( '', '', #81 ) ;
#158 = CYLINDRICAL_SURFACE ( 'NONE', #205, 30.00000000000000000 ) ;
#159 = CC_DESIGN_PERSON_AND_ORGANIZATION_ASSIGNMENT ( #82, #166, ( #194 ) ) ;
#160 = DIRECTION ( 'NONE',  ( 0.000000000000000000, 0.000000000000000000, 1.000000000000000000 ) ) ;
#161 = DIRECTION ( 'NONE',  ( -1.000000000000000000, 0.000000000000000000, 0.000000000000000000 ) ) ;
#162 = CARTESIAN_POINT ( 'NONE',  ( 0.000000000000000000, 3.750000000000000000, 29.75000000000000000 ) ) ;
#163 = DIRECTION ( 'NONE',  ( -0.000000000000000000, -1.000000000000000000, -0.000000000000000000 ) ) ;
#164 = EDGE_CURVE ( 'NONE', #68, #209, #126, .T. ) ;
#165 = APPROVAL_STATUS ( 'not_yet_approved' ) ;
#166 = PERSON_AND_ORGANIZATION_ROLE ( 'design_owner' ) ;
#167 = APPROVAL_STATUS ( 'not_yet_approved' ) ;
#168 = DIRECTION ( 'NONE',  ( 0.000000000000000000, 0.000000000000000000, 1.000000000000000000 ) ) ;
#169 = EDGE_CURVE ( 'NONE', #147, #31, #192, .T. ) ;
#170 = CARTESIAN_POINT ( 'NONE',  ( 3.673940397442059178E-15, 3.750000000000000000, 30.00000000000000000 ) ) ;
#171 = AXIS2_PLACEMENT_3D ( 'NONE', #162, #161, #77 ) ;
#172 = ORIENTED_EDGE ( 'NONE', *, *, #151, .T. ) ;
#173 = APPROVAL ( #167, 'UNSPECIFIED' ) ;
#174 = CARTESIAN_POINT ( 'NONE',  ( 0.000000000000000000, 0.000000000000000000, 0.000000000000000000 ) ) ;
#175 = ORIENTED_EDGE ( 'NONE', *, *, #224, .T. ) ;
#176 = DIRECTION ( 'NONE',  ( 0.000000000000000000, 0.000000000000000000, 1.000000000000000000 ) ) ;
#177 = DIRECTION ( 'NONE',  ( 0.000000000000000000, 0.000000000000000000, 1.000000000000000000 ) ) ;
#178 = DIRECTION ( 'NONE',  ( 0.000000000000000000, 0.000000000000000000, -1.000000000000000000 ) ) ;
#179 = FACE_OUTER_BOUND ( 'NONE', #18, .T. ) ;
#180 = AXIS2_PLACEMENT_3D ( 'NONE', #223, #163, #38 ) ;
#181 = MECHANICAL_CONTEXT ( 'NONE', #42, 'mechanical' ) ;
#182 = COORDINATED_UNIVERSAL_TIME_OFFSET ( 1, 0, .AHEAD. ) ;
#183 = CC_DESIGN_PERSON_AND_ORGANIZATION_ASSIGNMENT ( #19, #124, ( #49 ) ) ;
#184 = TOROIDAL_SURFACE ( 'NONE', #138, 29.75000000000000000, 0.2500000000000000000 ) ;
#185 = DATE_TIME_ROLE ( 'creation_date' ) ;
#186 = DATE_AND_TIME ( #22, #37 ) ;
#187 = APPROVAL_STATUS ( 'not_yet_approved' ) ;
#188 = ADVANCED_FACE ( 'NONE', ( #200 ), #158, .T. ) ;
#189 = CIRCLE ( 'NONE', #71, 29.75000000000000000 ) ;
#190 = ORIENTED_EDGE ( 'NONE', *, *, #169, .F. ) ;
#191 = ADVANCED_FACE ( 'NONE', ( #111 ), #197, .T. ) ;
#192 = CIRCLE ( 'NONE', #180, 29.75000000000000000 ) ;
#193 = ORIENTED_EDGE ( 'NONE', *, *, #44, .T. ) ;
#194 = PRODUCT ( '3D_GR1442_60 x 4_188741185', '3D_GR1442_60 x 4_188741185', '', ( #181 ) ) ;
#195 = EDGE_LOOP ( 'NONE', ( #24, #129, #103, #70 ) ) ;
#196 = DIRECTION ( 'NONE',  ( 1.224646799147349509E-16, 0.000000000000000000, -1.000000000000000000 ) ) ;
#197 = CYLINDRICAL_SURFACE ( 'NONE', #198, 30.00000000000000000 ) ;
#198 = AXIS2_PLACEMENT_3D ( 'NONE', #35, #132, #178 ) ;
#199 = CARTESIAN_POINT ( 'NONE',  ( 3.643324227463375391E-15, 0.2500000000000002220, -29.75000000000000000 ) ) ;
#200 = FACE_OUTER_BOUND ( 'NONE', #141, .T. ) ;
#201 = CC_DESIGN_DATE_AND_TIME_ASSIGNMENT ( #186, #208, ( #157 ) ) ;
#202 = DIRECTION ( 'NONE',  ( 0.000000000000000000, 0.000000000000000000, 1.000000000000000000 ) ) ;
#203 = AXIS2_PLACEMENT_3D ( 'NONE', #216, #240, #168 ) ;
#204 = COORDINATED_UNIVERSAL_TIME_OFFSET ( 1, 0, .AHEAD. ) ;
#205 = AXIS2_PLACEMENT_3D ( 'NONE', #225, #9, #97 ) ;
#206 =( GEOMETRIC_REPRESENTATION_CONTEXT ( 3 ) GLOBAL_UNCERTAINTY_ASSIGNED_CONTEXT ( ( #128 ) ) GLOBAL_UNIT_ASSIGNED_CONTEXT ( ( #270, #16, #83 ) ) REPRESENTATION_CONTEXT ( 'NONE', 'WORKASPACE' ) );
#207 = CALENDAR_DATE ( 2024, 22, 10 ) ;
#208 = DATE_TIME_ROLE ( 'classification_date' ) ;
#209 = VERTEX_POINT ( 'NONE', #36 ) ;
#210 = CIRCLE ( 'NONE', #96, 30.00000000000000000 ) ;
#211 = DIRECTION ( 'NONE',  ( 0.000000000000000000, 1.000000000000000000, 0.000000000000000000 ) ) ;
#212 = DIRECTION ( 'NONE',  ( 0.000000000000000000, 1.000000000000000000, 0.000000000000000000 ) ) ;
#213 = CARTESIAN_POINT ( 'NONE',  ( 0.000000000000000000, 3.750000000000000000, 0.000000000000000000 ) ) ;
#214 = ORGANIZATION ( 'UNSPECIFIED', 'UNSPECIFIED', '' ) ;
#215 = VECTOR ( 'NONE', #136, 1000.000000000000000 ) ;
#216 = CARTESIAN_POINT ( 'NONE',  ( 0.000000000000000000, 0.2500000000000002220, 0.000000000000000000 ) ) ;
#217 = ORIENTED_EDGE ( 'NONE', *, *, #10, .F. ) ;
#218 = EDGE_CURVE ( 'NONE', #31, #258, #80, .T. ) ;
#219 = CARTESIAN_POINT ( 'NONE',  ( 0.000000000000000000, 4.000000000000000000, 0.000000000000000000 ) ) ;
#220 = DIRECTION ( 'NONE',  ( 0.000000000000000000, 1.000000000000000000, 0.000000000000000000 ) ) ;
#221 = VECTOR ( 'NONE', #106, 1000.000000000000000 ) ;
#222 = LOCAL_TIME ( 17, 37, 48.00000000000000000, #261 ) ;
#223 = CARTESIAN_POINT ( 'NONE',  ( 0.000000000000000000, 0.000000000000000000, 0.000000000000000000 ) ) ;
#224 = EDGE_CURVE ( 'NONE', #68, #149, #74, .T. ) ;
#225 = CARTESIAN_POINT ( 'NONE',  ( 0.000000000000000000, 4.000000000000000000, 0.000000000000000000 ) ) ;
#226 = DIRECTION ( 'NONE',  ( 0.000000000000000000, 1.000000000000000000, 0.000000000000000000 ) ) ;
#227 = PERSON_AND_ORGANIZATION_ROLE ( 'classification_officer' ) ;
#228 = ADVANCED_FACE ( 'NONE', ( #179 ), #110, .T. ) ;
#229 = PERSON_AND_ORGANIZATION ( #231, #214 ) ;
#230 = VERTEX_POINT ( 'NONE', #95 ) ;
#231 = PERSON ( 'UNSPECIFIED', 'UNSPECIFIED', 'UNSPECIFIED', ('UNSPECIFIED'), ('UNSPECIFIED'), ('UNSPECIFIED') ) ;
#232 = PERSON_AND_ORGANIZATION ( #231, #214 ) ;
#233 = ADVANCED_FACE ( 'NONE', ( #137 ), #242, .T. ) ;
#234 = SHAPE_DEFINITION_REPRESENTATION ( #73, #65 ) ;
#235 = CARTESIAN_POINT ( 'NONE',  ( 0.000000000000000000, 0.2500000000000002220, 0.000000000000000000 ) ) ;
#236 = PRODUCT_DEFINITION ( 'UNKNOWN', '', #49, #244 ) ;
#237 = AXIS2_PLACEMENT_3D ( 'NONE', #199, #54, #196 ) ;
#238 = ORIENTED_EDGE ( 'NONE', *, *, #247, .T. ) ;
#239 = CARTESIAN_POINT ( 'NONE',  ( 3.643324227463375391E-15, 3.750000000000000000, -29.75000000000000000 ) ) ;
#240 = DIRECTION ( 'NONE',  ( 0.000000000000000000, 1.000000000000000000, 0.000000000000000000 ) ) ;
#241 = LOCAL_TIME ( 17, 37, 48.00000000000000000, #43 ) ;
#242 = TOROIDAL_SURFACE ( 'NONE', #130, 29.75000000000000000, 0.2500000000000000000 ) ;
#243 = EDGE_LOOP ( 'NONE', ( #47, #238 ) ) ;
#244 = DESIGN_CONTEXT ( 'detailed design', #148, 'design' ) ;
#245 = FACE_OUTER_BOUND ( 'NONE', #243, .T. ) ;
#246 = DIRECTION ( 'NONE',  ( -1.000000000000000000, 0.000000000000000000, 0.000000000000000000 ) ) ;
#247 = EDGE_CURVE ( 'NONE', #90, #230, #14, .T. ) ;
#248 = DIRECTION ( 'NONE',  ( -0.000000000000000000, -1.000000000000000000, -0.000000000000000000 ) ) ;
#249 = CIRCLE ( 'NONE', #171, 0.2500000000000002220 ) ;
#250 = CARTESIAN_POINT ( 'NONE',  ( 3.673940397442059178E-15, 0.2500000000000002220, 30.00000000000000000 ) ) ;
#251 = CARTESIAN_POINT ( 'NONE',  ( 0.000000000000000000, 3.750000000000000000, 0.000000000000000000 ) ) ;
#252 = CALENDAR_DATE ( 2024, 22, 10 ) ;
#253 = APPROVAL ( #187, 'UNSPECIFIED' ) ;
#254 = APPROVAL_ROLE ( '' ) ;
#255 = ORIENTED_EDGE ( 'NONE', *, *, #224, .F. ) ;
#256 = COORDINATED_UNIVERSAL_TIME_OFFSET ( 1, 0, .AHEAD. ) ;
#257 = EDGE_CURVE ( 'NONE', #147, #149, #121, .T. ) ;
#258 = VERTEX_POINT ( 'NONE', #72 ) ;
#259 = AXIS2_PLACEMENT_3D ( 'NONE', #135, #268, #91 ) ;
#260 = CC_DESIGN_APPROVAL ( #253, ( #157 ) ) ;
#261 = COORDINATED_UNIVERSAL_TIME_OFFSET ( 1, 0, .AHEAD. ) ;
#262 = ORIENTED_EDGE ( 'NONE', *, *, #247, .F. ) ;
#263 = DIRECTION ( 'NONE',  ( 0.000000000000000000, 0.000000000000000000, 1.000000000000000000 ) ) ;
#264 = EDGE_CURVE ( 'NONE', #230, #90, #189, .T. ) ;
#265 = ORIENTED_EDGE ( 'NONE', *, *, #218, .F. ) ;
#266 = CARTESIAN_POINT ( 'NONE',  ( 0.000000000000000000, 4.000000000000000000, -30.00000000000000000 ) ) ;
#267 = ORIENTED_EDGE ( 'NONE', *, *, #257, .T. ) ;
#268 = DIRECTION ( 'NONE',  ( -0.000000000000000000, -1.000000000000000000, -0.000000000000000000 ) ) ;
#269 = CARTESIAN_POINT ( 'NONE',  ( 0.000000000000000000, 0.000000000000000000, 0.000000000000000000 ) ) ;
#270 =( LENGTH_UNIT ( ) NAMED_UNIT ( * ) SI_UNIT ( .MILLI., .METRE. ) );
#271 = APPROVAL_PERSON_ORGANIZATION ( #23, #253, #279 ) ;
#272 = DIRECTION ( 'NONE',  ( 0.000000000000000000, 1.000000000000000000, 0.000000000000000000 ) ) ;
#273 = AXIS2_PLACEMENT_3D ( 'NONE', #125, #211, #26 ) ;
#274 = DIRECTION ( 'NONE',  ( 0.000000000000000000, 1.000000000000000000, 0.000000000000000000 ) ) ;
#275 = ADVANCED_FACE ( 'NONE', ( #52 ), #109, .F. ) ;
#276 = DIRECTION ( 'NONE',  ( 0.000000000000000000, 0.000000000000000000, 1.000000000000000000 ) ) ;
#277 = AXIS2_PLACEMENT_3D ( 'NONE', #251, #11, #93 ) ;
#278 = DIRECTION ( 'NONE',  ( 1.000000000000000000, 0.000000000000000000, 0.000000000000000000 ) ) ;
#279 = APPROVAL_ROLE ( '' ) ;
ENDSEC;
END-ISO-10303-21;
