ISO-10303-21;
HEADER;
FILE_DESCRIPTION (( 'STEP AP203' ),
    '1' );
FILE_NAME ('3D_M2060_50-40_174121080.STEP',
    '2024-09-05T10:20:50',
    ( '' ),
    ( '' ),
    'SwSTEP 2.0',
    'SolidWorks 2024',
    '' );
FILE_SCHEMA (( 'CONFIG_CONTROL_DESIGN' ));
ENDSEC;

DATA;
#1 = APPLICATION_PROTOCOL_DEFINITION ( 'international standard', 'config_control_design', 1994, #172 ) ;
#2 = PLANE ( 'NONE',  #79 ) ;
#3 = CC_DESIGN_DATE_AND_TIME_ASSIGNMENT ( #10, #168, ( #102 ) ) ;
#4 = ORIENTED_EDGE ( 'NONE', *, *, #120, .T. ) ;
#5 = CONICAL_SURFACE ( 'NONE', #198, 19.00000000000000000, 0.2662520491509254295 ) ;
#6 = APPLICATION_CONTEXT ( 'configuration controlled 3d designs of mechanical parts and assemblies' ) ;
#7 = DIRECTION ( 'NONE',  ( 0.000000000000000000, 0.000000000000000000, -1.000000000000000000 ) ) ;
#8 = VERTEX_POINT ( 'NONE', #75 ) ;
#9 = ORIENTED_EDGE ( 'NONE', *, *, #99, .F. ) ;
#10 = DATE_AND_TIME ( #113, #193 ) ;
#11 = FACE_OUTER_BOUND ( 'NONE', #147, .T. ) ;
#12 = CALENDAR_DATE ( 2024, 5, 9 ) ;
#13 = VERTEX_POINT ( 'NONE', #192 ) ;
#14 = SHAPE_DEFINITION_REPRESENTATION ( #54, #201 ) ;
#15 = APPROVAL ( #227, 'UNSPECIFIED' ) ;
#16 = ORIENTED_EDGE ( 'NONE', *, *, #58, .F. ) ;
#17 = PERSON_AND_ORGANIZATION ( #167, #217 ) ;
#18 = VECTOR ( 'NONE', #157, 1000.000000000000000 ) ;
#19 = PERSON_AND_ORGANIZATION ( #167, #217 ) ;
#20 = APPROVAL_PERSON_ORGANIZATION ( #78, #145, #61 ) ;
#21 = VERTEX_POINT ( 'NONE', #33 ) ;
#22 = DIRECTION ( 'NONE',  ( 1.000000000000000000, 0.000000000000000000, 0.000000000000000000 ) ) ;
#23 = EDGE_CURVE ( 'NONE', #242, #108, #114, .T. ) ;
#24 = FACE_OUTER_BOUND ( 'NONE', #153, .T. ) ;
#25 = ORIENTED_EDGE ( 'NONE', *, *, #107, .F. ) ;
#26 = CARTESIAN_POINT ( 'NONE',  ( 22.00000000000000000, 0.000000000000000000, 0.000000000000000000 ) ) ;
#27 = CIRCLE ( 'NONE', #176, 17.44521532941027075 ) ;
#28 = PRODUCT ( '3D_M2060_50-40_174121080', '3D_M2060_50-40_174121080', '', ( #66 ) ) ;
#29 = DIRECTION ( 'NONE',  ( -1.000000000000000000, -0.000000000000000000, -0.000000000000000000 ) ) ;
#30 = CARTESIAN_POINT ( 'NONE',  ( 0.000000000000000000, 0.000000000000000000, 0.000000000000000000 ) ) ;
#31 = EDGE_CURVE ( 'NONE', #116, #242, #142, .T. ) ;
#32 = SECURITY_CLASSIFICATION_LEVEL ( 'unclassified' ) ;
#33 = CARTESIAN_POINT ( 'NONE',  ( 22.00000000000000000, 0.000000000000000000, 17.44521532941027075 ) ) ;
#34 = APPROVAL_DATE_TIME ( #94, #145 ) ;
#35 = ORIENTED_EDGE ( 'NONE', *, *, #58, .T. ) ;
#36 = CC_DESIGN_DATE_AND_TIME_ASSIGNMENT ( #133, #214, ( #74 ) ) ;
#37 = CALENDAR_DATE ( 2024, 5, 9 ) ;
#38 = LINE ( 'NONE', #91, #53 ) ;
#39 = COORDINATED_UNIVERSAL_TIME_OFFSET ( 1, 0, .AHEAD. ) ;
#40 = VECTOR ( 'NONE', #95, 1000.000000000000000 ) ;
#41 = CC_DESIGN_SECURITY_CLASSIFICATION ( #102, ( #159 ) ) ;
#42 = CC_DESIGN_APPROVAL ( #145, ( #159 ) ) ;
#43 = EDGE_CURVE ( 'NONE', #21, #13, #208, .T. ) ;
#44 = CARTESIAN_POINT ( 'NONE',  ( 22.00000000000000000, 0.000000000000000000, 0.000000000000000000 ) ) ;
#45 = CARTESIAN_POINT ( 'NONE',  ( 0.000000000000000000, 0.000000000000000000, 0.000000000000000000 ) ) ;
#46 = EDGE_LOOP ( 'NONE', ( #224, #151, #16, #9 ) ) ;
#47 = CARTESIAN_POINT ( 'NONE',  ( 22.00000000000000000, 1.163414459189985485E-15, -19.00000000000000000 ) ) ;
#48 = CARTESIAN_POINT ( 'NONE',  ( 22.00000000000000000, 1.163414459189985485E-15, 19.00000000000000000 ) ) ;
#49 = EDGE_LOOP ( 'NONE', ( #245, #71 ) ) ;
#50 = DIRECTION ( 'NONE',  ( 0.000000000000000000, 0.000000000000000000, -1.000000000000000000 ) ) ;
#51 = PRODUCT_RELATED_PRODUCT_CATEGORY ( 'detail', '', ( #28 ) ) ;
#52 = DIRECTION ( 'NONE',  ( -0.9647638212377321887, 3.222258888032613739E-17, -0.2631174057921088494 ) ) ;
#53 = VECTOR ( 'NONE', #118, 1000.000000000000000 ) ;
#54 = PRODUCT_DEFINITION_SHAPE ( 'NONE', 'NONE',  #74 ) ;
#55 = CARTESIAN_POINT ( 'NONE',  ( 22.00000000000000000, 0.000000000000000000, 0.000000000000000000 ) ) ;
#56 = DATE_AND_TIME ( #117, #98 ) ;
#57 = CARTESIAN_POINT ( 'NONE',  ( 21.60532389131183706, 0.000000000000000000, 0.000000000000000000 ) ) ;
#58 = EDGE_CURVE ( 'NONE', #210, #8, #225, .T. ) ;
#59 = LOCAL_TIME ( 12, 20, 50.00000000000000000, #241 ) ;
#60 = DIRECTION ( 'NONE',  ( 0.000000000000000000, 0.000000000000000000, -1.000000000000000000 ) ) ;
#61 = APPROVAL_ROLE ( '' ) ;
#62 = CC_DESIGN_PERSON_AND_ORGANIZATION_ASSIGNMENT ( #164, #249, ( #28 ) ) ;
#63 =( GEOMETRIC_REPRESENTATION_CONTEXT ( 3 ) GLOBAL_UNCERTAINTY_ASSIGNED_CONTEXT ( ( #123 ) ) GLOBAL_UNIT_ASSIGNED_CONTEXT ( ( #204, #89, #86 ) ) REPRESENTATION_CONTEXT ( 'NONE', 'WORKASPACE' ) );
#64 = AXIS2_PLACEMENT_3D ( 'NONE', #195, #93, #166 ) ;
#65 = DIRECTION ( 'NONE',  ( 1.000000000000000000, 0.000000000000000000, 0.000000000000000000 ) ) ;
#66 = MECHANICAL_CONTEXT ( 'NONE', #6, 'mechanical' ) ;
#67 = CARTESIAN_POINT ( 'NONE',  ( 0.000000000000000000, 0.000000000000000000, 0.000000000000000000 ) ) ;
#68 = DIRECTION ( 'NONE',  ( 0.000000000000000000, 0.000000000000000000, -1.000000000000000000 ) ) ;
#69 = LINE ( 'NONE', #148, #103 ) ;
#70 = CARTESIAN_POINT ( 'NONE',  ( 22.00000000000000000, 0.000000000000000000, 0.000000000000000000 ) ) ;
#71 = ORIENTED_EDGE ( 'NONE', *, *, #191, .F. ) ;
#72 = CONICAL_SURFACE ( 'NONE', #64, 19.00000000000000000, 0.2662520491509254295 ) ;
#73 = COORDINATED_UNIVERSAL_TIME_OFFSET ( 1, 0, .AHEAD. ) ;
#74 = PRODUCT_DEFINITION ( 'UNKNOWN', '', #159, #84 ) ;
#75 = CARTESIAN_POINT ( 'NONE',  ( 0.000000000000000000, 2.871210790848274579E-15, -23.44521532941026720 ) ) ;
#76 = PERSON_AND_ORGANIZATION_ROLE ( 'classification_officer' ) ;
#77 = ORIENTED_EDGE ( 'NONE', *, *, #43, .F. ) ;
#78 = PERSON_AND_ORGANIZATION ( #167, #217 ) ;
#79 = AXIS2_PLACEMENT_3D ( 'NONE', #45, #202, #165 ) ;
#80 = DIRECTION ( 'NONE',  ( 1.000000000000000000, 0.000000000000000000, 0.000000000000000000 ) ) ;
#81 = COORDINATED_UNIVERSAL_TIME_OFFSET ( 1, 0, .AHEAD. ) ;
#82 = ADVANCED_FACE ( 'NONE', ( #112 ), #131, .F. ) ;
#83 = EDGE_CURVE ( 'NONE', #116, #163, #38, .T. ) ;
#84 = DESIGN_CONTEXT ( 'detailed design', #172, 'design' ) ;
#85 = AXIS2_PLACEMENT_3D ( 'NONE', #219, #209, #220 ) ;
#86 =( NAMED_UNIT ( * ) SI_UNIT ( $, .STERADIAN. ) SOLID_ANGLE_UNIT ( ) );
#87 = CARTESIAN_POINT ( 'NONE',  ( 0.000000000000000000, 4.592425496802574367E-15, -25.00000000000000000 ) ) ;
#88 = ADVANCED_FACE ( 'NONE', ( #11 ), #72, .T. ) ;
#89 =( NAMED_UNIT ( * ) PLANE_ANGLE_UNIT ( ) SI_UNIT ( $, .RADIAN. ) );
#90 = DIRECTION ( 'NONE',  ( 1.000000000000000000, 0.000000000000000000, 0.000000000000000000 ) ) ;
#91 = CARTESIAN_POINT ( 'NONE',  ( 22.00000000000000000, 0.000000000000000000, 19.00000000000000000 ) ) ;
#92 = APPROVAL_ROLE ( '' ) ;
#93 = DIRECTION ( 'NONE',  ( -1.000000000000000000, -0.000000000000000000, -0.000000000000000000 ) ) ;
#94 = DATE_AND_TIME ( #12, #59 ) ;
#95 = DIRECTION ( 'NONE',  ( -0.9647638212377321887, 3.222258888032613739E-17, -0.2631174057921088494 ) ) ;
#96 = ORIENTED_EDGE ( 'NONE', *, *, #23, .T. ) ;
#97 = PERSON_AND_ORGANIZATION ( #167, #217 ) ;
#98 = LOCAL_TIME ( 12, 20, 50.00000000000000000, #39 ) ;
#99 = EDGE_CURVE ( 'NONE', #21, #210, #169, .T. ) ;
#100 = AXIS2_PLACEMENT_3D ( 'NONE', #190, #174, #152 ) ;
#101 = CC_DESIGN_PERSON_AND_ORGANIZATION_ASSIGNMENT ( #170, #189, ( #159 ) ) ;
#102 = SECURITY_CLASSIFICATION ( '', '', #32 ) ;
#103 = VECTOR ( 'NONE', #52, 1000.000000000000000 ) ;
#104 = DIRECTION ( 'NONE',  ( 0.000000000000000000, 0.000000000000000000, -1.000000000000000000 ) ) ;
#105 = FACE_OUTER_BOUND ( 'NONE', #223, .T. ) ;
#106 = DIRECTION ( 'NONE',  ( 0.000000000000000000, 0.000000000000000000, 1.000000000000000000 ) ) ;
#107 = EDGE_CURVE ( 'NONE', #13, #8, #69, .T. ) ;
#108 = VERTEX_POINT ( 'NONE', #87 ) ;
#109 = DIRECTION ( 'NONE',  ( 1.000000000000000000, 0.000000000000000000, 0.000000000000000000 ) ) ;
#110 = AXIS2_PLACEMENT_3D ( 'NONE', #67, #65, #68 ) ;
#111 = ORIENTED_EDGE ( 'NONE', *, *, #83, .F. ) ;
#112 = FACE_OUTER_BOUND ( 'NONE', #207, .T. ) ;
#113 = CALENDAR_DATE ( 2024, 5, 9 ) ;
#114 = LINE ( 'NONE', #229, #40 ) ;
#115 = DATE_AND_TIME ( #37, #232 ) ;
#116 = VERTEX_POINT ( 'NONE', #48 ) ;
#117 = CALENDAR_DATE ( 2024, 5, 9 ) ;
#118 = DIRECTION ( 'NONE',  ( -0.9647638212377321887, 0.000000000000000000, 0.2631174057921088494 ) ) ;
#119 = PERSON_AND_ORGANIZATION ( #167, #217 ) ;
#120 = EDGE_CURVE ( 'NONE', #13, #21, #27, .T. ) ;
#121 = AXIS2_PLACEMENT_3D ( 'NONE', #30, #228, #60 ) ;
#122 = EDGE_CURVE ( 'NONE', #242, #116, #160, .T. ) ;
#123 = UNCERTAINTY_MEASURE_WITH_UNIT (LENGTH_MEASURE( 1.000000000000000082E-05 ), #204, 'distance_accuracy_value', 'NONE');
#124 = LOCAL_TIME ( 12, 20, 50.00000000000000000, #196 ) ;
#125 = PLANE ( 'NONE',  #85 ) ;
#126 = APPROVAL_PERSON_ORGANIZATION ( #173, #154, #243 ) ;
#127 = ADVANCED_FACE ( 'NONE', ( #130, #105 ), #125, .T. ) ;
#128 = DIRECTION ( 'NONE',  ( 0.000000000000000000, 0.000000000000000000, -1.000000000000000000 ) ) ;
#129 = ORIENTED_EDGE ( 'NONE', *, *, #191, .T. ) ;
#130 = FACE_BOUND ( 'NONE', #244, .T. ) ;
#131 = CONICAL_SURFACE ( 'NONE', #150, 17.55285426814340255, 0.2662520491509254295 ) ;
#132 = ORIENTED_EDGE ( 'NONE', *, *, #122, .F. ) ;
#133 = DATE_AND_TIME ( #137, #124 ) ;
#134 = ORIENTED_EDGE ( 'NONE', *, *, #31, .F. ) ;
#135 = APPROVAL_DATE_TIME ( #56, #15 ) ;
#136 = DIRECTION ( 'NONE',  ( 0.000000000000000000, 0.000000000000000000, -1.000000000000000000 ) ) ;
#137 = CALENDAR_DATE ( 2024, 5, 9 ) ;
#138 = DIRECTION ( 'NONE',  ( -1.000000000000000000, -0.000000000000000000, -0.000000000000000000 ) ) ;
#139 = CC_DESIGN_PERSON_AND_ORGANIZATION_ASSIGNMENT ( #97, #76, ( #102 ) ) ;
#140 = CC_DESIGN_APPROVAL ( #154, ( #102 ) ) ;
#141 = AXIS2_PLACEMENT_3D ( 'NONE', #239, #205, #222 ) ;
#142 = CIRCLE ( 'NONE', #100, 19.00000000000000000 ) ;
#143 = CLOSED_SHELL ( 'NONE', ( #206, #216, #127, #231, #88, #82 ) ) ;
#144 = FACE_OUTER_BOUND ( 'NONE', #46, .T. ) ;
#145 = APPROVAL ( #156, 'UNSPECIFIED' ) ;
#146 = CARTESIAN_POINT ( 'NONE',  ( 0.000000000000000000, 0.000000000000000000, 0.000000000000000000 ) ) ;
#147 = EDGE_LOOP ( 'NONE', ( #171, #134, #213, #203 ) ) ;
#148 = CARTESIAN_POINT ( 'NONE',  ( 21.60532389131183706, 2.149604679538177563E-15, -17.55285426814340255 ) ) ;
#149 = CARTESIAN_POINT ( 'NONE',  ( 0.000000000000000000, 0.000000000000000000, 23.44521532941026720 ) ) ;
#150 = AXIS2_PLACEMENT_3D ( 'NONE', #57, #138, #215 ) ;
#151 = ORIENTED_EDGE ( 'NONE', *, *, #107, .T. ) ;
#152 = DIRECTION ( 'NONE',  ( 0.000000000000000000, 0.000000000000000000, -1.000000000000000000 ) ) ;
#153 = EDGE_LOOP ( 'NONE', ( #132, #96, #129, #111 ) ) ;
#154 = APPROVAL ( #158, 'UNSPECIFIED' ) ;
#155 = AXIS2_PLACEMENT_3D ( 'NONE', #146, #106, #90 ) ;
#156 = APPROVAL_STATUS ( 'not_yet_approved' ) ;
#157 = DIRECTION ( 'NONE',  ( -0.9647638212377321887, 0.000000000000000000, 0.2631174057921088494 ) ) ;
#158 = APPROVAL_STATUS ( 'not_yet_approved' ) ;
#159 = PRODUCT_DEFINITION_FORMATION_WITH_SPECIFIED_SOURCE ( 'ANY', '', #28, .NOT_KNOWN. ) ;
#160 = CIRCLE ( 'NONE', #197, 19.00000000000000000 ) ;
#161 = FACE_OUTER_BOUND ( 'NONE', #49, .T. ) ;
#162 = APPROVAL_PERSON_ORGANIZATION ( #119, #15, #92 ) ;
#163 = VERTEX_POINT ( 'NONE', #238 ) ;
#164 = PERSON_AND_ORGANIZATION ( #167, #217 ) ;
#165 = DIRECTION ( 'NONE',  ( 0.000000000000000000, 0.000000000000000000, -1.000000000000000000 ) ) ;
#166 = DIRECTION ( 'NONE',  ( 0.000000000000000000, 0.000000000000000000, 1.000000000000000000 ) ) ;
#167 = PERSON ( 'UNSPECIFIED', 'UNSPECIFIED', 'UNSPECIFIED', ('UNSPECIFIED'), ('UNSPECIFIED'), ('UNSPECIFIED') ) ;
#168 = DATE_TIME_ROLE ( 'classification_date' ) ;
#169 = LINE ( 'NONE', #240, #18 ) ;
#170 = PERSON_AND_ORGANIZATION ( #167, #217 ) ;
#171 = ORIENTED_EDGE ( 'NONE', *, *, #23, .F. ) ;
#172 = APPLICATION_CONTEXT ( 'configuration controlled 3d designs of mechanical parts and assemblies' ) ;
#173 = PERSON_AND_ORGANIZATION ( #167, #217 ) ;
#174 = DIRECTION ( 'NONE',  ( 1.000000000000000000, 0.000000000000000000, 0.000000000000000000 ) ) ;
#175 = PERSON_AND_ORGANIZATION_ROLE ( 'creator' ) ;
#176 = AXIS2_PLACEMENT_3D ( 'NONE', #44, #109, #104 ) ;
#177 = EDGE_CURVE ( 'NONE', #163, #108, #248, .T. ) ;
#178 = AXIS2_PLACEMENT_3D ( 'NONE', #187, #22, #7 ) ;
#179 = DIRECTION ( 'NONE',  ( 1.000000000000000000, 0.000000000000000000, 0.000000000000000000 ) ) ;
#180 = CARTESIAN_POINT ( 'NONE',  ( 0.000000000000000000, 0.000000000000000000, 0.000000000000000000 ) ) ;
#181 = ORIENTED_EDGE ( 'NONE', *, *, #120, .F. ) ;
#182 = APPLICATION_PROTOCOL_DEFINITION ( 'international standard', 'config_control_design', 1994, #6 ) ;
#183 = CIRCLE ( 'NONE', #230, 23.44521532941027075 ) ;
#184 = ORIENTED_EDGE ( 'NONE', *, *, #31, .T. ) ;
#185 = FACE_BOUND ( 'NONE', #188, .T. ) ;
#186 = ORIENTED_EDGE ( 'NONE', *, *, #122, .T. ) ;
#187 = CARTESIAN_POINT ( 'NONE',  ( 0.000000000000000000, 0.000000000000000000, 0.000000000000000000 ) ) ;
#188 = EDGE_LOOP ( 'NONE', ( #35, #237 ) ) ;
#189 = PERSON_AND_ORGANIZATION_ROLE ( 'creator' ) ;
#190 = CARTESIAN_POINT ( 'NONE',  ( 22.00000000000000000, 0.000000000000000000, 0.000000000000000000 ) ) ;
#191 = EDGE_CURVE ( 'NONE', #108, #163, #218, .T. ) ;
#192 = CARTESIAN_POINT ( 'NONE',  ( 22.00000000000000000, 2.503816751104068346E-15, -17.44521532941027075 ) ) ;
#193 = LOCAL_TIME ( 12, 20, 50.00000000000000000, #81 ) ;
#194 = APPROVAL_DATE_TIME ( #115, #154 ) ;
#195 = CARTESIAN_POINT ( 'NONE',  ( 22.00000000000000000, 0.000000000000000000, 0.000000000000000000 ) ) ;
#196 = COORDINATED_UNIVERSAL_TIME_OFFSET ( 1, 0, .AHEAD. ) ;
#197 = AXIS2_PLACEMENT_3D ( 'NONE', #70, #236, #128 ) ;
#198 = AXIS2_PLACEMENT_3D ( 'NONE', #26, #29, #200 ) ;
#199 = CC_DESIGN_PERSON_AND_ORGANIZATION_ASSIGNMENT ( #17, #211, ( #159 ) ) ;
#200 = DIRECTION ( 'NONE',  ( 0.000000000000000000, 0.000000000000000000, 1.000000000000000000 ) ) ;
#201 = ADVANCED_BREP_SHAPE_REPRESENTATION ( '3D_M2060_50-40_174121080', ( #235, #155 ), #63 ) ;
#202 = DIRECTION ( 'NONE',  ( 1.000000000000000000, 0.000000000000000000, 0.000000000000000000 ) ) ;
#203 = ORIENTED_EDGE ( 'NONE', *, *, #177, .T. ) ;
#204 =( LENGTH_UNIT ( ) NAMED_UNIT ( * ) SI_UNIT ( .MILLI., .METRE. ) );
#205 = DIRECTION ( 'NONE',  ( -1.000000000000000000, -0.000000000000000000, -0.000000000000000000 ) ) ;
#206 = ADVANCED_FACE ( 'NONE', ( #144 ), #246, .F. ) ;
#207 = EDGE_LOOP ( 'NONE', ( #25, #4, #226, #212 ) ) ;
#208 = CIRCLE ( 'NONE', #234, 17.44521532941027075 ) ;
#209 = DIRECTION ( 'NONE',  ( 1.000000000000000000, 0.000000000000000000, 0.000000000000000000 ) ) ;
#210 = VERTEX_POINT ( 'NONE', #149 ) ;
#211 = PERSON_AND_ORGANIZATION_ROLE ( 'design_supplier' ) ;
#212 = ORIENTED_EDGE ( 'NONE', *, *, #221, .F. ) ;
#213 = ORIENTED_EDGE ( 'NONE', *, *, #83, .T. ) ;
#214 = DATE_TIME_ROLE ( 'creation_date' ) ;
#215 = DIRECTION ( 'NONE',  ( 0.000000000000000000, 0.000000000000000000, 1.000000000000000000 ) ) ;
#216 = ADVANCED_FACE ( 'NONE', ( #24 ), #5, .T. ) ;
#217 = ORGANIZATION ( 'UNSPECIFIED', 'UNSPECIFIED', '' ) ;
#218 = CIRCLE ( 'NONE', #110, 25.00000000000000000 ) ;
#219 = CARTESIAN_POINT ( 'NONE',  ( 22.00000000000000000, 0.000000000000000000, 0.000000000000000000 ) ) ;
#220 = DIRECTION ( 'NONE',  ( 0.000000000000000000, 0.000000000000000000, -1.000000000000000000 ) ) ;
#221 = EDGE_CURVE ( 'NONE', #8, #210, #183, .T. ) ;
#222 = DIRECTION ( 'NONE',  ( 0.000000000000000000, 0.000000000000000000, 1.000000000000000000 ) ) ;
#223 = EDGE_LOOP ( 'NONE', ( #184, #186 ) ) ;
#224 = ORIENTED_EDGE ( 'NONE', *, *, #43, .T. ) ;
#225 = CIRCLE ( 'NONE', #121, 23.44521532941027075 ) ;
#226 = ORIENTED_EDGE ( 'NONE', *, *, #99, .T. ) ;
#227 = APPROVAL_STATUS ( 'not_yet_approved' ) ;
#228 = DIRECTION ( 'NONE',  ( 1.000000000000000000, 0.000000000000000000, 0.000000000000000000 ) ) ;
#229 = CARTESIAN_POINT ( 'NONE',  ( 22.00000000000000000, 2.326828918379970970E-15, -19.00000000000000000 ) ) ;
#230 = AXIS2_PLACEMENT_3D ( 'NONE', #180, #179, #50 ) ;
#231 = ADVANCED_FACE ( 'NONE', ( #185, #161 ), #2, .F. ) ;
#232 = LOCAL_TIME ( 12, 20, 50.00000000000000000, #73 ) ;
#233 = CC_DESIGN_APPROVAL ( #15, ( #74 ) ) ;
#234 = AXIS2_PLACEMENT_3D ( 'NONE', #55, #80, #136 ) ;
#235 = MANIFOLD_SOLID_BREP ( 'Wandung2', #143 ) ;
#236 = DIRECTION ( 'NONE',  ( 1.000000000000000000, 0.000000000000000000, 0.000000000000000000 ) ) ;
#237 = ORIENTED_EDGE ( 'NONE', *, *, #221, .T. ) ;
#238 = CARTESIAN_POINT ( 'NONE',  ( 0.000000000000000000, -1.530808498934191521E-15, 25.00000000000000000 ) ) ;
#239 = CARTESIAN_POINT ( 'NONE',  ( 21.60532389131183706, 0.000000000000000000, 0.000000000000000000 ) ) ;
#240 = CARTESIAN_POINT ( 'NONE',  ( 21.60532389131183706, 0.000000000000000000, 17.55285426814340255 ) ) ;
#241 = COORDINATED_UNIVERSAL_TIME_OFFSET ( 1, 0, .AHEAD. ) ;
#242 = VERTEX_POINT ( 'NONE', #47 ) ;
#243 = APPROVAL_ROLE ( '' ) ;
#244 = EDGE_LOOP ( 'NONE', ( #77, #181 ) ) ;
#245 = ORIENTED_EDGE ( 'NONE', *, *, #177, .F. ) ;
#246 = CONICAL_SURFACE ( 'NONE', #141, 17.55285426814340255, 0.2662520491509254295 ) ;
#247 = CC_DESIGN_PERSON_AND_ORGANIZATION_ASSIGNMENT ( #19, #175, ( #74 ) ) ;
#248 = CIRCLE ( 'NONE', #178, 25.00000000000000000 ) ;
#249 = PERSON_AND_ORGANIZATION_ROLE ( 'design_owner' ) ;
ENDSEC;
END-ISO-10303-21;
