ISO-10303-21;
HEADER;
FILE_DESCRIPTION (( 'STEP AP203' ),
    '1' );
FILE_NAME ('3D_GR1392_DN30x2_18380160.STEP',
    '2024-09-21T10:15:23',
    ( '' ),
    ( '' ),
    'SwSTEP 2.0',
    'SolidWorks 2024',
    '' );
FILE_SCHEMA (( 'CONFIG_CONTROL_DESIGN' ));
ENDSEC;

DATA;
#1 = DIRECTION ( 'NONE',  ( 0.000000000000000000, 0.000000000000000000, 1.000000000000000000 ) ) ;
#2 = EDGE_CURVE ( 'NONE', #194, #42, #25, .T. ) ;
#3 = DIRECTION ( 'NONE',  ( -0.7071067811865474617, 0.000000000000000000, 0.7071067811865474617 ) ) ;
#4 = CIRCLE ( 'NONE', #143, 21.74999999999998579 ) ;
#5 = EDGE_LOOP ( 'NONE', ( #311, #224, #301, #154 ) ) ;
#6 = DIRECTION ( 'NONE',  ( -1.000000000000000000, -0.000000000000000000, -0.000000000000000000 ) ) ;
#7 = VERTEX_POINT ( 'NONE', #324 ) ;
#8 = DIRECTION ( 'NONE',  ( -1.000000000000000000, -0.000000000000000000, -0.000000000000000000 ) ) ;
#9 = DIRECTION ( 'NONE',  ( -1.000000000000000000, -0.000000000000000000, -0.000000000000000000 ) ) ;
#10 = ADVANCED_FACE ( 'NONE', ( #141 ), #269, .T. ) ;
#11 = ORIENTED_EDGE ( 'NONE', *, *, #128, .T. ) ;
#12 = CARTESIAN_POINT ( 'NONE',  ( -2.775557561562891351E-14, 1.592040838891561462E-15, -13.00000000000001776 ) ) ;
#13 = AXIS2_PLACEMENT_3D ( 'NONE', #122, #230, #307 ) ;
#14 = CARTESIAN_POINT ( 'NONE',  ( 13.74999999999996447, 0.000000000000000000, 0.000000000000000000 ) ) ;
#15 = DIRECTION ( 'NONE',  ( 0.000000000000000000, 0.000000000000000000, 1.000000000000000000 ) ) ;
#16 = PRODUCT_RELATED_PRODUCT_CATEGORY ( 'detail', '', ( #267 ) ) ;
#17 = VERTEX_POINT ( 'NONE', #243 ) ;
#18 = EDGE_LOOP ( 'NONE', ( #148, #238 ) ) ;
#19 = ADVANCED_FACE ( 'NONE', ( #294 ), #45, .T. ) ;
#20 = DIRECTION ( 'NONE',  ( 0.000000000000000000, 0.000000000000000000, 1.000000000000000000 ) ) ;
#21 = CARTESIAN_POINT ( 'NONE',  ( -2.775557561562891351E-14, 0.000000000000000000, 0.000000000000000000 ) ) ;
#22 = CALENDAR_DATE ( 2024, 21, 9 ) ;
#23 = EDGE_CURVE ( 'NONE', #7, #197, #4, .T. ) ;
#24 = CLOSED_SHELL ( 'NONE', ( #47, #10, #155, #94, #220, #160, #350, #144, #19, #28 ) ) ;
#25 = LINE ( 'NONE', #318, #158 ) ;
#26 = PERSON_AND_ORGANIZATION ( #347, #50 ) ;
#27 = CARTESIAN_POINT ( 'NONE',  ( 7.999999999999979572, 0.000000000000000000, 0.000000000000000000 ) ) ;
#28 = ADVANCED_FACE ( 'NONE', ( #164 ), #86, .F. ) ;
#29 = CARTESIAN_POINT ( 'NONE',  ( 7.999999999999979572, 0.000000000000000000, 0.000000000000000000 ) ) ;
#30 = APPROVAL_ROLE ( '' ) ;
#31 = ORIENTED_EDGE ( 'NONE', *, *, #23, .T. ) ;
#32 = AXIS2_PLACEMENT_3D ( 'NONE', #91, #65, #310 ) ;
#33 = ORIENTED_EDGE ( 'NONE', *, *, #119, .T. ) ;
#34 = DIRECTION ( 'NONE',  ( -1.000000000000000000, -0.000000000000000000, -0.000000000000000000 ) ) ;
#35 = ORIENTED_EDGE ( 'NONE', *, *, #82, .F. ) ;
#36 = SHAPE_DEFINITION_REPRESENTATION ( #133, #212 ) ;
#37 = DIRECTION ( 'NONE',  ( -1.000000000000000000, -0.000000000000000000, -0.000000000000000000 ) ) ;
#38 = AXIS2_PLACEMENT_3D ( 'NONE', #257, #66, #70 ) ;
#39 = DIRECTION ( 'NONE',  ( -1.000000000000000000, -0.000000000000000000, -0.000000000000000000 ) ) ;
#40 = EDGE_CURVE ( 'NONE', #130, #59, #85, .T. ) ;
#41 = DIRECTION ( 'NONE',  ( -1.000000000000000000, -0.000000000000000000, -0.000000000000000000 ) ) ;
#42 = VERTEX_POINT ( 'NONE', #115 ) ;
#43 =( NAMED_UNIT ( * ) PLANE_ANGLE_UNIT ( ) SI_UNIT ( $, .RADIAN. ) );
#44 = ORIENTED_EDGE ( 'NONE', *, *, #82, .T. ) ;
#45 = CONICAL_SURFACE ( 'NONE', #242, 12.00000000000001954, 0.7853981633974482790 ) ;
#46 = AXIS2_PLACEMENT_3D ( 'NONE', #316, #187, #291 ) ;
#47 = ADVANCED_FACE ( 'NONE', ( #198 ), #252, .T. ) ;
#48 = CARTESIAN_POINT ( 'NONE',  ( 7.999999999999979572, 0.000000000000000000, 0.000000000000000000 ) ) ;
#49 = AXIS2_PLACEMENT_3D ( 'NONE', #176, #120, #74 ) ;
#50 = ORGANIZATION ( 'UNSPECIFIED', 'UNSPECIFIED', '' ) ;
#51 = APPROVAL_ROLE ( '' ) ;
#52 = COORDINATED_UNIVERSAL_TIME_OFFSET ( 1, 0, .AHEAD. ) ;
#53 = PERSON_AND_ORGANIZATION ( #347, #50 ) ;
#54 = CIRCLE ( 'NONE', #180, 21.74999999999998579 ) ;
#55 = EDGE_CURVE ( 'NONE', #344, #287, #147, .T. ) ;
#56 = PERSON_AND_ORGANIZATION_ROLE ( 'creator' ) ;
#57 = ORIENTED_EDGE ( 'NONE', *, *, #282, .F. ) ;
#58 = APPROVAL_DATE_TIME ( #270, #213 ) ;
#59 = VERTEX_POINT ( 'NONE', #266 ) ;
#60 = EDGE_LOOP ( 'NONE', ( #172, #261, #31, #272 ) ) ;
#61 = AXIS2_PLACEMENT_3D ( 'NONE', #181, #340, #203 ) ;
#62 = CIRCLE ( 'NONE', #228, 13.00000000000001776 ) ;
#63 = ORIENTED_EDGE ( 'NONE', *, *, #2, .F. ) ;
#64 = EDGE_CURVE ( 'NONE', #7, #309, #205, .T. ) ;
#65 = DIRECTION ( 'NONE',  ( -1.000000000000000000, -0.000000000000000000, -0.000000000000000000 ) ) ;
#66 = DIRECTION ( 'NONE',  ( -1.000000000000000000, -0.000000000000000000, -0.000000000000000000 ) ) ;
#67 = DIRECTION ( 'NONE',  ( 0.000000000000000000, 0.000000000000000000, 1.000000000000000000 ) ) ;
#68 = LINE ( 'NONE', #179, #302 ) ;
#69 = DIRECTION ( 'NONE',  ( -1.000000000000000000, -0.000000000000000000, -0.000000000000000000 ) ) ;
#70 = DIRECTION ( 'NONE',  ( 0.000000000000000000, 0.000000000000000000, 1.000000000000000000 ) ) ;
#71 = AXIS2_PLACEMENT_3D ( 'NONE', #333, #149, #75 ) ;
#72 = CC_DESIGN_PERSON_AND_ORGANIZATION_ASSIGNMENT ( #114, #268, ( #112 ) ) ;
#73 = VECTOR ( 'NONE', #297, 1000.000000000000000 ) ;
#74 = DIRECTION ( 'NONE',  ( 0.000000000000000000, 1.000000000000000000, 0.000000000000000000 ) ) ;
#75 = DIRECTION ( 'NONE',  ( 0.000000000000000000, 0.000000000000000000, 1.000000000000000000 ) ) ;
#76 = EDGE_LOOP ( 'NONE', ( #247, #211, #11, #246 ) ) ;
#77 = FACE_BOUND ( 'NONE', #18, .T. ) ;
#78 = AXIS2_PLACEMENT_3D ( 'NONE', #14, #235, #210 ) ;
#79 = DIRECTION ( 'NONE',  ( -1.000000000000000000, 0.000000000000000000, -0.000000000000000000 ) ) ;
#80 = LOCAL_TIME ( 12, 15, 23.00000000000000000, #283 ) ;
#81 = CARTESIAN_POINT ( 'NONE',  ( 13.74999999999996447, 0.000000000000000000, 0.000000000000000000 ) ) ;
#82 = EDGE_CURVE ( 'NONE', #194, #130, #330, .T. ) ;
#83 = PERSON_AND_ORGANIZATION_ROLE ( 'creator' ) ;
#84 = DATE_AND_TIME ( #22, #215 ) ;
#85 = LINE ( 'NONE', #196, #313 ) ;
#86 = PLANE ( 'NONE',  #276 ) ;
#87 = ORIENTED_EDGE ( 'NONE', *, *, #119, .F. ) ;
#88 = DIRECTION ( 'NONE',  ( -0.000000000000000000, 0.000000000000000000, 1.000000000000000000 ) ) ;
#89 = ORIENTED_EDGE ( 'NONE', *, *, #40, .T. ) ;
#90 = EDGE_CURVE ( 'NONE', #100, #287, #217, .T. ) ;
#91 = CARTESIAN_POINT ( 'NONE',  ( -154.8395502972293230, 0.000000000000000000, 0.000000000000000000 ) ) ;
#92 = CARTESIAN_POINT ( 'NONE',  ( -2.000000000000001776, 1.836970198721032350E-15, -15.00000000000001954 ) ) ;
#93 = DIRECTION ( 'NONE',  ( 0.000000000000000000, 0.000000000000000000, 1.000000000000000000 ) ) ;
#94 = ADVANCED_FACE ( 'NONE', ( #256 ), #233, .T. ) ;
#95 = FACE_OUTER_BOUND ( 'NONE', #76, .T. ) ;
#96 = DIRECTION ( 'NONE',  ( -1.000000000000000000, -0.000000000000000000, -0.000000000000000000 ) ) ;
#97 = ORIENTED_EDGE ( 'NONE', *, *, #331, .F. ) ;
#98 = CIRCLE ( 'NONE', #137, 15.00000000000001776 ) ;
#99 = DIRECTION ( 'NONE',  ( 0.000000000000000000, 0.000000000000000000, 1.000000000000000000 ) ) ;
#100 = VERTEX_POINT ( 'NONE', #227 ) ;
#101 = UNCERTAINTY_MEASURE_WITH_UNIT (LENGTH_MEASURE( 1.000000000000000082E-05 ), #216, 'distance_accuracy_value', 'NONE');
#102 = APPROVAL_PERSON_ORGANIZATION ( #167, #213, #51 ) ;
#103 = CARTESIAN_POINT ( 'NONE',  ( -2.000000000000001776, 0.000000000000000000, 15.00000000000001954 ) ) ;
#104 = PLANE ( 'NONE',  #201 ) ;
#105 = AXIS2_PLACEMENT_3D ( 'NONE', #286, #251, #93 ) ;
#106 = APPROVAL_STATUS ( 'not_yet_approved' ) ;
#107 = PRODUCT_DEFINITION ( 'UNKNOWN', '', #112, #161 ) ;
#108 = CALENDAR_DATE ( 2024, 21, 9 ) ;
#109 = CARTESIAN_POINT ( 'NONE',  ( -2.000000000000001776, 0.000000000000000000, 0.000000000000000000 ) ) ;
#110 = DIRECTION ( 'NONE',  ( 0.000000000000000000, 1.224646799147353207E-16, -1.000000000000000000 ) ) ;
#111 = APPLICATION_CONTEXT ( 'configuration controlled 3d designs of mechanical parts and assemblies' ) ;
#112 = PRODUCT_DEFINITION_FORMATION_WITH_SPECIFIED_SOURCE ( 'ANY', '', #267, .NOT_KNOWN. ) ;
#113 = EDGE_LOOP ( 'NONE', ( #278, #236, #336, #207, #258 ) ) ;
#114 = PERSON_AND_ORGANIZATION ( #347, #50 ) ;
#115 = CARTESIAN_POINT ( 'NONE',  ( 6.999999999999978684, 1.592040838891561856E-15, -13.00000000000002132 ) ) ;
#116 = EDGE_LOOP ( 'NONE', ( #175, #35 ) ) ;
#117 = CARTESIAN_POINT ( 'NONE',  ( 7.999999999999979572, 0.000000000000000000, 12.00000000000001954 ) ) ;
#118 = DIRECTION ( 'NONE',  ( -0.000000000000000000, 0.000000000000000000, 1.000000000000000000 ) ) ;
#119 = EDGE_CURVE ( 'NONE', #344, #341, #98, .T. ) ;
#120 = DIRECTION ( 'NONE',  ( -0.000000000000000000, 0.000000000000000000, -1.000000000000000000 ) ) ;
#121 = DIRECTION ( 'NONE',  ( 0.000000000000000000, 0.000000000000000000, 1.000000000000000000 ) ) ;
#122 = CARTESIAN_POINT ( 'NONE',  ( -2.000000000000001776, 0.000000000000000000, 0.000000000000000000 ) ) ;
#123 = CARTESIAN_POINT ( 'NONE',  ( -154.8395502972293230, 0.000000000000000000, 15.00000000000001954 ) ) ;
#124 = EDGE_LOOP ( 'NONE', ( #57, #87 ) ) ;
#125 = CIRCLE ( 'NONE', #317, 13.00000000000001954 ) ;
#126 = CC_DESIGN_SECURITY_CLASSIFICATION ( #240, ( #112 ) ) ;
#127 = DIRECTION ( 'NONE',  ( -0.000000000000000000, 0.000000000000000000, 1.000000000000000000 ) ) ;
#128 = EDGE_CURVE ( 'NONE', #309, #100, #239, .T. ) ;
#129 = DIRECTION ( 'NONE',  ( -1.000000000000000000, -0.000000000000000000, -0.000000000000000000 ) ) ;
#130 = VERTEX_POINT ( 'NONE', #117 ) ;
#131 = AXIS2_PLACEMENT_3D ( 'NONE', #48, #264, #20 ) ;
#132 = APPROVAL ( #106, 'UNSPECIFIED' ) ;
#133 = PRODUCT_DEFINITION_SHAPE ( 'NONE', 'NONE',  #107 ) ;
#134 = APPLICATION_PROTOCOL_DEFINITION ( 'international standard', 'config_control_design', 1994, #111 ) ;
#135 = DIRECTION ( 'NONE',  ( 0.000000000000000000, 0.000000000000000000, 1.000000000000000000 ) ) ;
#136 = DATE_TIME_ROLE ( 'classification_date' ) ;
#137 = AXIS2_PLACEMENT_3D ( 'NONE', #335, #96, #15 ) ;
#138 = LOCAL_TIME ( 12, 15, 23.00000000000000000, #299 ) ;
#139 = PERSON_AND_ORGANIZATION_ROLE ( 'design_owner' ) ;
#140 = PERSON_AND_ORGANIZATION ( #347, #50 ) ;
#141 = FACE_OUTER_BOUND ( 'NONE', #174, .T. ) ;
#142 = VERTEX_POINT ( 'NONE', #12 ) ;
#143 = AXIS2_PLACEMENT_3D ( 'NONE', #81, #110, #277 ) ;
#144 = ADVANCED_FACE ( 'NONE', ( #150 ), #209, .T. ) ;
#145 = DIRECTION ( 'NONE',  ( 0.000000000000000000, 0.000000000000000000, 1.000000000000000000 ) ) ;
#146 = ORIENTED_EDGE ( 'NONE', *, *, #319, .T. ) ;
#147 = LINE ( 'NONE', #349, #73 ) ;
#148 = ORIENTED_EDGE ( 'NONE', *, *, #342, .T. ) ;
#149 = DIRECTION ( 'NONE',  ( -1.000000000000000000, -0.000000000000000000, -0.000000000000000000 ) ) ;
#150 = FACE_OUTER_BOUND ( 'NONE', #5, .T. ) ;
#151 = AXIS2_PLACEMENT_3D ( 'NONE', #109, #271, #1 ) ;
#152 = DIRECTION ( 'NONE',  ( -1.000000000000000000, -0.000000000000000000, -0.000000000000000000 ) ) ;
#153 = DIRECTION ( 'NONE',  ( 0.000000000000000000, 0.000000000000000000, 1.000000000000000000 ) ) ;
#154 = ORIENTED_EDGE ( 'NONE', *, *, #244, .F. ) ;
#155 = ADVANCED_FACE ( 'NONE', ( #229 ), #332, .T. ) ;
#156 =( NAMED_UNIT ( * ) SI_UNIT ( $, .STERADIAN. ) SOLID_ANGLE_UNIT ( ) );
#157 = ORIENTED_EDGE ( 'NONE', *, *, #64, .F. ) ;
#158 = VECTOR ( 'NONE', #219, 1000.000000000000114 ) ;
#159 = FACE_OUTER_BOUND ( 'NONE', #124, .T. ) ;
#160 = ADVANCED_FACE ( 'NONE', ( #280 ), #253, .T. ) ;
#161 = DESIGN_CONTEXT ( 'detailed design', #250, 'design' ) ;
#162 = COORDINATED_UNIVERSAL_TIME_OFFSET ( 1, 0, .AHEAD. ) ;
#163 = DATE_TIME_ROLE ( 'creation_date' ) ;
#164 = FACE_OUTER_BOUND ( 'NONE', #116, .T. ) ;
#165 = AXIS2_PLACEMENT_3D ( 'NONE', #327, #322, #145 ) ;
#166 = DATE_AND_TIME ( #265, #284 ) ;
#167 = PERSON_AND_ORGANIZATION ( #347, #50 ) ;
#168 = CARTESIAN_POINT ( 'NONE',  ( 7.999999999999979572, 0.000000000000000000, 0.000000000000000000 ) ) ;
#169 = ORIENTED_EDGE ( 'NONE', *, *, #288, .F. ) ;
#170 = CC_DESIGN_DATE_AND_TIME_ASSIGNMENT ( #84, #136, ( #240 ) ) ;
#171 = DATE_AND_TIME ( #273, #234 ) ;
#172 = ORIENTED_EDGE ( 'NONE', *, *, #90, .T. ) ;
#173 = VECTOR ( 'NONE', #37, 1000.000000000000000 ) ;
#174 = EDGE_LOOP ( 'NONE', ( #226, #274, #183, #97 ) ) ;
#175 = ORIENTED_EDGE ( 'NONE', *, *, #319, .F. ) ;
#176 = CARTESIAN_POINT ( 'NONE',  ( 13.74999999999996447, 0.000000000000000000, 0.000000000000000000 ) ) ;
#177 = CC_DESIGN_PERSON_AND_ORGANIZATION_ASSIGNMENT ( #221, #139, ( #267 ) ) ;
#178 = DATE_AND_TIME ( #248, #80 ) ;
#179 = CARTESIAN_POINT ( 'NONE',  ( -154.8395502972293230, 1.592040838891561462E-15, -13.00000000000001776 ) ) ;
#180 = AXIS2_PLACEMENT_3D ( 'NONE', #305, #118, #281 ) ;
#181 = CARTESIAN_POINT ( 'NONE',  ( 6.999999999999978684, 0.000000000000000000, 0.000000000000000000 ) ) ;
#182 = ORIENTED_EDGE ( 'NONE', *, *, #2, .T. ) ;
#183 = ORIENTED_EDGE ( 'NONE', *, *, #342, .F. ) ;
#184 = AXIS2_PLACEMENT_3D ( 'NONE', #339, #41, #99 ) ;
#185 = CC_DESIGN_DATE_AND_TIME_ASSIGNMENT ( #171, #163, ( #107 ) ) ;
#186 = LINE ( 'NONE', #315, #206 ) ;
#187 = DIRECTION ( 'NONE',  ( 0.000000000000000000, 0.000000000000000000, 1.000000000000000000 ) ) ;
#188 = AXIS2_PLACEMENT_3D ( 'NONE', #303, #69, #67 ) ;
#189 = CC_DESIGN_APPROVAL ( #213, ( #107 ) ) ;
#190 = APPLICATION_PROTOCOL_DEFINITION ( 'international standard', 'config_control_design', 1994, #250 ) ;
#191 = DIRECTION ( 'NONE',  ( 0.000000000000000000, 0.000000000000000000, 1.000000000000000000 ) ) ;
#192 = DIRECTION ( 'NONE',  ( 0.000000000000000000, 0.000000000000000000, 1.000000000000000000 ) ) ;
#193 = EDGE_CURVE ( 'NONE', #59, #42, #125, .T. ) ;
#194 = VERTEX_POINT ( 'NONE', #329 ) ;
#195 = MECHANICAL_CONTEXT ( 'NONE', #111, 'mechanical' ) ;
#196 = CARTESIAN_POINT ( 'NONE',  ( 7.999999999999979572, 0.000000000000000000, 12.00000000000001954 ) ) ;
#197 = VERTEX_POINT ( 'NONE', #334 ) ;
#198 = FACE_OUTER_BOUND ( 'NONE', #300, .T. ) ;
#199 = ORIENTED_EDGE ( 'NONE', *, *, #55, .F. ) ;
#200 = APPROVAL_ROLE ( '' ) ;
#201 = AXIS2_PLACEMENT_3D ( 'NONE', #345, #79, #127 ) ;
#202 = DIRECTION ( 'NONE',  ( 0.000000000000000000, 0.000000000000000000, 1.000000000000000000 ) ) ;
#203 = DIRECTION ( 'NONE',  ( 0.000000000000000000, 0.000000000000000000, 1.000000000000000000 ) ) ;
#204 = MANIFOLD_SOLID_BREP ( 'Rotation1', #24 ) ;
#205 = CIRCLE ( 'NONE', #151, 15.00000000000001954 ) ;
#206 = VECTOR ( 'NONE', #129, 1000.000000000000000 ) ;
#207 = ORIENTED_EDGE ( 'NONE', *, *, #128, .F. ) ;
#208 = APPROVAL ( #348, 'UNSPECIFIED' ) ;
#209 = CYLINDRICAL_SURFACE ( 'NONE', #32, 13.00000000000001776 ) ;
#210 = DIRECTION ( 'NONE',  ( 0.000000000000000000, 1.000000000000000000, 0.000000000000000000 ) ) ;
#211 = ORIENTED_EDGE ( 'NONE', *, *, #64, .T. ) ;
#212 = ADVANCED_BREP_SHAPE_REPRESENTATION ( '3D_GR1392_DN30x2_18380160', ( #204, #46 ), #289 ) ;
#213 = APPROVAL ( #293, 'UNSPECIFIED' ) ;
#214 = ORIENTED_EDGE ( 'NONE', *, *, #292, .F. ) ;
#215 = LOCAL_TIME ( 12, 15, 23.00000000000000000, #162 ) ;
#216 =( LENGTH_UNIT ( ) NAMED_UNIT ( * ) SI_UNIT ( .MILLI., .METRE. ) );
#217 = CIRCLE ( 'NONE', #13, 15.00000000000001954 ) ;
#218 = EDGE_CURVE ( 'NONE', #341, #309, #279, .T. ) ;
#219 = DIRECTION ( 'NONE',  ( -0.7071067811865474617, 8.659560562354932858E-17, -0.7071067811865474617 ) ) ;
#220 = ADVANCED_FACE ( 'NONE', ( #95 ), #308, .T. ) ;
#221 = PERSON_AND_ORGANIZATION ( #347, #50 ) ;
#222 = DIRECTION ( 'NONE',  ( -1.000000000000000000, 0.000000000000000000, -0.000000000000000000 ) ) ;
#223 = AXIS2_PLACEMENT_3D ( 'NONE', #29, #34, #192 ) ;
#224 = ORIENTED_EDGE ( 'NONE', *, *, #288, .T. ) ;
#225 = SECURITY_CLASSIFICATION_LEVEL ( 'unclassified' ) ;
#226 = ORIENTED_EDGE ( 'NONE', *, *, #193, .T. ) ;
#227 = CARTESIAN_POINT ( 'NONE',  ( -2.000000000000003553, 15.00000000000001599, 0.000000000000000000 ) ) ;
#228 = AXIS2_PLACEMENT_3D ( 'NONE', #21, #343, #135 ) ;
#229 = FACE_OUTER_BOUND ( 'NONE', #113, .T. ) ;
#230 = DIRECTION ( 'NONE',  ( -1.000000000000000000, -0.000000000000000000, -0.000000000000000000 ) ) ;
#231 = CC_DESIGN_PERSON_AND_ORGANIZATION_ASSIGNMENT ( #26, #326, ( #240 ) ) ;
#232 = EDGE_LOOP ( 'NONE', ( #199, #33, #298, #157, #214 ) ) ;
#233 = SPHERICAL_SURFACE ( 'NONE', #49, 21.74999999999998579 ) ;
#234 = LOCAL_TIME ( 12, 15, 23.00000000000000000, #52 ) ;
#235 = DIRECTION ( 'NONE',  ( -0.000000000000000000, 0.000000000000000000, -1.000000000000000000 ) ) ;
#236 = ORIENTED_EDGE ( 'NONE', *, *, #55, .T. ) ;
#237 = EDGE_CURVE ( 'NONE', #100, #197, #54, .T. ) ;
#238 = ORIENTED_EDGE ( 'NONE', *, *, #244, .T. ) ;
#239 = CIRCLE ( 'NONE', #184, 15.00000000000001954 ) ;
#240 = SECURITY_CLASSIFICATION ( '', '', #225 ) ;
#241 = PERSON_AND_ORGANIZATION ( #347, #50 ) ;
#242 = AXIS2_PLACEMENT_3D ( 'NONE', #27, #6, #191 ) ;
#243 = CARTESIAN_POINT ( 'NONE',  ( -2.775557561562891351E-14, 0.000000000000000000, 13.00000000000001776 ) ) ;
#244 = EDGE_CURVE ( 'NONE', #142, #17, #346, .T. ) ;
#245 = COORDINATED_UNIVERSAL_TIME_OFFSET ( 1, 0, .AHEAD. ) ;
#246 = ORIENTED_EDGE ( 'NONE', *, *, #237, .T. ) ;
#247 = ORIENTED_EDGE ( 'NONE', *, *, #23, .F. ) ;
#248 = CALENDAR_DATE ( 2024, 21, 9 ) ;
#249 = ORIENTED_EDGE ( 'NONE', *, *, #193, .F. ) ;
#250 = APPLICATION_CONTEXT ( 'configuration controlled 3d designs of mechanical parts and assemblies' ) ;
#251 = DIRECTION ( 'NONE',  ( -1.000000000000000000, -0.000000000000000000, -0.000000000000000000 ) ) ;
#252 = CONICAL_SURFACE ( 'NONE', #223, 12.00000000000001954, 0.7853981633974482790 ) ;
#253 = CYLINDRICAL_SURFACE ( 'NONE', #295, 15.00000000000001954 ) ;
#254 = CC_DESIGN_PERSON_AND_ORGANIZATION_ASSIGNMENT ( #53, #56, ( #107 ) ) ;
#255 = APPROVAL_DATE_TIME ( #178, #208 ) ;
#256 = FACE_OUTER_BOUND ( 'NONE', #60, .T. ) ;
#257 = CARTESIAN_POINT ( 'NONE',  ( -2.775557561562891351E-14, 0.000000000000000000, 0.000000000000000000 ) ) ;
#258 = ORIENTED_EDGE ( 'NONE', *, *, #218, .F. ) ;
#259 = CIRCLE ( 'NONE', #105, 15.00000000000001954 ) ;
#260 = APPROVAL_PERSON_ORGANIZATION ( #140, #132, #30 ) ;
#261 = ORIENTED_EDGE ( 'NONE', *, *, #292, .T. ) ;
#262 = CIRCLE ( 'NONE', #61, 13.00000000000001954 ) ;
#263 = CIRCLE ( 'NONE', #71, 15.00000000000001776 ) ;
#264 = DIRECTION ( 'NONE',  ( -1.000000000000000000, -0.000000000000000000, -0.000000000000000000 ) ) ;
#265 = CALENDAR_DATE ( 2024, 21, 9 ) ;
#266 = CARTESIAN_POINT ( 'NONE',  ( 6.999999999999978684, 0.000000000000000000, 13.00000000000001954 ) ) ;
#267 = PRODUCT ( '3D_GR1392_DN30x2_18380160', '3D_GR1392_DN30x2_18380160', '', ( #195 ) ) ;
#268 = PERSON_AND_ORGANIZATION_ROLE ( 'design_supplier' ) ;
#269 = CYLINDRICAL_SURFACE ( 'NONE', #165, 13.00000000000001776 ) ;
#270 = DATE_AND_TIME ( #108, #138 ) ;
#271 = DIRECTION ( 'NONE',  ( -1.000000000000000000, -0.000000000000000000, -0.000000000000000000 ) ) ;
#272 = ORIENTED_EDGE ( 'NONE', *, *, #237, .F. ) ;
#273 = CALENDAR_DATE ( 2024, 21, 9 ) ;
#274 = ORIENTED_EDGE ( 'NONE', *, *, #304, .T. ) ;
#275 = CARTESIAN_POINT ( 'NONE',  ( 6.999999999999978684, 0.000000000000000000, 0.000000000000000000 ) ) ;
#276 = AXIS2_PLACEMENT_3D ( 'NONE', #351, #222, #88 ) ;
#277 = DIRECTION ( 'NONE',  ( 0.000000000000000000, 1.000000000000000000, 1.224646799147352961E-16 ) ) ;
#278 = ORIENTED_EDGE ( 'NONE', *, *, #282, .T. ) ;
#279 = LINE ( 'NONE', #123, #173 ) ;
#280 = FACE_OUTER_BOUND ( 'NONE', #232, .T. ) ;
#281 = DIRECTION ( 'NONE',  ( 1.000000000000000000, 0.000000000000000000, 0.000000000000000000 ) ) ;
#282 = EDGE_CURVE ( 'NONE', #341, #344, #263, .T. ) ;
#283 = COORDINATED_UNIVERSAL_TIME_OFFSET ( 1, 0, .AHEAD. ) ;
#284 = LOCAL_TIME ( 12, 15, 23.00000000000000000, #245 ) ;
#285 = CARTESIAN_POINT ( 'NONE',  ( -154.8395502972293230, 0.000000000000000000, 0.000000000000000000 ) ) ;
#286 = CARTESIAN_POINT ( 'NONE',  ( -2.000000000000001776, 0.000000000000000000, 0.000000000000000000 ) ) ;
#287 = VERTEX_POINT ( 'NONE', #92 ) ;
#288 = EDGE_CURVE ( 'NONE', #42, #59, #262, .T. ) ;
#289 =( GEOMETRIC_REPRESENTATION_CONTEXT ( 3 ) GLOBAL_UNCERTAINTY_ASSIGNED_CONTEXT ( ( #101 ) ) GLOBAL_UNIT_ASSIGNED_CONTEXT ( ( #216, #43, #156 ) ) REPRESENTATION_CONTEXT ( 'NONE', 'WORKASPACE' ) );
#290 = CARTESIAN_POINT ( 'NONE',  ( 0.000000000000000000, 1.836970198721031955E-15, -15.00000000000001776 ) ) ;
#291 = DIRECTION ( 'NONE',  ( 1.000000000000000000, 0.000000000000000000, 0.000000000000000000 ) ) ;
#292 = EDGE_CURVE ( 'NONE', #287, #7, #259, .T. ) ;
#293 = APPROVAL_STATUS ( 'not_yet_approved' ) ;
#294 = FACE_OUTER_BOUND ( 'NONE', #325, .T. ) ;
#295 = AXIS2_PLACEMENT_3D ( 'NONE', #285, #39, #153 ) ;
#296 = CC_DESIGN_APPROVAL ( #132, ( #112 ) ) ;
#297 = DIRECTION ( 'NONE',  ( -1.000000000000000000, -0.000000000000000000, -0.000000000000000000 ) ) ;
#298 = ORIENTED_EDGE ( 'NONE', *, *, #218, .T. ) ;
#299 = COORDINATED_UNIVERSAL_TIME_OFFSET ( 1, 0, .AHEAD. ) ;
#300 = EDGE_LOOP ( 'NONE', ( #146, #182, #249, #328 ) ) ;
#301 = ORIENTED_EDGE ( 'NONE', *, *, #331, .T. ) ;
#302 = VECTOR ( 'NONE', #152, 1000.000000000000000 ) ;
#303 = CARTESIAN_POINT ( 'NONE',  ( -154.8395502972293230, 0.000000000000000000, 0.000000000000000000 ) ) ;
#304 = EDGE_CURVE ( 'NONE', #42, #142, #68, .T. ) ;
#305 = CARTESIAN_POINT ( 'NONE',  ( 13.74999999999996447, 0.000000000000000000, 0.000000000000000000 ) ) ;
#306 = CC_DESIGN_APPROVAL ( #208, ( #240 ) ) ;
#307 = DIRECTION ( 'NONE',  ( 0.000000000000000000, 0.000000000000000000, 1.000000000000000000 ) ) ;
#308 = SPHERICAL_SURFACE ( 'NONE', #78, 21.74999999999998579 ) ;
#309 = VERTEX_POINT ( 'NONE', #103 ) ;
#310 = DIRECTION ( 'NONE',  ( 0.000000000000000000, 0.000000000000000000, 1.000000000000000000 ) ) ;
#311 = ORIENTED_EDGE ( 'NONE', *, *, #304, .F. ) ;
#312 = CC_DESIGN_PERSON_AND_ORGANIZATION_ASSIGNMENT ( #320, #83, ( #112 ) ) ;
#313 = VECTOR ( 'NONE', #3, 1000.000000000000114 ) ;
#314 = CARTESIAN_POINT ( 'NONE',  ( 0.000000000000000000, 0.000000000000000000, 15.00000000000001776 ) ) ;
#315 = CARTESIAN_POINT ( 'NONE',  ( -154.8395502972293230, 0.000000000000000000, 13.00000000000001776 ) ) ;
#316 = CARTESIAN_POINT ( 'NONE',  ( 0.000000000000000000, 0.000000000000000000, 0.000000000000000000 ) ) ;
#317 = AXIS2_PLACEMENT_3D ( 'NONE', #275, #9, #121 ) ;
#318 = CARTESIAN_POINT ( 'NONE',  ( 7.999999999999979572, 1.469576158976826117E-15, -12.00000000000001954 ) ) ;
#319 = EDGE_CURVE ( 'NONE', #130, #194, #338, .T. ) ;
#320 = PERSON_AND_ORGANIZATION ( #347, #50 ) ;
#321 = APPROVAL_DATE_TIME ( #166, #132 ) ;
#322 = DIRECTION ( 'NONE',  ( -1.000000000000000000, -0.000000000000000000, -0.000000000000000000 ) ) ;
#323 = APPROVAL_PERSON_ORGANIZATION ( #241, #208, #200 ) ;
#324 = CARTESIAN_POINT ( 'NONE',  ( -2.000000000000003553, -15.00000000000001599, -1.836970198721031955E-15 ) ) ;
#325 = EDGE_LOOP ( 'NONE', ( #63, #44, #89, #169 ) ) ;
#326 = PERSON_AND_ORGANIZATION_ROLE ( 'classification_officer' ) ;
#327 = CARTESIAN_POINT ( 'NONE',  ( -154.8395502972293230, 0.000000000000000000, 0.000000000000000000 ) ) ;
#328 = ORIENTED_EDGE ( 'NONE', *, *, #40, .F. ) ;
#329 = CARTESIAN_POINT ( 'NONE',  ( 7.999999999999979572, 1.530808498934193888E-15, -12.00000000000001954 ) ) ;
#330 = CIRCLE ( 'NONE', #337, 12.00000000000001954 ) ;
#331 = EDGE_CURVE ( 'NONE', #59, #17, #186, .T. ) ;
#332 = CYLINDRICAL_SURFACE ( 'NONE', #188, 15.00000000000001954 ) ;
#333 = CARTESIAN_POINT ( 'NONE',  ( 0.000000000000000000, 0.000000000000000000, 0.000000000000000000 ) ) ;
#334 = CARTESIAN_POINT ( 'NONE',  ( -8.000000000000021316, 1.331803394072745525E-15, 0.000000000000000000 ) ) ;
#335 = CARTESIAN_POINT ( 'NONE',  ( 0.000000000000000000, 0.000000000000000000, 0.000000000000000000 ) ) ;
#336 = ORIENTED_EDGE ( 'NONE', *, *, #90, .F. ) ;
#337 = AXIS2_PLACEMENT_3D ( 'NONE', #168, #8, #202 ) ;
#338 = CIRCLE ( 'NONE', #131, 12.00000000000001954 ) ;
#339 = CARTESIAN_POINT ( 'NONE',  ( -2.000000000000001776, 0.000000000000000000, 0.000000000000000000 ) ) ;
#340 = DIRECTION ( 'NONE',  ( -1.000000000000000000, -0.000000000000000000, -0.000000000000000000 ) ) ;
#341 = VERTEX_POINT ( 'NONE', #314 ) ;
#342 = EDGE_CURVE ( 'NONE', #17, #142, #62, .T. ) ;
#343 = DIRECTION ( 'NONE',  ( -1.000000000000000000, -0.000000000000000000, -0.000000000000000000 ) ) ;
#344 = VERTEX_POINT ( 'NONE', #290 ) ;
#345 = CARTESIAN_POINT ( 'NONE',  ( -7.702594565087808464E-15, 13.00000000000001776, 0.000000000000000000 ) ) ;
#346 = CIRCLE ( 'NONE', #38, 13.00000000000001776 ) ;
#347 = PERSON ( 'UNSPECIFIED', 'UNSPECIFIED', 'UNSPECIFIED', ('UNSPECIFIED'), ('UNSPECIFIED'), ('UNSPECIFIED') ) ;
#348 = APPROVAL_STATUS ( 'not_yet_approved' ) ;
#349 = CARTESIAN_POINT ( 'NONE',  ( -154.8395502972293230, 1.836970198721032350E-15, -15.00000000000001954 ) ) ;
#350 = ADVANCED_FACE ( 'NONE', ( #159, #77 ), #104, .F. ) ;
#351 = CARTESIAN_POINT ( 'NONE',  ( 7.999999999999983125, 8.875796951589162995E-16, 0.000000000000000000 ) ) ;
ENDSEC;
END-ISO-10303-21;
